  0
SECTION
  2
HEADER
  9
$ACADVER
  1
AC1015
  9
$ACADMAINTVER
 70
               6
  9
$DWGCODEPAGE
  3
ANSI_932
  9
$INSBASE
 10
0.0
 20
0.0
 30
0.0
  9
$EXTMIN
 10
81.659776427969007
 20
72.836178886699997
 30
0.0
  9
$EXTMAX
 10
190.95840494070706
 20
222.59488185049997
 30
0.0
  9
$LIMMIN
 10
0.0
 20
0.0
  9
$LIMMAX
 10
0.0
 20
0.0
  9
$ORTHOMODE
 70
               0
  9
$REGENMODE
 70
               1
  9
$FILLMODE
 70
               1
  9
$QTEXTMODE
 70
               0
  9
$MIRRTEXT
 70
               1
  9
$LTSCALE
 40
5.0800000000000001
  9
$ATTMODE
 70
               1
  9
$TEXTSIZE
 40
0.2
  9
$TRACEWID
 40
1.0
  9
$TEXTSTYLE
  7
Standard
  9
$CLAYER
  8
0
  9
$CELTYPE
  6
Continuous
  9
$CECOLOR
 62
             256
  9
$CELTSCALE
 40
1.0
  9
$DISPSILH
 70
               0
  9
$DIMSCALE
 40
1.0
  9
$DIMASZ
 40
0.18
  9
$DIMEXO
 40
0.0625
  9
$DIMDLI
 40
0.38
  9
$DIMRND
 40
0.0
  9
$DIMDLE
 40
0.0
  9
$DIMEXE
 40
0.18
  9
$DIMTP
 40
0.0
  9
$DIMTM
 40
0.0
  9
$DIMTXT
 40
0.18
  9
$DIMCEN
 40
0.09
  9
$DIMTSZ
 40
0.0
  9
$DIMTOL
 70
               0
  9
$DIMLIM
 70
               0
  9
$DIMTIH
 70
               1
  9
$DIMTOH
 70
               1
  9
$DIMSE1
 70
               0
  9
$DIMSE2
 70
               0
  9
$DIMTAD
 70
               0
  9
$DIMZIN
 70
               0
  9
$DIMBLK
  1

  9
$DIMASO
 70
               1
  9
$DIMSHO
 70
               1
  9
$DIMPOST
  1

  9
$DIMAPOST
  1

  9
$DIMALT
 70
               0
  9
$DIMALTD
 70
               2
  9
$DIMALTF
 40
25.399999999999999
  9
$DIMLFAC
 40
1.0
  9
$DIMTOFL
 70
               0
  9
$DIMTVP
 40
0.0
  9
$DIMTIX
 70
               0
  9
$DIMSOXD
 70
               0
  9
$DIMSAH
 70
               0
  9
$DIMBLK1
  1

  9
$DIMBLK2
  1

  9
$DIMSTYLE
  2
Standard
  9
$DIMCLRD
 70
               0
  9
$DIMCLRE
 70
               0
  9
$DIMCLRT
 70
               0
  9
$DIMTFAC
 40
1.0
  9
$DIMGAP
 40
0.09
  9
$DIMJUST
 70
               0
  9
$DIMSD1
 70
               0
  9
$DIMSD2
 70
               0
  9
$DIMTOLJ
 70
               1
  9
$DIMTZIN
 70
               0
  9
$DIMALTZ
 70
               0
  9
$DIMALTTZ
 70
               0
  9
$DIMUPT
 70
               0
  9
$DIMDEC
 70
               4
  9
$DIMTDEC
 70
               4
  9
$DIMALTU
 70
               2
  9
$DIMALTTD
 70
               2
  9
$DIMTXSTY
  7
Standard
  9
$DIMAUNIT
 70
               0
  9
$DIMADEC
 70
               0
  9
$DIMALTRND
 40
0.0
  9
$DIMAZIN
 70
               0
  9
$DIMDSEP
 70
               0
  9
$DIMATFIT
 70
               3
  9
$DIMFRAC
 70
               0
  9
$DIMLDRBLK
  1

  9
$DIMLUNIT
 70
               2
  9
$DIMLWD
 70
               0
  9
$DIMLWE
 70
               0
  9
$DIMTMOVE
 70
               0
  9
$LUNITS
 70
               2
  9
$LUPREC
 70
               4
  9
$SKETCHINC
 40
0.1
  9
$FILLETRAD
 40
0.0
  9
$AUNITS
 70
               0
  9
$AUPREC
 70
               0
  9
$MENU
  1
acad
  9
$ELEVATION
 40
0.0
  9
$PELEVATION
 40
0.0
  9
$THICKNESS
 40
0.0
  9
$LIMCHECK
 70
               0
  9
$CHAMFERA
 40
0.0
  9
$CHAMFERB
 40
0.0
  9
$CHAMFERC
 40
0.0
  9
$CHAMFERD
 40
0.0
  9
$SKPOLY
 70
               0
  9
$TDCREATE
 40
2459037.760578704
  9
$TDUCREATE
 40
0.000000000
  9
$TDUPDATE
 40
2459037.760578704
  9
$TDUUPDATE
 40
0.000000000
  9
$TDINDWG
 40
0.0000000000
  9
$TDUSRTIMER
 40
0.0000000000
  9
$USRTIMER
 70
               1
  9
$ANGBASE
 50
0.0
  9
$ANGDIR
 70
               0
  9
$PDMODE
 70
               1
  9
$PDSIZE
 40
-2.0
  9
$PLINEWID
 40
0.0
  9
$SPLFRAME
 70
               0
  9
$SPLINETYPE
 70
               6
  9
$SPLINESEGS
 70
               8
  9
$HANDSEED
  5
3BA
  9
$SURFTAB1
 70
               6
  9
$SURFTAB2
 70
               6
  9
$SURFTYPE
 70
               6
  9
$SURFU
 70
               6
  9
$SURFV
 70
               6
  9
$UCSBASE
  2

  9
$UCSNAME
  2

  9
$UCSORG
 10
0.0
 20
0.0
 30
0.0
  9
$UCSXDIR
 10
1.0
 20
0.0
 30
0.0
  9
$UCSYDIR
 10
0.0
 20
1.0
 30
0.0
  9
$UCSORTHOREF
  2

  9
$UCSORTHOVIEW
 70
               0
  9
$UCSORGTOP
 10
0.0
 20
0.0
 30
0.0
  9
$UCSORGBOTTOM
 10
0.0
 20
0.0
 30
0.0
  9
$UCSORGLEFT
 10
0.0
 20
0.0
 30
0.0
  9
$UCSORGRIGHT
 10
0.0
 20
0.0
 30
0.0
  9
$UCSORGFRONT
 10
0.0
 20
0.0
 30
0.0
  9
$UCSORGBACK
 10
0.0
 20
0.0
 30
0.0
  9
$PUCSBASE
  2

  9
$PUCSNAME
  2

  9
$PUCSORG
 10
0.0
 20
0.0
 30
0.0
  9
$PUCSXDIR
 10
1.0
 20
0.0
 30
0.0
  9
$PUCSYDIR
 10
0.0
 20
1.0
 30
0.0
  9
$PUCSORTHOREF
  2

  9
$PUCSORTHOVIEW
 70
               0
  9
$PUCSORGTOP
 10
0.0
 20
0.0
 30
0.0
  9
$PUCSORGBOTTOM
 10
0.0
 20
0.0
 30
0.0
  9
$PUCSORGLEFT
 10
0.0
 20
0.0
 30
0.0
  9
$PUCSORGRIGHT
 10
0.0
 20
0.0
 30
0.0
  9
$PUCSORGFRONT
 10
0.0
 20
0.0
 30
0.0
  9
$PUCSORGBACK
 10
0.0
 20
0.0
 30
0.0
  9
$USERI1
 70
               0
  9
$USERI2
 70
               0
  9
$USERI3
 70
               0
  9
$USERI4
 70
               0
  9
$USERI5
 70
               0
  9
$USERR1
 40
0.0
  9
$USERR2
 40
0.0
  9
$USERR3
 40
0.0
  9
$USERR4
 40
0.0
  9
$USERR5
 40
0.0
  9
$WORLDVIEW
 70
               1
  9
$SHADEDGE
 70
               3
  9
$SHADEDIF
 70
              70
  9
$TILEMODE
 70
               1
  9
$MAXACTVP
 70
              16
  9
$PINSBASE
 10
0.0
 20
0.0
 30
0.0
  9
$PLIMCHECK
 70
               0
  9
$PEXTMIN
 10
1.0000000000000000E+20
 20
1.0000000000000000E+20
 30
1.0000000000000000E+20
  9
$PEXTMAX
 10
-1.0000000000000000E+20
 20
-1.0000000000000000E+20
 30
-1.0000000000000000E+20
  9
$PLIMMIN
 10
0.0
 20
0.0
  9
$PLIMMAX
 10
12.0
 20
9.0
  9
$UNITMODE
 70
               0
  9
$VISRETAIN
 70
               0
  9
$PLINEGEN
 70
               1
  9
$PSLTSCALE
 70
               0
  9
$TREEDEPTH
 70
            3020
  9
$CMLSTYLE
  2
Standard
  9
$CMLJUST
 70
               0
  9
$CMLSCALE
 40
1.0
  9
$PROXYGRAPHICS
 70
               0
  9
$MEASUREMENT
 70
               1
  9
$CELWEIGHT
370
               0
  9
$ENDCAPS
280
               0
  9
$JOINSTYLE
280
               0
  9
$LWDISPLAY
290
               1
  9
$INSUNITS
 70
               4
  9
$HYPERLINKBASE
  1

  9
$XEDIT
290
               1
  9
$CEPSNTYPE
380
               0
  9
$PSTYLEMODE
290
               1
  9
$FINGERPRINTGUID
  2

  9
$VERSIONGUID
  2

  9
$EXTNAMES
290
               1
  9
$PSVPSCALE
 40
0.0
  0
ENDSEC
  0
SECTION
  2
CLASSES
  0
CLASS
  1
LWPOLYLINE
  2
AcDbPolyline
  3
AutoCAD 2000
 90
    32768
280
               0
281
               1
  0
CLASS
  1
IMAGE
  2
AcDbRasterImage
  3
ISM
 90
    32895
280
               0
281
               1
  0
CLASS
  1
OLE2FRAME
  2
AcDbOle2Frame
  3
AutoCAD 2000
 90
    32768
280
               0
281
               1
  0
CLASS
  1
HATCH
  2
AcDbHatch
  3
AutoCAD 2000
 90
    32768
280
               0
281
               1
  0
CLASS
  1
DICTIONARYVAR
  2
AcDbDictionaryVar
  3
AutoCAD 2000
 90
    32768
280
               0
281
               0
  0
CLASS
  1
RASTERVARIABLES
  2
AcDbRasterVariables
  3
ISM
 90
    32768
280
               0
281
               0
  0
CLASS
  1
IMAGEDEF
  2
AcDbRasterImageDef
  3
ISM
 90
    32768
280
               0
281
               0
  0
CLASS
  1
IMAGEDEF_REACTOR
  2
AcDbRasterImageDefReactor
  3
ISM
 90
    32769
280
               0
281
               0
  0
CLASS
  1
IDBUFFER
  2
AcDbIdBuffer
  3
AutoCAD 2000
 90
    32768
280
               0
281
               0
  0
CLASS
  1
SPATIAL_FILTER
  2
AcDbSpatialFilter
  3
AutoCAD 2000
 90
    32768
280
               0
281
               0
  0
CLASS
  1
XRECORD
  2
AcDbXrecord
  3
AutoCAD 2000
 90
    32768
280
               0
281
               0
  0
CLASS
  1
SORTENTSTABLE
  2
AcDbSortentsTable
  3
AutoCAD 2000
 90
    32768
280
               0
281
               0
  0
CLASS
  1
LAYER_INDEX
  2
AcDbLayerIndex
  3
AutoCAD 2000
 90
    32768
280
               0
281
               0
  0
CLASS
  1
SPATIAL_INDEX
  2
AcDbSpatialIndex
  3
AutoCAD 2000
 90
    32768
280
               0
281
               0
  0
CLASS
  1
OBJECT_PTR
  2
CAseDLPNTableRecord
  3
"ASE-LPNTableRecord"
 90
    32769
280
               0
281
               0
  0
CLASS
  1
LAYOUT
  2
AcDbLayout
  3
AutoCAD 2000
 90
        0
280
               0
281
               0
  0
CLASS
  1
PLOTSETTINGS
  2
AcDbPlotSettings
  3
AutoCAD 2000
 90
    32768
280
               0
281
               0
  0
CLASS
  1
ACDBDICTIONARYWDFLT
  2
AcDbDictionaryWithDefault
  3
AutoCAD 2000
 90
        0
280
               0
281
               0
  0
CLASS
  1
ACDBPLACEHOLDER
  2
AcDbPlaceHolder
  3
AutoCAD 2000
 90
        0
280
               0
281
               0
  0
ENDSEC
  0
SECTION
  2
TABLES
  0
TABLE
  2
VPORT
  5
7
100
AcDbSymbolTable
 70
               1
  0
VPORT
  5
15
100
AcDbSymbolTableRecord
100
AcDbViewportTableRecord
  2
*ACTIVE
 70
               0
 10
0.0
 20
0.0
 11
1.0
 21
1.0
 12
136.30909068433803
 22
147.71553036859999
 13
0.0
 23
0.0
 14
1.0
 24
1.0
 15
0.0
 25
0.0
 16
0.0
 26
0.0
 36
1.0
 17
0.0
 27
0.0
 37
0.0
 40
149.75870296379998
 41
0.688564
 42
50.0
 43
0.0
 44
0.0
 50
0.0
 51
0.0
 71
               0
 72
             100
 73
               1
 74
               1
 75
               0
 76
               0
 77
               0
 78
               0
281
               0
 65
               0
110
0.0
120
0.0
130
0.0
111
1.0
121
0.0
131
0.0
112
0.0
122
1.0
132
0.0
345
0
346
0
 79
               0
146
0.0
  0
ENDTAB
  0
TABLE
  2
LTYPE
  5
4
100
AcDbSymbolTable
 70
              13
  0
LTYPE
  5
11
100
AcDbSymbolTableRecord
100
AcDbLinetypeTableRecord
  2
ByBlock
 70
              64
  3

 72
              65
 73
               0
 40
0.0
  0
LTYPE
  5
12
100
AcDbSymbolTableRecord
100
AcDbLinetypeTableRecord
  2
ByLayer
 70
              64
  3

 72
              65
 73
               0
 40
0.0
  0
LTYPE
  5
13
100
AcDbSymbolTableRecord
100
AcDbLinetypeTableRecord
  2
Continuous
 70
              64
  3
Solid line
 72
              65
 73
               0
 40
0.0
  0
LTYPE
  5
2D
100
AcDbSymbolTableRecord
100
AcDbLinetypeTableRecord
  2
STYLE_01
 70
               0
  3

 72
              65
 73
               2
 40
0.1875
 49
0.125
 74
               0
 49
-0.0625
 74
               0
  0
LTYPE
  5
2E
100
AcDbSymbolTableRecord
100
AcDbLinetypeTableRecord
  2
STYLE_02
 70
               0
  3

 72
              65
 73
               6
 40
1.2499999999999998
 49
0.6249999999999999
 74
               0
 49
-0.1250000000000001
 74
               0
 49
0.125
 74
               0
 49
-0.125
 74
               0
 49
0.125
 74
               0
 49
-0.125
 74
               0
  0
LTYPE
  5
2F
100
AcDbSymbolTableRecord
100
AcDbLinetypeTableRecord
  2
STYLE_03
 70
               0
  3

 72
              65
 73
               4
 40
0.9999999999999999
 49
0.6249999999999999
 74
               0
 49
-0.1250000000000001
 74
               0
 49
0.125
 74
               0
 49
-0.125
 74
               0
  0
LTYPE
  5
30
100
AcDbSymbolTableRecord
100
AcDbLinetypeTableRecord
  2
STYLE_04
 70
               0
  3

 72
              65
 73
               4
 40
1.9999999999999998
 49
1.2499999999999998
 74
               0
 49
-0.2500000000000001
 74
               0
 49
0.2499999999999999
 74
               0
 49
-0.2499999999999999
 74
               0
  0
LTYPE
  5
31
100
AcDbSymbolTableRecord
100
AcDbLinetypeTableRecord
  2
STYLE_05
 70
               0
  3

 72
              65
 73
               2
 40
0.0625
 49
0.0005
 74
               0
 49
-0.062
 74
               0
  0
LTYPE
  5
32
100
AcDbSymbolTableRecord
100
AcDbLinetypeTableRecord
  2
STYLE_06
 70
               0
  3

 72
              65
 73
               4
 40
1.0416400000000001
 49
0.625
 74
               0
 49
-0.20828
 74
               0
 49
0.06943
 74
               0
 49
-0.13893
 74
               0
  0
LTYPE
  5
33
100
AcDbSymbolTableRecord
100
AcDbLinetypeTableRecord
  2
STYLE_07
 70
               0
  3

 72
              65
 73
               6
 40
1.875
 49
0.625
 74
               0
 49
-0.20828
 74
               0
 49
0.6250000000000001
 74
               0
 49
-0.2083599999999999
 74
               0
 49
0.06943
 74
               0
 49
-0.1389299999999999
 74
               0
  0
LTYPE
  5
34
100
AcDbSymbolTableRecord
100
AcDbLinetypeTableRecord
  2
STYLE_08
 70
               0
  3

 72
              65
 73
               6
 40
1.25
 49
0.625
 74
               0
 49
-0.20828
 74
               0
 49
0.06943
 74
               0
 49
-0.13893
 74
               0
 49
0.0694299999999999
 74
               0
 49
-0.13893
 74
               0
  0
LTYPE
  5
35
100
AcDbSymbolTableRecord
100
AcDbLinetypeTableRecord
  2
STYLE_09
 70
               0
  3

 72
              65
 73
               4
 40
5.0
 49
3.75
 74
               0
 49
-0.2777849999999998
 74
               0
 49
0.6944300000000003
 74
               0
 49
-0.2777849999999998
 74
               0
  0
LTYPE
  5
36
100
AcDbSymbolTableRecord
100
AcDbLinetypeTableRecord
  2
STYLE_10
 70
               0
  3

 72
              65
 73
               6
 40
5.9375
 49
3.75
 74
               0
 49
-0.2777849999999998
 74
               0
 49
0.6944300000000003
 74
               0
 49
-0.2777849999999998
 74
               0
 49
0.625
 74
               0
 49
-0.3125
 74
               0
  0
ENDTAB
  0
TABLE
  2
LAYER
  5
2
100
AcDbSymbolTable
 70
              12
  0
LAYER
  5
14
100
AcDbSymbolTableRecord
100
AcDbLayerTableRecord
  2
0
 70
               0
 62
               7
  6
Continuous
290
               1
370
              15
390
1D
  0
LAYER
  5
37
100
AcDbSymbolTableRecord
100
AcDbLayerTableRecord
  2
一般
 70
               0
 62
               7
  6
Continuous
290
               1
370
               5
390
1F
  0
LAYER
  5
38
100
AcDbSymbolTableRecord
100
AcDbLayerTableRecord
  2
寸法
 70
               0
 62
               7
  6
Continuous
290
               1
370
              15
390
1F
  0
LAYER
  5
39
100
AcDbSymbolTableRecord
100
AcDbLayerTableRecord
  2
FORMAT
 70
               0
 62
               1
  6
Continuous
290
               1
370
              15
390
1F
  0
LAYER
  5
3A
100
AcDbSymbolTableRecord
100
AcDbLayerTableRecord
  2
SLD-0
 70
               0
 62
              19
  6
Continuous
290
               1
370
              15
390
1F
  0
LAYER
  5
3B
100
AcDbSymbolTableRecord
100
AcDbLayerTableRecord
  2
注記
 70
               0
 62
              19
  6
Continuous
290
               1
370
              15
390
1F
  0
LAYER
  5
3C
100
AcDbSymbolTableRecord
100
AcDbLayerTableRecord
  2
図枠
 70
               0
 62
              37
  6
Continuous
290
               1
370
              15
390
1F
  0
LAYER
  5
3D
100
AcDbSymbolTableRecord
100
AcDbLayerTableRecord
  2
PROPERTIES
 70
               0
 62
             136
  6
Continuous
290
               1
370
              15
390
1F
  0
LAYER
  5
3E
100
AcDbSymbolTableRecord
100
AcDbLayerTableRecord
  2
外形線
 70
               0
 62
              19
  6
Continuous
290
               1
370
              25
390
1F
  0
LAYER
  5
3F
100
AcDbSymbolTableRecord
100
AcDbLayerTableRecord
  2
隠れ線
 70
               0
 62
             208
  6
STYLE_01
290
               1
370
              15
390
1F
  0
LAYER
  5
40
100
AcDbSymbolTableRecord
100
AcDbLayerTableRecord
  2
特殊指定線
 70
               0
 62
               7
  6
STYLE_02
290
               1
370
              35
390
1F
  0
LAYER
  5
41
100
AcDbSymbolTableRecord
100
AcDbLayerTableRecord
  2
想像線
 70
               0
 62
               7
  6
STYLE_02
290
               1
370
              15
390
1F
  0
ENDTAB
  0
TABLE
  2
STYLE
  5
3
100
AcDbSymbolTable
 70
               2
  0
STYLE
  5
17
100
AcDbSymbolTableRecord
100
AcDbTextStyleTableRecord
  2
Standard
 70
               0
 40
0.0
 41
1.0
 50
0.0
 71
               0
 42
0.0
  3
txt
  4
BIGFONT.SHX
  0
STYLE
  5
2C
100
AcDbSymbolTableRecord
100
AcDbTextStyleTableRecord
  2
MS UI Gothic
 70
               0
 40
1.5625
 41
1.0
 50
0.0
 71
               0
 42
1.5625
  3
MS UI Gothic
  4

1001
ACAD
1000
MS UI Gothic
1071
        0
  0
ENDTAB
  0
TABLE
  2
VIEW
  5
5
100
AcDbSymbolTable
 70
               0
  0
ENDTAB
  0
TABLE
  2
UCS
  5
6
100
AcDbSymbolTable
 70
               0
  0
ENDTAB
  0
TABLE
  2
APPID
  5
8
100
AcDbSymbolTable
 70
               1
  0
APPID
  5
16
100
AcDbSymbolTableRecord
100
AcDbRegAppTableRecord
  2
ACAD
 70
               0
  0
ENDTAB
  0
TABLE
  2
DIMSTYLE
  5
9
100
AcDbSymbolTable
 70
               1
100
AcDbDimStyleTable
 71
               0
  0
DIMSTYLE
105
18
100
AcDbSymbolTableRecord
100
AcDbDimStyleTableRecord
  2
Standard
 70
               0
  3

  4

 40
1.0
 41
0.18
 42
0.0625
 43
0.38
 44
0.18
 45
0.0
 46
0.0
 47
0.0
 48
0.0
 71
               0
 72
               0
 73
               1
 74
               1
 75
               0
 76
               0
 77
               0
 78
               0
 79
               0
140
0.18
141
0.09
142
0.0
143
25.399999999999999
144
1.0
145
0.0
146
1.0
147
0.09
148
0.0
170
               0
171
               2
172
               0
173
               0
174
               0
175
               0
176
               0
177
               0
178
               0
179
               0
271
               4
272
               4
273
               2
274
               2
275
               0
276
               0
277
               2
278
              46
279
               0
280
               0
281
               0
282
               0
283
               1
284
               0
285
               0
286
               0
288
               0
340
17
341
0
342
0
343
0
344
0
371
              -2
372
              -2
  0
ENDTAB
  0
TABLE
  2
BLOCK_RECORD
  5
1
100
AcDbSymbolTable
 70
               9
  0
BLOCK_RECORD
  5
A
100
AcDbSymbolTableRecord
100
AcDbBlockTableRecord
  2
*MODEL_SPACE
340
20
  0
BLOCK_RECORD
  5
B
100
AcDbSymbolTableRecord
100
AcDbBlockTableRecord
  2
*PAPER_SPACE
340
21
  0
BLOCK_RECORD
  5
23
100
AcDbSymbolTableRecord
100
AcDbBlockTableRecord
  2
*U0
340
0
102
{BLKREFS
331
51
102
}
  0
BLOCK_RECORD
  5
24
100
AcDbSymbolTableRecord
100
AcDbBlockTableRecord
  2
*U1
340
0
102
{BLKREFS
331
52
102
}
  0
BLOCK_RECORD
  5
25
100
AcDbSymbolTableRecord
100
AcDbBlockTableRecord
  2
_D
340
0
102
{BLKREFS
331
172
102
}
  0
BLOCK_RECORD
  5
26
100
AcDbSymbolTableRecord
100
AcDbBlockTableRecord
  2
*U3
340
0
102
{BLKREFS
331
63
102
}
  0
BLOCK_RECORD
  5
27
100
AcDbSymbolTableRecord
100
AcDbBlockTableRecord
  2
*U4
340
0
102
{BLKREFS
331
64
102
}
  0
BLOCK_RECORD
  5
28
100
AcDbSymbolTableRecord
100
AcDbBlockTableRecord
  2
_D_1
340
0
102
{BLKREFS
331
173
102
}
  0
BLOCK_RECORD
  5
29
100
AcDbSymbolTableRecord
100
AcDbBlockTableRecord
  2
*U6
340
0
102
{BLKREFS
331
75
102
}
  0
BLOCK_RECORD
  5
2A
100
AcDbSymbolTableRecord
100
AcDbBlockTableRecord
  2
*U7
340
0
102
{BLKREFS
331
76
102
}
  0
BLOCK_RECORD
  5
2B
100
AcDbSymbolTableRecord
100
AcDbBlockTableRecord
  2
_D_2
340
0
102
{BLKREFS
331
3B9
102
}
  0
ENDTAB
  0
ENDSEC
  0
SECTION
  2
BLOCKS
  0
BLOCK
  5
D
100
AcDbEntity
  8
0
100
AcDbBlockBegin
  2
*MODEL_SPACE
 70
               0
 10
0.0
 20
0.0
 30
0.0
  3
*MODEL_SPACE
  1

  0
ENDBLK
  5
E
100
AcDbEntity
  8
0
100
AcDbBlockEnd
  0
BLOCK
  5
F
100
AcDbEntity
 67
               1
  8
0
100
AcDbBlockBegin
  2
*PAPER_SPACE
 70
               0
 10
0.0
 20
0.0
 30
0.0
  3
*PAPER_SPACE
  1

  0
ENDBLK
  5
10
100
AcDbEntity
 67
               1
  8
0
100
AcDbBlockEnd
  0
BLOCK
  5
42
100
AcDbEntity
  8
寸法
100
AcDbBlockBegin
  2
*U0
 70
               1
 10
0.0
 20
0.0
 30
0.0
  3
*U0
  1

  0
LINE
  5
43
100
AcDbEntity
  8
0
370
              15
  6
Continuous
 62
               7
100
AcDbLine
 10
243.78579036170001
 20
-1.3733000952000001
 30
0.0
 11
241.28579036170001
 21
-1.3733000952000001
 31
0.0
  0
LINE
  5
44
100
AcDbEntity
  8
0
370
              15
  6
Continuous
 62
               7
100
AcDbLine
 10
243.78579036170001
 20
-1.3733000952000001
 30
0.0
 11
241.28579036170001
 21
-2.0431725952000002
 31
0.0
  0
LINE
  5
45
100
AcDbEntity
  8
0
370
              15
  6
Continuous
 62
               7
100
AcDbLine
 10
241.28579036170001
 20
-0.7034275952000001
 30
0.0
 11
243.78579036170001
 21
-1.3733000952000001
 31
0.0
  0
ENDBLK
  5
46
100
AcDbEntity
  8
寸法
100
AcDbBlockEnd
  0
BLOCK
  5
47
100
AcDbEntity
  8
寸法
100
AcDbBlockBegin
  2
*U1
 70
               1
 10
0.0
 20
0.0
 30
0.0
  3
*U1
  1

  0
LINE
  5
48
100
AcDbEntity
  8
0
370
              15
  6
Continuous
 62
               7
100
AcDbLine
 10
163.5095849482
 20
-1.3733000952000001
 30
0.0
 11
166.0095849482
 21
-1.3733000952000001
 31
0.0
  0
LINE
  5
49
100
AcDbEntity
  8
0
370
              15
  6
Continuous
 62
               7
100
AcDbLine
 10
163.5095849482
 20
-1.3733000952000001
 30
0.0
 11
166.0095849482
 21
-0.7034275952000001
 31
0.0
  0
LINE
  5
4A
100
AcDbEntity
  8
0
370
              15
  6
Continuous
 62
               7
100
AcDbLine
 10
166.0095849482
 20
-2.0431725952000002
 30
0.0
 11
163.5095849482
 21
-1.3733000952000001
 31
0.0
  0
ENDBLK
  5
4B
100
AcDbEntity
  8
寸法
100
AcDbBlockEnd
  0
BLOCK
  5
4C
100
AcDbEntity
  8
一般
100
AcDbBlockBegin
  2
_D
 70
               0
 10
0.0
 20
0.0
 30
0.0
  3
_D
  1

  0
MTEXT
  5
4D
100
AcDbEntity
  8
寸法
100
AcDbMText
 10
200.37765099769999
 20
1.8493693707000001
 30
0.0
 40
2.5
 41
0.0
 71
               1
 72
               1
  1
80.3
  7
MS UI Gothic
 73
               1
 44
1.0
  0
LINE
  5
4E
100
AcDbEntity
  8
寸法
370
              15
100
AcDbLine
 10
163.5095849482
 20
-1.3733000952000001
 30
0.0
 11
243.78579036170001
 21
-1.3733000952000001
 31
0.0
  0
LINE
  5
4F
100
AcDbEntity
  8
寸法
370
              15
100
AcDbLine
 10
243.78579036170001
 20
19.703805321800001
 30
0.0
 11
243.78579036170001
 21
-1.8733000952000001
 31
0.0
  0
LINE
  5
50
100
AcDbEntity
  8
寸法
370
              15
100
AcDbLine
 10
163.5095849482
 20
19.703805321800001
 30
0.0
 11
163.5095849482
 21
-1.8733000952000001
 31
0.0
  0
INSERT
  5
51
100
AcDbEntity
  8
寸法
100
AcDbBlockReference
  2
*U0
 10
0.0
 20
0.0
 30
0.0
  0
INSERT
  5
52
100
AcDbEntity
  8
寸法
100
AcDbBlockReference
  2
*U1
 10
0.0
 20
0.0
 30
0.0
  0
ENDBLK
  5
53
100
AcDbEntity
  8
一般
100
AcDbBlockEnd
  0
BLOCK
  5
54
100
AcDbEntity
  8
寸法
100
AcDbBlockBegin
  2
*U3
 70
               1
 10
0.0
 20
0.0
 30
0.0
  3
*U3
  1

  0
LINE
  5
55
100
AcDbEntity
  8
0
370
              15
  6
Continuous
 62
               7
100
AcDbLine
 10
142.86564597949999
 20
186.45380532179999
 30
0.0
 11
142.86564597949999
 21
183.95380532179999
 31
0.0
  0
LINE
  5
56
100
AcDbEntity
  8
0
370
              15
  6
Continuous
 62
               7
100
AcDbLine
 10
142.86564597949999
 20
186.45380532179999
 30
0.0
 11
143.53551847949998
 21
183.95380532179999
 31
0.0
  0
LINE
  5
57
100
AcDbEntity
  8
0
370
              15
  6
Continuous
 62
               7
100
AcDbLine
 10
142.19577347949999
 20
183.95380532179999
 30
0.0
 11
142.86564597949999
 21
186.45380532179999
 31
0.0
  0
ENDBLK
  5
58
100
AcDbEntity
  8
寸法
100
AcDbBlockEnd
  0
BLOCK
  5
59
100
AcDbEntity
  8
寸法
100
AcDbBlockBegin
  2
*U4
 70
               1
 10
0.0
 20
0.0
 30
0.0
  3
*U4
  1

  0
LINE
  5
5A
100
AcDbEntity
  8
0
370
              15
  6
Continuous
 62
               7
100
AcDbLine
 10
142.86564597949999
 20
9.9538053218000009
 30
0.0
 11
142.86564597949999
 21
12.453805321800001
 31
0.0
  0
LINE
  5
5B
100
AcDbEntity
  8
0
370
              15
  6
Continuous
 62
               7
100
AcDbLine
 10
142.86564597949999
 20
9.9538053218000009
 30
0.0
 11
142.19577347949999
 21
12.453805321800001
 31
0.0
  0
LINE
  5
5C
100
AcDbEntity
  8
0
370
              15
  6
Continuous
 62
               7
100
AcDbLine
 10
143.53551847949998
 20
12.453805321800001
 30
0.0
 11
142.86564597949999
 21
9.9538053218000009
 31
0.0
  0
ENDBLK
  5
5D
100
AcDbEntity
  8
寸法
100
AcDbBlockEnd
  0
BLOCK
  5
5E
100
AcDbEntity
  8
一般
100
AcDbBlockBegin
  2
_D_1
 70
               0
 10
0.0
 20
0.0
 30
0.0
  3
_D_1
  1

  0
MTEXT
  5
5F
100
AcDbEntity
  8
寸法
100
AcDbMText
 10
139.64297651359999
 20
93.427897893099995
 30
0.0
 40
2.5
 41
0.0
 71
               1
 72
               1
  1
176.5
  7
MS UI Gothic
 11
0.0
 21
1.0
 31
0.0
 73
               1
 44
1.0
  0
LINE
  5
60
100
AcDbEntity
  8
寸法
370
              15
100
AcDbLine
 10
142.86564597949999
 20
9.9538053218000009
 30
0.0
 11
142.86564597949999
 21
186.45380532179999
 31
0.0
  0
LINE
  5
61
100
AcDbEntity
  8
寸法
370
              15
100
AcDbLine
 10
163.65767152999999
 20
186.45380532179999
 30
0.0
 11
142.36564597949999
 21
186.45380532179999
 31
0.0
  0
LINE
  5
62
100
AcDbEntity
  8
寸法
370
              15
100
AcDbLine
 10
198.40479443609999
 20
9.9538053218000009
 30
0.0
 11
142.36564597949999
 21
9.9538053218000009
 31
0.0
  0
INSERT
  5
63
100
AcDbEntity
  8
寸法
100
AcDbBlockReference
  2
*U3
 10
0.0
 20
0.0
 30
0.0
  0
INSERT
  5
64
100
AcDbEntity
  8
寸法
100
AcDbBlockReference
  2
*U4
 10
0.0
 20
0.0
 30
0.0
  0
ENDBLK
  5
65
100
AcDbEntity
  8
一般
100
AcDbBlockEnd
  0
BLOCK
  5
66
100
AcDbEntity
  8
寸法
100
AcDbBlockBegin
  2
*U6
 70
               1
 10
0.0
 20
0.0
 30
0.0
  3
*U6
  1

  0
LINE
  5
67
100
AcDbEntity
  8
0
370
              15
  6
Continuous
 62
               7
100
AcDbLine
 10
149.1611767805
 20
224.07423407740001
 30
0.0
 11
149.1611767805
 21
226.57423407740001
 31
0.0
  0
LINE
  5
68
100
AcDbEntity
  8
0
370
              15
  6
Continuous
 62
               7
100
AcDbLine
 10
149.1611767805
 20
224.07423407740001
 30
0.0
 11
148.4913042805
 21
226.57423407740001
 31
0.0
  0
LINE
  5
69
100
AcDbEntity
  8
0
370
              15
  6
Continuous
 62
               7
100
AcDbLine
 10
149.8310492805
 20
226.57423407740001
 30
0.0
 11
149.1611767805
 21
224.07423407740001
 31
0.0
  0
ENDBLK
  5
6A
100
AcDbEntity
  8
寸法
100
AcDbBlockEnd
  0
BLOCK
  5
6B
100
AcDbEntity
  8
寸法
100
AcDbBlockBegin
  2
*U7
 70
               1
 10
0.0
 20
0.0
 30
0.0
  3
*U7
  1

  0
LINE
  5
6C
100
AcDbEntity
  8
0
370
              15
  6
Continuous
 62
               7
100
AcDbLine
 10
149.1611767805
 20
296.6742340774
 30
0.0
 11
149.1611767805
 21
294.1742340774
 31
0.0
  0
LINE
  5
6D
100
AcDbEntity
  8
0
370
              15
  6
Continuous
 62
               7
100
AcDbLine
 10
149.1611767805
 20
296.6742340774
 30
0.0
 11
149.8310492805
 21
294.1742340774
 31
0.0
  0
LINE
  5
6E
100
AcDbEntity
  8
0
370
              15
  6
Continuous
 62
               7
100
AcDbLine
 10
148.4913042805
 20
294.1742340774
 30
0.0
 11
149.1611767805
 21
296.6742340774
 31
0.0
  0
ENDBLK
  5
6F
100
AcDbEntity
  8
寸法
100
AcDbBlockEnd
  0
BLOCK
  5
70
100
AcDbEntity
  8
一般
100
AcDbBlockBegin
  2
_D_2
 70
               0
 10
0.0
 20
0.0
 30
0.0
  3
_D_2
  1

  0
MTEXT
  5
71
100
AcDbEntity
  8
寸法
100
AcDbMText
 10
145.93850731469999
 20
256.94529355499998
 30
0.0
 40
2.5
 41
0.0
 71
               1
 72
               1
  1
72.6
  7
MS UI Gothic
 11
0.0
 21
1.0
 31
0.0
 73
               1
 44
1.0
  0
LINE
  5
72
100
AcDbEntity
  8
寸法
370
              15
100
AcDbLine
 10
149.1611767805
 20
296.6742340774
 30
0.0
 11
149.1611767805
 21
224.07423407740001
 31
0.0
  0
LINE
  5
73
100
AcDbEntity
  8
寸法
370
              15
100
AcDbLine
 10
203.14768765490001
 20
224.07423407740001
 30
0.0
 11
148.6611767805
 21
224.07423407740001
 31
0.0
  0
LINE
  5
74
100
AcDbEntity
  8
寸法
370
              15
100
AcDbLine
 10
179.433019277
 20
296.6742340774
 30
0.0
 11
148.6611767805
 21
296.6742340774
 31
0.0
  0
INSERT
  5
75
100
AcDbEntity
  8
寸法
100
AcDbBlockReference
  2
*U6
 10
0.0
 20
0.0
 30
0.0
  0
INSERT
  5
76
100
AcDbEntity
  8
寸法
100
AcDbBlockReference
  2
*U7
 10
0.0
 20
0.0
 30
0.0
  0
ENDBLK
  5
77
100
AcDbEntity
  8
一般
100
AcDbBlockEnd
  0
ENDSEC
  0
SECTION
  2
ENTITIES
  0
LINE
  5
78
100
AcDbEntity
  8
0
370
              25
  6
Continuous
 62
               7
100
AcDbLine
 10
149.523066009969
 20
159.50966255229997
 30
0.0
 11
149.909337635719
 21
159.50966255229997
 31
0.0
  0
LINE
  5
79
100
AcDbEntity
  8
0
370
              25
  6
Continuous
 62
               7
100
AcDbLine
 10
149.93337320871902
 20
163.50967065854999
 30
0.0
 11
149.523066009969
 21
163.50967065854999
 31
0.0
  0
LINE
  5
7A
100
AcDbEntity
  8
0
370
              25
  6
Continuous
 62
               7
100
AcDbLine
 10
190.43371232931901
 20
87.159667177649993
 30
0.0
 11
190.04744070356901
 21
87.159667177649993
 31
0.0
  0
LINE
  5
7B
100
AcDbEntity
  8
0
370
              25
  6
Continuous
 62
               7
100
AcDbLine
 10
190.044005985919
 20
83.1596590714
 30
0.0
 11
190.43371232931901
 21
83.1596590714
 31
0.0
  0
LINE
  5
7C
100
AcDbEntity
  8
0
370
              25
  6
Continuous
 62
               7
100
AcDbLine
 10
149.523066009969
 20
83.1596590714
 30
0.0
 11
149.91277235336901
 21
83.1596590714
 31
0.0
  0
LINE
  5
7D
100
AcDbEntity
  8
0
370
              25
  6
Continuous
 62
               7
100
AcDbLine
 10
149.909337635719
 20
87.159667177649993
 30
0.0
 11
149.523066009969
 21
87.159667177649993
 31
0.0
  0
LINE
  5
7E
100
AcDbEntity
  8
0
370
              25
  6
Continuous
 62
               7
100
AcDbLine
 10
190.43371232931901
 20
163.50967065854999
 30
0.0
 11
190.02340513056902
 21
163.50967065854999
 31
0.0
  0
LINE
  5
7F
100
AcDbEntity
  8
0
370
              25
  6
Continuous
 62
               7
100
AcDbLine
 10
190.04744070356901
 20
159.50966255229997
 30
0.0
 11
190.43371232931901
 21
159.50966255229997
 31
0.0
  0
LINE
  5
80
100
AcDbEntity
  8
0
370
              25
  6
Continuous
 62
               7
100
AcDbLine
 10
149.523066009969
 20
87.159667177649993
 30
0.0
 11
149.37315660306902
 21
87.159667177649993
 31
0.0
  0
LINE
  5
81
100
AcDbEntity
  8
0
370
              25
  6
Continuous
 62
               7
100
AcDbLine
 10
149.37315660306902
 20
83.1596590714
 30
0.0
 11
149.523066009969
 21
83.1596590714
 31
0.0
  0
LINE
  5
82
100
AcDbEntity
  8
0
370
              25
  6
Continuous
 62
               7
100
AcDbLine
 10
149.37072026316901
 20
87.158445282449989
 30
0.0
 11
149.07126839046902
 21
86.858633919199988
 31
0.0
  0
LINE
  5
83
100
AcDbEntity
  8
0
370
              25
  6
Continuous
 62
               7
100
AcDbLine
 10
149.07126839046902
 20
83.460692329849991
 30
0.0
 11
149.37072026316901
 21
83.160880966649998
 31
0.0
  0
LINE
  5
84
100
AcDbEntity
  8
0
370
              25
  6
Continuous
 62
               7
100
AcDbLine
 10
190.43371232931901
 20
159.50966255229997
 30
0.0
 11
190.58362173621902
 21
159.50966255229997
 31
0.0
  0
LINE
  5
85
100
AcDbEntity
  8
0
370
              25
  6
Continuous
 62
               7
100
AcDbLine
 10
190.58362173621902
 20
163.50967065854999
 30
0.0
 11
190.43371232931901
 21
163.50967065854999
 31
0.0
  0
LINE
  5
86
100
AcDbEntity
  8
0
370
              25
  6
Continuous
 62
               7
100
AcDbLine
 10
190.58605807606901
 20
159.51088444754998
 30
0.0
 11
190.88550994881902
 21
159.81069581074999
 31
0.0
  0
LINE
  5
87
100
AcDbEntity
  8
0
370
              25
  6
Continuous
 62
               7
100
AcDbLine
 10
190.88550994881902
 20
163.20863740009997
 30
0.0
 11
190.58605807606901
 21
163.50844876334997
 31
0.0
  0
LINE
  5
88
100
AcDbEntity
  8
0
370
              25
  6
Continuous
 62
               7
100
AcDbLine
 10
149.523066009969
 20
163.50967065854999
 30
0.0
 11
149.37315660306902
 21
163.50967065854999
 31
0.0
  0
LINE
  5
89
100
AcDbEntity
  8
0
370
              25
  6
Continuous
 62
               7
100
AcDbLine
 10
149.37315660306902
 20
159.50966255229997
 30
0.0
 11
149.523066009969
 21
159.50966255229997
 31
0.0
  0
LINE
  5
8A
100
AcDbEntity
  8
0
370
              25
  6
Continuous
 62
               7
100
AcDbLine
 10
149.37072026316901
 20
163.50844876334997
 30
0.0
 11
149.07126839046902
 21
163.20863740009997
 31
0.0
  0
LINE
  5
8B
100
AcDbEntity
  8
0
370
              25
  6
Continuous
 62
               7
100
AcDbLine
 10
149.07126839046902
 20
159.81069581074999
 30
0.0
 11
149.37072026316901
 21
159.51088444754998
 31
0.0
  0
LINE
  5
8C
100
AcDbEntity
  8
0
370
              25
  6
Continuous
 62
               7
100
AcDbLine
 10
190.43371232931901
 20
83.1596590714
 30
0.0
 11
190.58362173621902
 21
83.1596590714
 31
0.0
  0
LINE
  5
8D
100
AcDbEntity
  8
0
370
              25
  6
Continuous
 62
               7
100
AcDbLine
 10
190.58362173621902
 20
87.159667177649993
 30
0.0
 11
190.43371232931901
 21
87.159667177649993
 31
0.0
  0
LINE
  5
8E
100
AcDbEntity
  8
0
370
              25
  6
Continuous
 62
               7
100
AcDbLine
 10
190.58605807606901
 20
83.160880966649998
 30
0.0
 11
190.88550994881902
 21
83.460692329849991
 31
0.0
  0
LINE
  5
8F
100
AcDbEntity
  8
0
370
              25
  6
Continuous
 62
               7
100
AcDbLine
 10
190.88550994881902
 20
86.858633919199988
 30
0.0
 11
190.58605807606901
 21
87.158445282449989
 31
0.0
  0
LINE
  5
90
100
AcDbEntity
  8
0
370
              25
  6
Continuous
 62
               7
100
AcDbLine
 10
168.638384670569
 20
78.834656639549991
 30
0.0
 11
168.64718415551903
 21
78.734073801499989
 31
0.0
  0
LINE
  5
91
100
AcDbEntity
  8
0
370
              25
  6
Continuous
 62
               7
100
AcDbLine
 10
171.30959418376904
 20
78.734073801499989
 30
0.0
 11
171.31839366871901
 21
78.834656639549991
 31
0.0
  0
ARC
  5
92
100
AcDbEntity
  8
0
370
              25
  6
Continuous
 62
               7
100
AcDbCircle
 10
169.14528152376903
 20
78.777666517949996
 30
0.0
 40
0.5000000000000487
100
AcDbArc
 50
185.00000000000094
 51
253.87686662899955
  0
ARC
  5
93
100
AcDbEntity
  8
0
370
              25
  6
Continuous
 62
               7
100
AcDbCircle
 10
170.81149681551904
 20
78.777666517949996
 30
0.0
 40
0.4999999999999948
100
AcDbArc
 50
286.12313337100068
 51
355.00000000000011
  0
ARC
  5
94
100
AcDbEntity
  8
0
370
              25
  6
Continuous
 62
               7
100
AcDbCircle
 10
169.97838916961902
 20
81.659667845199991
 30
0.0
 40
3.5000000000000249
100
AcDbArc
 50
276.23858164830006
 51
286.12313337099988
  0
ARC
  5
95
100
AcDbEntity
  8
0
370
              25
  6
Continuous
 62
               7
100
AcDbCircle
 10
169.97838916961902
 20
81.659667845199991
 30
0.0
 40
3.500000000000024
100
AcDbArc
 50
253.87686662900009
 51
263.76141835169994
  0
CIRCLE
  5
96
100
AcDbEntity
  8
0
370
              25
  6
Continuous
 62
               7
100
AcDbCircle
 10
169.97838916961902
 20
95.034131122150001
 30
0.0
 40
5.75
  0
ARC
  5
97
100
AcDbEntity
  8
0
370
              25
  6
Continuous
 62
               7
100
AcDbCircle
 10
169.97838916961902
 20
95.034131122150001
 30
0.0
 40
4.1250000000000018
100
AcDbArc
 50
242.44650956959993
 51
0.0
  0
ARC
  5
98
100
AcDbEntity
  8
0
370
              25
  6
Continuous
 62
               7
100
AcDbCircle
 10
169.97838916961902
 20
95.034131122150001
 30
0.0
 40
4.125
100
AcDbArc
 50
0.0
 51
122.97575564079996
  0
CIRCLE
  5
99
100
AcDbEntity
  8
0
370
              25
  6
Continuous
 62
               7
100
AcDbCircle
 10
169.92838916961901
 20
95.03176344549999
 30
0.0
 40
3.4750000000000085
  0
CIRCLE
  5
9A
100
AcDbEntity
  8
0
370
              25
  6
Continuous
 62
               7
100
AcDbCircle
 10
169.92838916961901
 20
95.03176344549999
 30
0.0
 40
4.0999999999999943
  0
CIRCLE
  5
9B
100
AcDbEntity
  8
0
370
              25
  6
Continuous
 62
               7
100
AcDbCircle
 10
169.92838916961901
 20
95.03176344549999
 30
0.0
 40
3.5
  0
ARC
  5
9C
100
AcDbEntity
  8
0
370
              25
  6
Continuous
 62
               7
100
AcDbCircle
 10
164.42709852651902
 20
161.08763843394999
 30
0.0
 40
14.987334424045274
100
AcDbArc
 50
177.5283849313
 51
186.04371902769998
  0
ARC
  5
9D
100
AcDbEntity
  8
0
370
              25
  6
Continuous
 62
               7
100
AcDbCircle
 10
160.70607087566901
 20
162.18365191570001
 30
0.0
 40
11.261346435198632
100
AcDbArc
 50
173.23775818420006
 51
182.2885687328
  0
ARC
  5
9E
100
AcDbEntity
  8
0
370
              25
  6
Continuous
 62
               7
100
AcDbCircle
 10
177.67265100091902
 20
85.693520205149994
 30
0.0
 40
12.845009660253472
100
AcDbArc
 50
357.306379827
 51
6.5541029499000274
  0
ARC
  5
9F
100
AcDbEntity
  8
0
370
              25
  6
Continuous
 62
               7
100
AcDbCircle
 10
177.12040236981903
 20
84.607154884949992
 30
0.0
 40
13.391768598958333
100
AcDbArc
 50
353.79486391099999
 51
2.0656948229999443
  0
ARC
  5
A0
100
AcDbEntity
  8
0
370
              25
  6
Continuous
 62
               7
100
AcDbCircle
 10
162.83637596946903
 20
84.607154884949992
 30
0.0
 40
13.391768598958331
100
AcDbArc
 50
177.934305177
 51
186.20513608899998
  0
ARC
  5
A1
100
AcDbEntity
  8
0
370
              25
  6
Continuous
 62
               7
100
AcDbCircle
 10
163.62815225786903
 20
85.648224121200002
 30
0.0
 40
14.185835124312456
100
AcDbArc
 50
173.88375823789997
 51
182.25575898510004
  0
ARC
  5
A2
100
AcDbEntity
  8
0
370
              25
  6
Continuous
 62
               7
100
AcDbCircle
 10
177.67187463861902
 20
162.04349752125
 30
0.0
 40
12.845783935304759
100
AcDbArc
 50
357.30665913519988
 51
6.5538236417000348
  0
ARC
  5
A3
100
AcDbEntity
  8
0
370
              25
  6
Continuous
 62
               7
100
AcDbCircle
 10
177.12066110071902
 20
160.95714901554999
 30
0.0
 40
13.391510373276816
100
AcDbArc
 50
353.79478402989997
 51
2.0657747041000221
  0
ARC
  5
A4
100
AcDbEntity
  8
0
370
              25
  6
Continuous
 62
               7
100
AcDbCircle
 10
171.13543228221903
 20
85.159663124549994
 30
0.0
 40
21.704708984420023
100
AcDbArc
 50
174.71291788760001
 51
185.28708211239996
  0
ARC
  5
A5
100
AcDbEntity
  8
0
370
              25
  6
Continuous
 62
               7
100
AcDbCircle
 10
170.98603327991901
 20
85.159663124549994
 30
0.0
 40
21.705217217571185
100
AcDbArc
 50
174.71304203860001
 51
185.28695796139999
  0
ARC
  5
A6
100
AcDbEntity
  8
0
370
              25
  6
Continuous
 62
               7
100
AcDbCircle
 10
168.76693248641902
 20
85.159663124549994
 30
0.0
 40
19.768805880526347
100
AcDbArc
 50
175.06980404250001
 51
184.93019595749999
  0
ARC
  5
A7
100
AcDbEntity
  8
0
370
              25
  6
Continuous
 62
               7
100
AcDbCircle
 10
184.797928860669
 20
162.56981174430001
 30
0.0
 40
5.7136144500999944
100
AcDbArc
 50
356.24500721280003
 51
9.4678779606999797
  0
ARC
  5
A8
100
AcDbEntity
  8
0
370
              25
  6
Continuous
 62
               7
100
AcDbCircle
 10
170.27041793916902
 20
161.3456362986
 30
0.0
 40
20.246709368742177
100
AcDbArc
 50
354.79726572839996
 51
2.4060787531000192
  0
ARC
  5
A9
100
AcDbEntity
  8
0
370
              25
  6
Continuous
 62
               7
100
AcDbCircle
 10
184.94783826756901
 20
162.56981174430001
 30
0.0
 40
5.7136144500999944
100
AcDbArc
 50
356.24500721280003
 51
9.4678779606999797
  0
ARC
  5
AA
100
AcDbEntity
  8
0
370
              25
  6
Continuous
 62
               7
100
AcDbCircle
 10
170.41974738181904
 20
161.34565045565
 30
0.0
 40
20.247288227338483
100
AcDbArc
 50
354.79737465440002
 51
2.4059698271000229
  0
ARC
  5
AB
100
AcDbEntity
  8
0
370
              25
  6
Continuous
 62
               7
100
AcDbCircle
 10
183.658076482669
 20
162.30186164969999
 30
0.0
 40
7.2840947803525991
100
AcDbArc
 50
358.3549203407
 51
7.15113675409998
  0
ARC
  5
AC
100
AcDbEntity
  8
0
370
              25
  6
Continuous
 62
               7
100
AcDbCircle
 10
174.15421827226902
 20
161.34576467739998
 30
0.0
 40
16.801564141205212
100
AcDbArc
 50
354.75788128689993
 51
2.5481653550000374
  0
ARC
  5
AD
100
AcDbEntity
  8
0
370
              25
  6
Continuous
 62
               7
100
AcDbCircle
 10
153.050091761869
 20
160.16184428254999
 30
0.0
 40
3.5868163688737886
100
AcDbArc
 50
177.42868138309998
 51
190.47622263960005
  0
ARC
  5
AE
100
AcDbEntity
  8
0
370
              25
  6
Continuous
 62
               7
100
AcDbCircle
 10
173.09153971581901
 20
161.50025204939999
 30
0.0
 40
23.653978861292693
100
AcDbArc
 50
175.1268184603
 51
182.85335753819996
  0
ARC
  5
AF
100
AcDbEntity
  8
0
370
              25
  6
Continuous
 62
               7
100
AcDbCircle
 10
152.90048359491902
 20
160.161856887
 30
0.0
 40
3.5871148793562568
100
AcDbArc
 50
177.42909703480007
 51
190.47554572830009
  0
ARC
  5
B0
100
AcDbEntity
  8
0
370
              25
  6
Continuous
 62
               7
100
AcDbCircle
 10
172.94107110651902
 20
161.50027571459998
 30
0.0
 40
23.653419669993301
100
AcDbArc
 50
175.12676050690004
 51
182.85348244580001
  0
ARC
  5
B1
100
AcDbEntity
  8
0
370
              25
  6
Continuous
 62
               7
100
AcDbCircle
 10
152.14411488976901
 20
160.36065783980001
 30
0.0
 40
3.121673243903333
100
AcDbArc
 50
177.42696918850012
 51
190.14706631390007
  0
ARC
  5
B2
100
AcDbEntity
  8
0
370
              25
  6
Continuous
 62
               7
100
AcDbCircle
 10
171.72602515726902
 20
161.47216136674999
 30
0.0
 40
22.721209324706294
100
AcDbArc
 50
175.61687692890004
 51
182.45022020969995
  0
ARC
  5
B3
100
AcDbEntity
  8
0
370
              25
  6
Continuous
 62
               7
100
AcDbCircle
 10
168.85093103196903
 20
85.159663124549994
 30
0.0
 40
21.675250050299042
100
AcDbArc
 50
354.70571168229998
 51
5.2942883176999658
  0
ARC
  5
B4
100
AcDbEntity
  8
0
370
              25
  6
Continuous
 62
               7
100
AcDbCircle
 10
169.00007485486901
 20
85.159663124549994
 30
0.0
 40
21.676012368338412
100
AcDbArc
 50
354.70589840750006
 51
5.2941015925000556
  0
ARC
  5
B5
100
AcDbEntity
  8
0
370
              25
  6
Continuous
 62
               7
100
AcDbCircle
 10
171.122917167119
 20
85.159663124549994
 30
0.0
 40
19.835487773588042
100
AcDbArc
 50
355.08641893470002
 51
4.9135810652999794
  0
LINE
  5
B6
100
AcDbEntity
  8
0
370
              25
  6
Continuous
 62
               7
100
AcDbLine
 10
175.05548720021903
 20
92.177931232899994
 30
0.0
 11
175.05517287886903
 21
92.178110046849994
 31
0.0
  0
ARC
  5
B7
100
AcDbEntity
  8
0
370
              25
  6
Continuous
 62
               7
100
AcDbCircle
 10
175.02298714666901
 20
92.121631122149992
 30
0.0
 40
0.0650000000000087
100
AcDbArc
 50
240.0000000000056
 51
60.000000000005571
  0
ARC
  5
B8
100
AcDbEntity
  8
0
370
              25
  6
Continuous
 62
               7
100
AcDbCircle
 10
164.933791192569
 20
92.121631122149992
 30
0.0
 40
0.0649999999999964
100
AcDbArc
 50
120.00000000000068
 51
300.00000000000068
  0
LINE
  5
B9
100
AcDbEntity
  8
0
370
              25
  6
Continuous
 62
               7
100
AcDbLine
 10
164.90160546041903
 20
92.178110046849994
 30
0.0
 11
164.90129113901901
 21
92.177931232899994
 31
0.0
  0
ARC
  5
BA
100
AcDbEntity
  8
0
370
              25
  6
Continuous
 62
               7
100
AcDbCircle
 10
169.97838916961902
 20
100.85913112214999
 30
0.0
 40
0.0649999999999977
100
AcDbArc
 50
0.0
 51
180.0
  0
ARC
  5
BB
100
AcDbEntity
  8
0
370
              25
  6
Continuous
 62
               7
100
AcDbCircle
 10
169.97838916961902
 20
95.034131122150001
 30
0.0
 40
5.8250000000000064
100
AcDbArc
 50
90.639365315400013
 51
209.36063468459997
  0
ARC
  5
BC
100
AcDbEntity
  8
0
370
              25
  6
Continuous
 62
               7
100
AcDbCircle
 10
169.97838916961902
 20
95.034131122150001
 30
0.0
 40
5.8250000000000064
100
AcDbArc
 50
330.63936531539991
 51
89.360634684599972
  0
LINE
  5
BD
100
AcDbEntity
  8
0
370
              25
  6
Continuous
 62
               7
100
AcDbLine
 10
170.04338916981902
 20
100.8587815003
 30
0.0
 11
170.04338916981902
 21
100.85913912819998
 31
0.0
  0
LINE
  5
BE
100
AcDbEntity
  8
0
370
              25
  6
Continuous
 62
               7
100
AcDbLine
 10
169.91338916946901
 20
100.85913912819998
 30
0.0
 11
169.91338916946901
 21
100.8587815003
 31
0.0
  0
LINE
  5
BF
100
AcDbEntity
  8
0
370
              25
  6
Continuous
 62
               7
100
AcDbLine
 10
160.09975283181902
 20
127.38544122739999
 30
0.0
 11
160.09975283181902
 21
90.159121914349996
 31
0.0
  0
SPLINE
  5
C0
100
AcDbEntity
  8
0
370
              25
  6
Continuous
 62
               7
100
AcDbSpline
210
0.0
220
0.0
230
1.0
 70
               8
 71
               2
 72
              30
 73
              27
 74
               0
 42
0.000001
 43
0.000001
 40
0.0
 40
0.0
 40
0.0
 40
0.0023692557693437
 40
0.0023692557693437
 40
0.2093353211676816
 40
0.2093353211676816
 40
0.3572584751731737
 40
0.3572584751731737
 40
0.4658222394601812
 40
0.4658222394601812
 40
0.5616501844547306
 40
0.5616501844547306
 40
0.6403615546497292
 40
0.6403615546497292
 40
0.7125314185608489
 40
0.7125314185608489
 40
0.7811045569689886
 40
0.7811045569689886
 40
0.8406765375049099
 40
0.8406765375049099
 40
0.9024442785704754
 40
0.9024442785704754
 40
0.9583791526142313
 40
0.9583791526142313
 40
0.9991346517880447
 40
0.9991346517880447
 40
1.0
 40
1.0
 40
1.0
 10
164.6788642998705
 20
87.784145040956872
 30
0.0
 10
164.67200500976139
 20
87.784637513889137
 30
0.0
 10
164.66514571965229
 20
87.785129986821403
 30
0.0
 10
163.99109716543717
 20
87.829816084174794
 30
0.0
 10
163.46841204096185
 20
87.889765861191592
 30
0.0
 10
162.94572691648654
 20
87.949715638208403
 30
0.0
 10
162.61784217794175
 20
88.006541859913341
 30
0.0
 10
162.28995743939697
 20
88.063368081618279
 30
0.0
 10
161.99994787885282
 20
88.130030615078738
 30
0.0
 10
161.70993831830867
 20
88.196693148539183
 30
0.0
 10
161.46601026873984
 20
88.284395577649775
 30
0.0
 10
161.222082219171
 20
88.372098006760353
 30
0.0
 10
161.04403367824335
 20
88.458816746607226
 30
0.0
 10
160.8659851373157
 20
88.545535486454085
 30
0.0
 10
160.68665417900351
 20
88.676284374098529
 30
0.0
 10
160.50732322069132
 20
88.807033261742959
 30
0.0
 10
160.40294388475505
 20
88.953035428167397
 30
0.0
 10
160.29856454881877
 20
89.099037594591834
 30
0.0
 10
160.2279443279736
 20
89.25067066244344
 30
0.0
 10
160.15732410712846
 20
89.402303730295046
 30
0.0
 10
160.13091853702238
 20
89.594374257786669
 30
0.0
 10
160.1045129669163
 20
89.786444785278306
 30
0.0
 10
160.10200533117916
 20
89.917524025401832
 30
0.0
 10
160.09949769544198
 20
90.048603265525372
 30
0.0
 10
160.09975384760745
 20
90.154098435557486
 30
0.0
 10
160.09975333971553
 20
90.156610174956128
 30
0.0
 10
160.09975283182362
 20
90.159121914354756
 30
0.0
  0
SPLINE
  5
C1
100
AcDbEntity
  8
0
370
              25
  6
Continuous
 62
               7
100
AcDbSpline
210
0.0
220
0.0
230
1.0
 70
               8
 71
               2
 72
              30
 73
              27
 74
               0
 42
0.000001
 43
0.000001
 40
0.0
 40
0.0
 40
0.0
 40
0.0008686142833232
 40
0.0008686142833232
 40
0.036586375748803
 40
0.036586375748803
 40
0.0844958842289057
 40
0.0844958842289057
 40
0.1442066623900341
 40
0.1442066623900341
 40
0.2058927312149479
 40
0.2058927312149479
 40
0.2583884479110748
 40
0.2583884479110748
 40
0.3207257793487539
 40
0.3207257793487539
 40
0.4160989335036532
 40
0.4160989335036532
 40
0.5356155942297933
 40
0.5356155942297933
 40
0.6964893961018256
 40
0.6964893961018256
 40
0.8780413079029558
 40
0.8780413079029558
 40
0.9976205496248878
 40
0.9976205496248878
 40
1.0
 40
1.0
 40
1.0
 10
179.85702550745702
 20
90.159121914354699
 30
0.0
 10
179.85702501436077
 20
90.156600961516816
 30
0.0
 10
179.85702452126455
 20
90.154080008678932
 30
0.0
 10
179.85721236008089
 20
90.068370182740694
 30
0.0
 10
179.85608840272585
 20
89.946758613913502
 30
0.0
 10
179.85496444537085
 20
89.825147045086297
 30
0.0
 10
179.83642551232748
 20
89.669567178495086
 30
0.0
 10
179.81788657928411
 20
89.513987311903861
 30
0.0
 10
179.76000666108007
 20
89.332095505373402
 30
0.0
 10
179.70212674287603
 20
89.150203698842944
 30
0.0
 10
179.59941098288152
 20
89.014052383409833
 30
0.0
 10
179.49669522288701
 20
88.877901067976723
 30
0.0
 10
179.3982394940102
 20
88.785739897722848
 30
0.0
 10
179.29978376513341
 20
88.693578727468974
 30
0.0
 10
179.10922770666906
 20
88.568798571215424
 30
0.0
 10
178.91867164820471
 20
88.44401841496186
 30
0.0
 10
178.61181034979754
 20
88.3285704357573
 30
0.0
 10
178.30494905139037
 20
88.213122456552739
 30
0.0
 10
177.94797727370747
 20
88.128919511985202
 30
0.0
 10
177.59100549602459
 20
88.044716567417652
 30
0.0
 10
177.03019634894116
 20
87.958615325255707
 30
0.0
 10
176.46938720185776
 20
87.872514083093762
 30
0.0
 10
175.98390492722757
 20
87.836182506280409
 30
0.0
 10
175.49842265259741
 20
87.79985092946707
 30
0.0
 10
175.29168280068006
 20
87.785133296374752
 30
0.0
 10
175.28479469475479
 20
87.784639168665819
 30
0.0
 10
175.27790658882952
 20
87.784145040956872
 30
0.0
  0
LINE
  5
C2
100
AcDbEntity
  8
0
370
              25
  6
Continuous
 62
               7
100
AcDbLine
 10
179.85702550746902
 20
90.159121914349996
 30
0.0
 11
179.85702550746902
 21
127.38544122739999
 31
0.0
  0
SPLINE
  5
C3
100
AcDbEntity
  8
0
370
              25
  6
Continuous
 62
               7
100
AcDbSpline
210
0.0
220
0.0
230
1.0
 70
               8
 71
               2
 72
              26
 73
              23
 74
               0
 42
0.000001
 43
0.000001
 40
0.0
 40
0.0
 40
0.0
 40
0.0022961811856377
 40
0.0022961811856377
 40
0.1373764055623939
 40
0.1373764055623939
 40
0.2942595749192928
 40
0.2942595749192928
 40
0.4639629062111209
 40
0.4639629062111209
 40
0.6055123200368268
 40
0.6055123200368268
 40
0.7139560554453837
 40
0.7139560554453837
 40
0.8085582201252763
 40
0.8085582201252763
 40
0.890333069320271
 40
0.890333069320271
 40
0.9506091700592323
 40
0.9506091700592323
 40
0.9992252038169101
 40
0.9992252038169101
 40
1.0
 40
1.0
 40
1.0
 10
164.6788642998705
 20
87.784145040956872
 30
0.0
 10
164.6788822256093
 20
87.784327969668155
 30
0.0
 10
164.67890015134807
 20
87.784510898379423
 30
0.0
 10
164.67992188346054
 20
87.795139408234292
 30
0.0
 10
164.68108335748227
 20
87.806026093681339
 30
0.0
 10
164.68224483150397
 20
87.816912779128415
 30
0.0
 10
164.68430440936771
 20
87.83093265228473
 30
0.0
 10
164.68636398723146
 20
87.844952525441059
 30
0.0
 10
164.68963689983613
 20
87.857552782468133
 30
0.0
 10
164.6929098124408
 20
87.870153039495221
 30
0.0
 10
164.69602750181394
 20
87.879286472788166
 30
0.0
 10
164.69914519118709
 20
87.888419906081111
 30
0.0
 10
164.70222769803297
 20
87.895495327815638
 30
0.0
 10
164.7053102048788
 20
87.902570749550165
 30
0.0
 10
164.70888997207555
 20
87.909087936387394
 30
0.0
 10
164.71246973927228
 20
87.915605123224637
 30
0.0
 10
164.71629259194646
 20
87.919846880223304
 30
0.0
 10
164.72011544462066
 20
87.924088637221956
 30
0.0
 10
164.72314872772679
 20
87.926625471336195
 30
0.0
 10
164.72618201083293
 20
87.929162305450433
 30
0.0
 10
164.72923745662627
 20
87.931471899211601
 30
0.0
 10
164.72928669322209
 20
87.931509613349036
 30
0.0
 10
164.72933592981792
 20
87.93154732748647
 30
0.0
  0
SPLINE
  5
C4
100
AcDbEntity
  8
0
370
              25
  6
Continuous
 62
               7
100
AcDbSpline
210
0.0
220
0.0
230
1.0
 70
               8
 71
               2
 72
              16
 73
              13
 74
               0
 42
0.000001
 43
0.000001
 40
0.0
 40
0.0
 40
0.0
 40
0.004920821105424
 40
0.004920821105424
 40
0.165516904896271
 40
0.165516904896271
 40
0.4555464593140755
 40
0.4555464593140755
 40
0.7768734858620345
 40
0.7768734858620345
 40
0.9946666005038881
 40
0.9946666005038881
 40
1.0
 40
1.0
 40
1.0
 10
164.72933592981792
 20
87.931547327486413
 30
0.0
 10
164.74223632765091
 20
87.930814366159538
 30
0.0
 10
164.75513672548391
 20
87.930081404832663
 30
0.0
 10
165.03881514882374
 20
87.913838637493868
 30
0.0
 10
165.59725705601721
 20
87.883764034660061
 30
0.0
 10
166.15569896321068
 20
87.853689431826268
 30
0.0
 10
167.11937542948385
 20
87.830363989217233
 30
0.0
 10
168.08305189575702
 20
87.807038546608197
 30
0.0
 10
168.80661776115102
 20
87.803419340040421
 30
0.0
 10
169.53018362654501
 20
87.79980013347263
 30
0.0
 10
169.95038012619472
 20
87.798792468871937
 30
0.0
 10
169.9643846382379
 20
87.798755422738196
 30
0.0
 10
169.97838915028106
 20
87.798718376604455
 30
0.0
  0
SPLINE
  5
C5
100
AcDbEntity
  8
0
370
              25
  6
Continuous
 62
               7
100
AcDbSpline
210
0.0
220
0.0
230
1.0
 70
               8
 71
               2
 72
              26
 73
              23
 74
               0
 42
0.000001
 43
0.000001
 40
0.0
 40
0.0
 40
0.0
 40
0.0020503428686995
 40
0.0020503428686995
 40
0.1166367172243182
 40
0.1166367172243182
 40
0.247537643726903
 40
0.247537643726903
 40
0.4158601275122466
 40
0.4158601275122466
 40
0.5908575525086428
 40
0.5908575525086428
 40
0.7174295230105133
 40
0.7174295230105133
 40
0.8064666362446749
 40
0.8064666362446749
 40
0.8808068024019912
 40
0.8808068024019912
 40
0.9428471877040298
 40
0.9428471877040298
 40
0.9991047739619224
 40
0.9991047739619224
 40
1.0
 40
1.0
 40
1.0
 10
175.27790705449081
 20
87.784145040956872
 30
0.0
 10
175.27789172700858
 20
87.784308408195244
 30
0.0
 10
175.27787639952635
 20
87.784471775433616
 30
0.0
 10
175.27706009626661
 20
87.793304211179617
 30
0.0
 10
175.27611489404762
 20
87.802727136708754
 30
0.0
 10
175.27516969182864
 20
87.81215006223789
 30
0.0
 10
175.27364854332768
 20
87.823531510767737
 30
0.0
 10
175.27212739482673
 20
87.834912959297597
 30
0.0
 10
175.26887319860379
 20
87.850035441708002
 30
0.0
 10
175.26561900238084
 20
87.865157924118392
 30
0.0
 10
175.26151745532681
 20
87.877035583809288
 30
0.0
 10
175.25741590827278
 20
87.88891324350017
 30
0.0
 10
175.25437248498636
 20
87.895985405571309
 30
0.0
 10
175.25132906169995
 20
87.903057567642435
 30
0.0
 10
175.2480608601322
 20
87.908749383355058
 30
0.0
 10
175.24479265856445
 20
87.914441199067667
 30
0.0
 10
175.24134749138247
 20
87.918552399717356
 30
0.0
 10
175.23790232420049
 20
87.922663600367045
 30
0.0
 10
175.23446126017345
 20
87.925691875616536
 30
0.0
 10
175.2310201961464
 20
87.928720150866013
 30
0.0
 10
175.2275473232728
 20
87.931457831111842
 30
0.0
 10
175.22749137390809
 20
87.931502579299135
 30
0.0
 10
175.22743542454342
 20
87.931547327486413
 30
0.0
  0
SPLINE
  5
C6
100
AcDbEntity
  8
0
370
              25
  6
Continuous
 62
               7
100
AcDbSpline
210
0.0
220
0.0
230
1.0
 70
               8
 71
               2
 72
              14
 73
              11
 74
               0
 42
0.000001
 43
0.000001
 40
0.0
 40
0.0
 40
0.0
 40
0.0053333139820689
 40
0.0053333139820689
 40
0.4656237275770392
 40
0.4656237275770392
 40
0.783949073062695
 40
0.783949073062695
 40
0.9950790648440058
 40
0.9950790648440058
 40
1.0
 40
1.0
 40
1.0
 10
169.97838915028106
 20
87.798718376604455
 30
0.0
 10
169.99239337910882
 20
87.798755421375816
 30
0.0
 10
170.00639760793661
 20
87.798792466147177
 30
0.0
 10
171.3701287939698
 20
87.799773640452457
 30
0.0
 10
172.42350964672593
 20
87.821114861612841
 30
0.0
 10
173.47689049948207
 20
87.842456082773239
 30
0.0
 10
174.0943805771746
 20
87.872134261897244
 30
0.0
 10
174.71187065486714
 20
87.901812441021264
 30
0.0
 10
175.20163413748185
 20
87.930081403500367
 30
0.0
 10
175.21453478101262
 20
87.930814365493404
 30
0.0
 10
175.22743542454342
 20
87.931547327486413
 30
0.0
  0
SPLINE
  5
C7
100
AcDbEntity
  8
0
370
              25
  6
Continuous
 62
               7
100
AcDbSpline
210
0.0
220
0.0
230
1.0
 70
               8
 71
               2
 72
              30
 73
              27
 74
               0
 42
0.000001
 43
0.000001
 40
0.0
 40
0.0
 40
0.0
 40
0.0008062471573354
 40
0.0008062471573354
 40
0.0479131162712605
 40
0.0479131162712605
 40
0.0967372943176721
 40
0.0967372943176721
 40
0.1539148554693508
 40
0.1539148554693508
 40
0.2171266140412864
 40
0.2171266140412864
 40
0.2778448836634369
 40
0.2778448836634369
 40
0.3408800665351908
 40
0.3408800665351908
 40
0.426040043927862
 40
0.426040043927862
 40
0.5511131745809552
 40
0.5511131745809552
 40
0.7102120350199204
 40
0.7102120350199204
 40
0.8680951779339774
 40
0.8680951779339774
 40
0.9973082482525685
 40
0.9973082482525685
 40
1.0
 40
1.0
 40
1.0
 10
160.19383503831125
 20
90.159121914354699
 30
0.0
 10
160.19383468900361
 20
90.156840778436163
 30
0.0
 10
160.19383433969597
 20
90.154559642517626
 30
0.0
 10
160.19291499013514
 20
90.02249081658573
 30
0.0
 10
160.19727507098577
 20
89.888046319995254
 30
0.0
 10
160.20163515183643
 20
89.753601823404807
 30
0.0
 10
160.22490372206659
 20
89.613379179799864
 30
0.0
 10
160.24817229229672
 20
89.473156536194949
 30
0.0
 10
160.31878741618056
 20
89.30459343267573
 30
0.0
 10
160.38940254006434
 20
89.136030329156512
 30
0.0
 10
160.51378319014589
 20
89.007286723082544
 30
0.0
 10
160.63816384022741
 20
88.878543117008562
 30
0.0
 10
160.77328103925197
 20
88.782956943422789
 30
0.0
 10
160.90839823827653
 20
88.687370769837031
 30
0.0
 10
161.08096639585847
 20
88.603384631248005
 30
0.0
 10
161.25353455344037
 20
88.519398492658993
 30
0.0
 10
161.52753898148845
 20
88.423332038841735
 30
0.0
 10
161.80154340953652
 20
88.327265585024477
 30
0.0
 10
162.21034048362975
 20
88.239700222649304
 30
0.0
 10
162.61913755772298
 20
88.152134860274117
 30
0.0
 10
163.09734634541002
 20
88.08758675007735
 30
0.0
 10
163.57555513309708
 20
88.023038639880582
 30
0.0
 10
163.98516805377605
 20
87.989194059578054
 30
0.0
 10
164.39478097445505
 20
87.955349479275512
 30
0.0
 10
164.71414383601464
 20
87.932644841277096
 30
0.0
 10
164.72173988291627
 20
87.932096084381755
 30
0.0
 10
164.72933592981792
 20
87.931547327486413
 30
0.0
  0
LINE
  5
C8
100
AcDbEntity
  8
0
370
              25
  6
Continuous
 62
               7
100
AcDbLine
 10
166.699669908369
 20
90.159121914349996
 30
0.0
 11
160.19383503831904
 21
90.159121914349996
 31
0.0
  0
LINE
  5
C9
100
AcDbEntity
  8
0
370
              25
  6
Continuous
 62
               7
100
AcDbLine
 10
166.70052556096903
 20
90.158555670249996
 30
0.0
 11
166.699669908369
 21
90.159121914349996
 31
0.0
  0
SPLINE
  5
CA
100
AcDbEntity
  8
0
370
              25
  6
Continuous
 62
               7
100
AcDbSpline
210
0.0
220
0.0
230
1.0
 70
               8
 71
               2
 72
              24
 73
              21
 74
               0
 42
0.000001
 43
0.000001
 40
0.0
 40
0.0
 40
0.0
 40
0.0028929950933283
 40
0.0028929950933283
 40
0.1069164023687858
 40
0.1069164023687858
 40
0.2402955832177621
 40
0.2402955832177621
 40
0.4311018973526167
 40
0.4311018973526167
 40
0.6177736519336373
 40
0.6177736519336373
 40
0.7556245718480961
 40
0.7556245718480961
 40
0.8597909569644998
 40
0.8597909569644998
 40
0.9384157629261725
 40
0.9384157629261725
 40
0.9963756263150781
 40
0.9963756263150781
 40
1.0
 40
1.0
 40
1.0
 10
173.25625277831352
 20
90.158555670229347
 30
0.0
 10
173.2476389932938
 20
90.153351034394603
 30
0.0
 10
173.23902520827409
 20
90.148146398559845
 30
0.0
 10
172.91381399536755
 20
89.946275611764889
 30
0.0
 10
172.61169923390869
 20
89.78768420377331
 30
0.0
 10
172.30958447244984
 20
89.62909279578173
 30
0.0
 10
171.75732443871237
 20
89.427257328222709
 30
0.0
 10
171.20506440497485
 20
89.225421860663701
 30
0.0
 10
170.45850594593304
 20
89.176523301321936
 30
0.0
 10
169.71194748689123
 20
89.127624741980185
 30
0.0
 10
169.1631356168013
 20
89.213324582414202
 30
0.0
 10
168.61432374671139
 20
89.299024422848234
 30
0.0
 10
168.22831790413883
 20
89.422997264773755
 30
0.0
 10
167.8423120615663
 20
89.546970106699263
 30
0.0
 10
167.55436317645797
 20
89.687641195075926
 30
0.0
 10
167.26641429134969
 20
89.82831228345259
 30
0.0
 10
167.07029190736739
 20
89.942079363659175
 30
0.0
 10
166.87416952338512
 20
90.055846443865761
 30
0.0
 10
166.72223613995757
 20
90.145728558346065
 30
0.0
 10
166.71138085046235
 20
90.152142114287699
 30
0.0
 10
166.70052556096712
 20
90.158555670229347
 30
0.0
  0
LINE
  5
CB
100
AcDbEntity
  8
0
370
              25
  6
Continuous
 62
               7
100
AcDbLine
 10
173.25625286096903
 20
90.158555811249997
 30
0.0
 11
173.257106952019
 21
90.159130126949989
 31
0.0
  0
LINE
  5
CC
100
AcDbEntity
  8
0
370
              25
  6
Continuous
 62
               7
100
AcDbLine
 10
179.76294330096903
 20
90.159121914349996
 30
0.0
 11
173.25710703396902
 21
90.159121914349996
 31
0.0
  0
SPLINE
  5
CD
100
AcDbEntity
  8
0
370
              25
  6
Continuous
 62
               7
100
AcDbSpline
210
0.0
220
0.0
230
1.0
 70
               8
 71
               2
 72
              32
 73
              29
 74
               0
 42
0.000001
 43
0.000001
 40
0.0
 40
0.0
 40
0.0
 40
0.0018163605073257
 40
0.0018163605073257
 40
0.1023032980038432
 40
0.1023032980038432
 40
0.2700955699585267
 40
0.2700955699585267
 40
0.433784972475849
 40
0.433784972475849
 40
0.5566106878254021
 40
0.5566106878254021
 40
0.6519211113380179
 40
0.6519211113380179
 40
0.7240058932294928
 40
0.7240058932294928
 40
0.7729108079138953
 40
0.7729108079138953
 40
0.8151185651521226
 40
0.8151185651521226
 40
0.8657032801915744
 40
0.8657032801915744
 40
0.9165293138583657
 40
0.9165293138583657
 40
0.9613323870266906
 40
0.9613323870266906
 40
0.9991885672003922
 40
0.9991885672003922
 40
1.0
 40
1.0
 40
1.0
 10
175.22743542454342
 20
87.931547327486413
 30
0.0
 10
175.23256255628098
 20
87.931907922761781
 30
0.0
 10
175.23768968801852
 20
87.932268518037148
 30
0.0
 10
175.39157552960015
 20
87.943005372537741
 30
0.0
 10
175.8049582569198
 20
87.972596436261966
 30
0.0
 10
176.21834098423943
 20
88.002187499986178
 30
0.0
 10
176.74904233126858
 20
88.072869937504223
 30
0.0
 10
177.27974367829771
 20
88.143552375022267
 30
0.0
 10
177.66323035106544
 20
88.221151976871965
 30
0.0
 10
178.04671702383317
 20
88.298751578721664
 30
0.0
 10
178.33640305116467
 20
88.392276371418447
 30
0.0
 10
178.62608907849619
 20
88.48580116411523
 30
0.0
 10
178.8398354901114
 20
88.584607293081376
 30
0.0
 10
179.05358190172666
 20
88.683413422047522
 30
0.0
 10
179.19232214797688
 20
88.78829020006475
 30
0.0
 10
179.33106239422713
 20
88.893166978081979
 30
0.0
 10
179.40366298939273
 20
88.966622140694923
 30
0.0
 10
179.47626358455835
 20
89.040077303307868
 30
0.0
 10
179.55506883619853
 20
89.151011022137027
 30
0.0
 10
179.63387408783871
 20
89.261944740966186
 30
0.0
 10
179.67971495420682
 20
89.407339602776872
 30
0.0
 10
179.72555582057493
 20
89.552734464587573
 30
0.0
 10
179.74241225820182
 20
89.687618360449193
 30
0.0
 10
179.75926869582872
 20
89.822502256310813
 30
0.0
 10
179.76122727042977
 20
89.940296401244694
 30
0.0
 10
179.76318584503082
 20
90.058090546178562
 30
0.0
 10
179.76294407994746
 20
90.154529654783573
 30
0.0
 10
179.76294369045843
 20
90.156825784569165
 30
0.0
 10
179.76294330096937
 20
90.159121914354756
 30
0.0
  0
LINE
  5
CE
100
AcDbEntity
  8
0
370
              25
  6
Continuous
 62
               7
100
AcDbLine
 10
160.09975283181902
 20
90.159121914349996
 30
0.0
 11
160.19383503831904
 21
90.159121914349996
 31
0.0
  0
LINE
  5
CF
100
AcDbEntity
  8
0
370
              25
  6
Continuous
 62
               7
100
AcDbLine
 10
179.76294330096903
 20
90.159121914349996
 30
0.0
 11
179.85702550746902
 21
90.159121914349996
 31
0.0
  0
ARC
  5
D0
100
AcDbEntity
  8
0
370
              25
  6
Continuous
 62
               7
100
AcDbCircle
 10
169.97838916961902
 20
95.034131122150001
 30
0.0
 40
5.8749999999997335
100
AcDbArc
 50
303.92309461169998
 51
236.07688811239998
  0
ARC
  5
D1
100
AcDbEntity
  8
0
370
              25
  6
Continuous
 62
               7
100
AcDbCircle
 10
169.97838916961902
 20
95.034131122150001
 30
0.0
 40
5.8592904415646556
100
AcDbArc
 50
330.54155710589998
 51
89.458442868999981
  0
ARC
  5
D2
100
AcDbEntity
  8
0
370
              25
  6
Continuous
 62
               7
100
AcDbCircle
 10
169.97838916961902
 20
95.034131122150001
 30
0.0
 40
5.8592904415646405
100
AcDbArc
 50
90.541557131000005
 51
209.4584428709
  0
LINE
  5
D3
100
AcDbEntity
  8
0
370
              25
  6
Continuous
 62
               7
100
AcDbLine
 10
179.85702550746902
 20
127.38544122739999
 30
0.0
 11
179.76294330096903
 21
127.38544122739999
 31
0.0
  0
LINE
  5
D4
100
AcDbEntity
  8
0
370
              25
  6
Continuous
 62
               7
100
AcDbLine
 10
160.19383503831904
 20
127.38544122739999
 30
0.0
 11
160.09975283181902
 21
127.38544122739999
 31
0.0
  0
LINE
  5
D5
100
AcDbEntity
  8
0
370
              25
  6
Continuous
 62
               7
100
AcDbLine
 10
160.19383503831904
 20
127.38544122739999
 30
0.0
 11
179.76294330096903
 21
127.38544122739999
 31
0.0
  0
LINE
  5
D6
100
AcDbEntity
  8
0
370
              25
  6
Continuous
 62
               7
100
AcDbLine
 10
160.19383503831904
 20
90.159121914349996
 30
0.0
 11
160.19383503831904
 21
127.38544122739999
 31
0.0
  0
LINE
  5
D7
100
AcDbEntity
  8
0
370
              25
  6
Continuous
 62
               7
100
AcDbLine
 10
179.76294330096903
 20
127.38544122739999
 30
0.0
 11
179.76294330096903
 21
90.159121914349996
 31
0.0
  0
ARC
  5
D8
100
AcDbEntity
  8
0
370
              25
  6
Continuous
 62
               7
100
AcDbCircle
 10
170.16605672861903
 20
79.233708058999994
 30
0.0
 40
1.0696631686975793
100
AcDbArc
 50
242.83866660070046
 51
263.41206594619968
  0
ARC
  5
D9
100
AcDbEntity
  8
0
370
              25
  6
Continuous
 62
               7
100
AcDbCircle
 10
169.507641900669
 20
81.391067085399996
 30
0.0
 40
3.1137152880720245
100
AcDbArc
 50
266.86811637729994
 51
273.13188362270012
  0
ARC
  5
DA
100
AcDbEntity
  8
0
370
              25
  6
Continuous
 62
               7
100
AcDbCircle
 10
169.82582444196902
 20
79.233708216999986
 30
0.0
 40
1.0696633311593582
100
AcDbArc
 50
242.83866818010009
 51
263.41206436690021
  0
POLYLINE
  5
DB
100
AcDbEntity
  8
0
370
              25
  6
Continuous
 62
               7
100
AcDb2dPolyline
 66
               1
 10
0.0
 20
0.0
 30
0.0
 75
               5
  0
VERTEX
  5
DC
100
AcDbEntity
  8
0
370
              25
  6
Continuous
 62
               7
100
AcDbVertex
100
AcDb2dVertex
 10
169.70310412821902
 20
78.171107931599991
 30
0.0
  0
VERTEX
  5
DD
100
AcDbEntity
  8
0
370
              25
  6
Continuous
 62
               7
100
AcDbVertex
100
AcDb2dVertex
 10
169.62830972866902
 20
78.177277012299996
 30
0.0
  0
VERTEX
  5
DE
100
AcDbEntity
  8
0
370
              25
  6
Continuous
 62
               7
100
AcDbVertex
100
AcDb2dVertex
 10
169.59804846796902
 20
78.180406256149993
 30
0.0
  0
SEQEND
  5
DF
100
AcDbEntity
  8
0
370
              25
  6
Continuous
 62
               7
  0
ARC
  5
E0
100
AcDbEntity
  8
0
370
              25
  6
Continuous
 62
               7
100
AcDbCircle
 10
170.08546100081901
 20
80.71345109024999
 30
0.0
 40
2.5481560618533905
100
AcDbArc
 50
261.37003813960007
 51
266.12917303050011
  0
POLYLINE
  5
E1
100
AcDbEntity
  8
0
370
              25
  6
Continuous
 62
               7
100
AcDb2dPolyline
 66
               1
 10
0.0
 20
0.0
 30
0.0
 75
               5
  0
VERTEX
  5
E2
100
AcDbEntity
  8
0
370
              25
  6
Continuous
 62
               7
100
AcDbVertex
100
AcDb2dVertex
 10
169.97838916986902
 20
78.180406256149993
 30
0.0
  0
VERTEX
  5
E3
100
AcDbEntity
  8
0
370
              25
  6
Continuous
 62
               7
100
AcDbVertex
100
AcDb2dVertex
 10
169.95968112556903
 20
78.177277012299996
 30
0.0
  0
VERTEX
  5
E4
100
AcDbEntity
  8
0
370
              25
  6
Continuous
 62
               7
100
AcDbVertex
100
AcDb2dVertex
 10
169.91344187651902
 20
78.171107931599991
 30
0.0
  0
SEQEND
  5
E5
100
AcDbEntity
  8
0
370
              25
  6
Continuous
 62
               7
  0
ARC
  5
E6
100
AcDbEntity
  8
0
370
              25
  6
Continuous
 62
               7
100
AcDbCircle
 10
170.07891743501904
 20
80.7351017238
 30
0.0
 40
2.5699424307250163
100
AcDbArc
 50
273.89913731269996
 51
287.34350074750012
  0
ARC
  5
E7
100
AcDbEntity
  8
0
370
              25
  6
Continuous
 62
               7
100
AcDbCircle
 10
170.73984755791901
 20
79.467805741949988
 30
0.0
 40
1.1904579460979199
100
AcDbArc
 50
264.93169977620005
 51
275.06830022379995
  0
ARC
  5
E8
100
AcDbEntity
  8
0
370
              25
  6
Continuous
 62
               7
100
AcDbCircle
 10
169.86857987641901
 20
80.735100712299996
 30
0.0
 40
2.5699414086611672
100
AcDbArc
 50
273.89913462699991
 51
287.34350343320006
  0
LINE
  5
E9
100
AcDbEntity
  8
0
370
              25
  6
Continuous
 62
               7
100
AcDbLine
 10
169.70310412821902
 20
78.269604607049999
 30
0.0
 11
169.70310412821902
 21
78.171107931599991
 31
0.0
  0
LINE
  5
EA
100
AcDbEntity
  8
0
370
              25
  6
Continuous
 62
               7
100
AcDbLine
 10
170.25367421106901
 20
78.194145126799995
 30
0.0
 11
170.25367421106901
 21
78.171107931599991
 31
0.0
  0
LINE
  5
EB
100
AcDbEntity
  8
0
370
              25
  6
Continuous
 62
               7
100
AcDbLine
 10
169.91344187651902
 20
78.19408552214999
 30
0.0
 11
169.91344187651902
 21
78.171107931599991
 31
0.0
  0
SPLINE
  5
EC
100
AcDbEntity
  8
0
370
              25
  6
Continuous
 62
               7
100
AcDbSpline
210
0.0
220
0.0
230
1.0
 70
               8
 71
               2
 72
              20
 73
              17
 74
               0
 42
0.000001
 43
0.000001
 40
0.0
 40
0.0
 40
0.0
 40
0.0021647550730593
 40
0.0021647550730593
 40
0.1290676556944443
 40
0.1290676556944443
 40
0.2787573026254941
 40
0.2787573026254941
 40
0.4393011453607387
 40
0.4393011453607387
 40
0.6136206542723836
 40
0.6136206542723836
 40
0.8090270195356206
 40
0.8090270195356206
 40
0.998478164539464
 40
0.998478164539464
 40
1.0
 40
1.0
 40
1.0
 10
188.48638574368456
 20
86.041543646303552
 30
0.0
 10
188.44632396661331
 20
86.042199556682462
 30
0.0
 10
188.40626218954205
 20
86.042855467061372
 30
0.0
 10
186.25869189992784
 20
86.078460905947935
 30
0.0
 10
183.70916152110294
 20
86.114973191409675
 30
0.0
 10
181.15963114227804
 20
86.151485476871414
 30
0.0
 10
178.16823787013948
 20
86.162933300567133
 30
0.0
 10
175.17684459800091
 20
86.174381124262851
 30
0.0
 10
172.22529030321724
 20
86.164654498337029
 30
0.0
 10
169.27373600843353
 20
86.154927872411221
 30
0.0
 10
165.77240287549625
 20
86.169028885607545
 30
0.0
 10
162.27106974255895
 20
86.18312989880387
 30
0.0
 10
158.53906825030407
 20
86.140631723617659
 30
0.0
 10
154.80706675804913
 20
86.098133548431449
 30
0.0
 10
151.52671976474323
 20
86.042475428705558
 30
0.0
 10
151.49855618016966
 20
86.042009537504555
 30
0.0
 10
151.47039259559611
 20
86.041543646303552
 30
0.0
  0
ARC
  5
ED
100
AcDbEntity
  8
0
370
              25
  6
Continuous
 62
               7
100
AcDbCircle
 10
151.73198015746902
 20
86.076812935099994
 30
0.0
 40
0.2639544946920832
100
AcDbArc
 50
127.88140788840118
 51
187.6787606796008
  0
SPLINE
  5
EE
100
AcDbEntity
  8
0
370
              25
  6
Continuous
 62
               7
100
AcDbSpline
210
0.0
220
0.0
230
1.0
 70
               8
 71
               2
 72
              22
 73
              19
 74
               0
 42
0.000001
 43
0.000001
 40
0.0
 40
0.0
 40
0.0
 40
0.0015177750610318
 40
0.0015177750610318
 40
0.1625834976268128
 40
0.1625834976268128
 40
0.309127583645525
 40
0.309127583645525
 40
0.4256264509677846
 40
0.4256264509677846
 40
0.5514419019181577
 40
0.5514419019181577
 40
0.7137741047490729
 40
0.7137741047490729
 40
0.8733512932815322
 40
0.8733512932815322
 40
0.9978407415309069
 40
0.9978407415309069
 40
1.0
 40
1.0
 40
1.0
 10
151.56990441269375
 20
86.285147829500573
 30
0.0
 10
151.5978423514766
 20
86.285575976759247
 30
0.0
 10
151.62578029025946
 20
86.286004124017921
 30
0.0
 10
154.52330249953513
 20
86.334159154280883
 30
0.0
 10
157.55556010305645
 20
86.355761956355906
 30
0.0
 10
160.58781770657774
 20
86.377364758430929
 30
0.0
 10
162.95104263960548
 20
86.359231249302354
 30
0.0
 10
165.31426757263321
 20
86.34109774017378
 30
0.0
 10
167.24012105777243
 20
86.313676013552083
 30
0.0
 10
169.16597454291164
 20
86.286254286930387
 30
0.0
 10
171.87230068186631
 20
86.31540022894022
 30
0.0
 10
174.578626820821
 20
86.344546170950053
 30
0.0
 10
177.84896498773688
 20
86.361494016954552
 30
0.0
 10
181.11930315465275
 20
86.37844186295905
 30
0.0
 10
183.72426171013723
 20
86.347670643589055
 30
0.0
 10
186.3292202656217
 20
86.316899424219059
 30
0.0
 10
188.30738207740166
 20
86.286353745550855
 30
0.0
 10
188.34712800199426
 20
86.285750787525728
 30
0.0
 10
188.38687392658687
 20
86.285147829500573
 30
0.0
  0
ARC
  5
EF
100
AcDbEntity
  8
0
370
              25
  6
Continuous
 62
               7
100
AcDbCircle
 10
188.22479818181901
 20
86.076812935099994
 30
0.0
 40
0.2639544946920758
100
AcDbArc
 50
352.32123932039923
 51
52.118592111600321
  0
SPLINE
  5
F0
100
AcDbEntity
  8
0
370
              25
  6
Continuous
 62
               7
100
AcDbSpline
210
0.0
220
0.0
230
1.0
 70
               8
 71
               2
 72
              10
 73
               7
 74
               0
 42
0.000001
 43
0.000001
 40
0.0
 40
0.0
 40
0.0
 40
0.0096183184635696
 40
0.0096183184635696
 40
0.9903875628056733
 40
0.9903875628056733
 40
1.0
 40
1.0
 40
1.0
 10
188.38687392658687
 20
86.285147829500573
 30
0.0
 10
188.36735704642584
 20
86.292074113453822
 30
0.0
 10
188.3478401662648
 20
86.29900039740707
 30
0.0
 10
186.36062822823834
 20
87.003534710781977
 30
0.0
 10
184.37086664101901
 20
87.720650515886518
 30
0.0
 10
184.35139361171983
 20
87.727661850839937
 30
0.0
 10
184.33192058242062
 20
87.734673185793355
 30
0.0
  0
SPLINE
  5
F1
100
AcDbEntity
  8
0
370
              25
  6
Continuous
 62
               7
100
AcDbSpline
210
0.0
220
0.0
230
1.0
 70
               8
 71
               2
 72
              10
 73
               7
 74
               0
 42
0.000001
 43
0.000001
 40
0.0
 40
0.0
 40
0.0
 40
0.0096183184635696
 40
0.0096183184635696
 40
0.9903875628056733
 40
0.9903875628056733
 40
1.0
 40
1.0
 40
1.0
 10
151.56990441269375
 20
86.285147829500573
 30
0.0
 10
151.58942129285478
 20
86.292074113453822
 30
0.0
 10
151.60893817301582
 20
86.29900039740707
 30
0.0
 10
153.59615011104239
 20
87.003534710781977
 30
0.0
 10
155.58591169826161
 20
87.720650515886518
 30
0.0
 10
155.60538472756082
 20
87.727661850839937
 30
0.0
 10
155.62485775686002
 20
87.734673185793355
 30
0.0
  0
LINE
  5
F2
100
AcDbEntity
  8
0
370
              25
  6
Continuous
 62
               7
100
AcDbLine
 10
184.33192058242062
 20
87.734673185793355
 30
0.0
 11
155.62485775686002
 21
87.734673185793298
 31
0.0
  0
LINE
  5
F3
100
AcDbEntity
  8
0
370
              25
  6
Continuous
 62
               7
100
AcDbLine
 10
150.18188173656901
 20
161.58467905089998
 30
0.0
 11
150.18188173656901
 21
128.0596591668
 31
0.0
  0
LINE
  5
F4
100
AcDbEntity
  8
0
370
              25
  6
Continuous
 62
               7
100
AcDbLine
 10
150.18188173656901
 20
161.58467905089998
 30
0.0
 11
189.77489660271902
 21
161.58467905089998
 31
0.0
  0
LINE
  5
F5
100
AcDbEntity
  8
0
370
              25
  6
Continuous
 62
               7
100
AcDbLine
 10
189.77489660271902
 20
128.0596591668
 30
0.0
 11
189.77489660271902
 21
161.58467905089998
 31
0.0
  0
LINE
  5
F6
100
AcDbEntity
  8
0
370
              25
  6
Continuous
 62
               7
100
AcDbLine
 10
189.77489660271902
 20
128.0596591668
 30
0.0
 11
150.18188173656901
 21
128.0596591668
 31
0.0
  0
SPLINE
  5
F7
100
AcDbEntity
  8
0
370
              25
  6
Continuous
 62
               7
100
AcDbSpline
210
0.0
220
0.0
230
1.0
 70
               8
 71
               2
 72
              26
 73
              23
 74
               0
 42
0.000001
 43
0.000001
 40
0.0
 40
0.0
 40
0.0
 40
0.0002737121501901
 40
0.0002737121501901
 40
0.0064647615982222
 40
0.0064647615982222
 40
0.0189297957529891
 40
0.0189297957529891
 40
0.069519361648632
 40
0.069519361648632
 40
0.1731452467721234
 40
0.1731452467721234
 40
0.2867229759627065
 40
0.2867229759627065
 40
0.4216280123666117
 40
0.4216280123666117
 40
0.602424374758002
 40
0.602424374758002
 40
0.7962236992235547
 40
0.7962236992235547
 40
0.9958307818834382
 40
0.9958307818834382
 40
1.0
 40
1.0
 40
1.0
 10
150.23338201231456
 20
167.08466784521715
 30
0.0
 10
150.2331200947944
 20
167.08396168822389
 30
0.0
 10
150.23285817727421
 20
167.08325553123063
 30
0.0
 10
150.22706251466997
 20
167.06873605148076
 30
0.0
 10
150.22251952090531
 20
167.05081928017464
 30
0.0
 10
150.21797652714065
 20
167.03290250886852
 30
0.0
 10
150.21128625033316
 20
166.98319082513547
 30
0.0
 10
150.20459597352561
 20
166.93347914140244
 30
0.0
 10
150.19621749138861
 20
166.70528427900717
 30
0.0
 10
150.1878390092516
 20
166.47708941661188
 30
0.0
 10
150.18526478001937
 20
166.13513002230522
 30
0.0
 10
150.18269055078716
 20
165.79317062799856
 30
0.0
 10
150.18168508832449
 20
165.51008391589622
 30
0.0
 10
150.18067962586179
 20
165.2269972037939
 30
0.0
 10
150.18052366194721
 20
164.76765686382032
 30
0.0
 10
150.18036769803263
 20
164.30831652384671
 30
0.0
 10
150.1808077071353
 20
163.77267296142179
 30
0.0
 10
150.18124771623798
 20
163.23702939899687
 30
0.0
 10
150.1815202334746
 20
162.70612944572548
 30
0.0
 10
150.18179275071122
 20
162.17522949245404
 30
0.0
 10
150.18187744823163
 20
161.60762367931483
 30
0.0
 10
150.18187959240757
 20
161.59615136510257
 30
0.0
 10
150.18188173658353
 20
161.58467905089034
 30
0.0
  0
LINE
  5
F8
100
AcDbEntity
  8
0
370
              25
  6
Continuous
 62
               7
100
AcDbLine
 10
150.233382012319
 20
167.08466784519999
 30
0.0
 11
189.72339632696901
 21
167.08466784519999
 31
0.0
  0
SPLINE
  5
F9
100
AcDbEntity
  8
0
370
              25
  6
Continuous
 62
               7
100
AcDbSpline
210
0.0
220
0.0
230
1.0
 70
               8
 71
               2
 72
              26
 73
              23
 74
               0
 42
0.000001
 43
0.000001
 40
0.0
 40
0.0
 40
0.0
 40
0.0035163695535944
 40
0.0035163695535944
 40
0.1683212730639696
 40
0.1683212730639696
 40
0.3513306915501415
 40
0.3513306915501415
 40
0.5286286609732572
 40
0.5286286609732572
 40
0.6827328433245991
 40
0.6827328433245991
 40
0.8097190793214085
 40
0.8097190793214085
 40
0.9122760074683955
 40
0.9122760074683955
 40
0.974649052277426
 40
0.974649052277426
 40
0.9954918863352268
 40
0.9954918863352268
 40
0.9999049936355879
 40
0.9999049936355879
 40
1.0
 40
1.0
 40
1.0
 10
189.77489660269717
 20
161.58467905089034
 30
0.0
 10
189.77489832833825
 20
161.59435623720105
 30
0.0
 10
189.77490005397934
 20
161.60403342351179
 30
0.0
 10
189.77495549190718
 20
162.01118434100476
 30
0.0
 10
189.77516206339095
 20
162.51113245456628
 30
0.0
 10
189.77536863487472
 20
163.01108056812785
 30
0.0
 10
189.77578421586102
 20
163.51843039889485
 30
0.0
 10
189.77619979684732
 20
164.02578022966185
 30
0.0
 10
189.77636771104818
 20
164.49429209620342
 30
0.0
 10
189.77653562524904
 20
164.96280396274497
 30
0.0
 10
189.77558137072037
 20
165.34249276670926
 30
0.0
 10
189.77462711619171
 20
165.72218157067357
 30
0.0
 10
189.77225132201772
 20
166.04142595119765
 30
0.0
 10
189.76987552784374
 20
166.36067033172176
 30
0.0
 10
189.76338127304643
 20
166.60582503199916
 30
0.0
 10
189.75688701824913
 20
166.85097973227658
 30
0.0
 10
189.74851977072223
 20
166.94874851051964
 30
0.0
 10
189.74015252319532
 20
167.04651728876269
 30
0.0
 10
189.73415084337043
 20
167.06238766379263
 30
0.0
 10
189.72814916354554
 20
167.07825803882258
 30
0.0
 10
189.72369261100798
 20
167.08423695815213
 30
0.0
 10
189.72354446898703
 20
167.08445240168464
 30
0.0
 10
189.72339632696605
 20
167.08466784521715
 30
0.0
  0
LINE
  5
FA
100
AcDbEntity
  8
0
370
              25
  6
Continuous
 62
               7
100
AcDbLine
 10
150.83944204036902
 20
127.55966560409999
 30
0.0
 11
150.83944204036902
 21
86.788836880199995
 31
0.0
  0
SPLINE
  5
FB
100
AcDbEntity
  8
0
370
              25
  6
Continuous
 62
               7
100
AcDbSpline
210
0.0
220
0.0
230
1.0
 70
               8
 71
               2
 72
              28
 73
              25
 74
               0
 42
0.000001
 43
0.000001
 40
0.0
 40
0.0
 40
0.0
 40
0.0027032082225246
 40
0.0027032082225246
 40
0.091734399501638
 40
0.091734399501638
 40
0.1933589313504132
 40
0.1933589313504132
 40
0.3093066770051544
 40
0.3093066770051544
 40
0.4286307244220505
 40
0.4286307244220505
 40
0.5623875638442132
 40
0.5623875638442132
 40
0.6855380149276851
 40
0.6855380149276851
 40
0.7898004945893768
 40
0.7898004945893768
 40
0.8883272247366112
 40
0.8883272247366112
 40
0.9556074262130467
 40
0.9556074262130467
 40
0.9985673228116827
 40
0.9985673228116827
 40
1.0
 40
1.0
 40
1.0
 10
150.83944204039076
 20
86.788836880175012
 30
0.0
 10
150.83956063787798
 20
86.787369701880834
 30
0.0
 10
150.8396792353652
 20
86.785902523586657
 30
0.0
 10
150.84352455067847
 20
86.735959081887756
 30
0.0
 10
150.8483443152883
 20
86.689335275262039
 30
0.0
 10
150.85316407989814
 20
86.642711468636321
 30
0.0
 10
150.86452468474596
 20
86.579889624664943
 30
0.0
 10
150.87588528959384
 20
86.517067780693566
 30
0.0
 10
150.90057332044253
 20
86.459183463273249
 30
0.0
 10
150.92526135129123
 20
86.401299145852931
 30
0.0
 10
150.95898778503198
 20
86.343240657484472
 30
0.0
 10
150.9927142187727
 20
86.285182169115998
 30
0.0
 10
151.04742304384598
 20
86.227969501814371
 30
0.0
 10
151.10213186891923
 20
86.170756834512744
 30
0.0
 10
151.14841291780829
 20
86.140180447026822
 30
0.0
 10
151.19469396669734
 20
86.109604059540899
 30
0.0
 10
151.24729293664674
 20
86.084574013996061
 30
0.0
 10
151.29989190659614
 20
86.059543968451223
 30
0.0
 10
151.34936230415363
 20
86.052964237192754
 30
0.0
 10
151.39883270171111
 20
86.04638450593427
 30
0.0
 10
151.42214894485653
 20
86.044669918457075
 30
0.0
 10
151.44546518800195
 20
86.042955330979879
 30
0.0
 10
151.46883498449742
 20
86.04163446357262
 30
0.0
 10
151.46961379004676
 20
86.041589054938086
 30
0.0
 10
151.47039259559611
 20
86.041543646303552
 30
0.0
  0
SPLINE
  5
FC
100
AcDbEntity
  8
0
370
              25
  6
Continuous
 62
               7
100
AcDbSpline
210
0.0
220
0.0
230
1.0
 70
               8
 71
               2
 72
              28
 73
              25
 74
               0
 42
0.000001
 43
0.000001
 40
0.0
 40
0.0
 40
0.0
 40
0.0027032082225246
 40
0.0027032082225246
 40
0.0917343995016363
 40
0.0917343995016363
 40
0.1933589313504102
 40
0.1933589313504102
 40
0.3093066770051499
 40
0.3093066770051499
 40
0.4286307244220447
 40
0.4286307244220447
 40
0.5623875638442412
 40
0.5623875638442412
 40
0.6855380149277243
 40
0.6855380149277243
 40
0.7898004945893706
 40
0.7898004945893706
 40
0.8883272247365858
 40
0.8883272247365858
 40
0.9556074262130145
 40
0.9556074262130145
 40
0.9985673228116828
 40
0.9985673228116828
 40
1.0
 40
1.0
 40
1.0
 10
189.11733629888991
 20
86.788836880175012
 30
0.0
 10
189.11721770140269
 20
86.787369701880834
 30
0.0
 10
189.11709910391548
 20
86.785902523586657
 30
0.0
 10
189.11325378860226
 20
86.735959081887756
 30
0.0
 10
189.1084340239924
 20
86.689335275262039
 30
0.0
 10
189.10361425938254
 20
86.642711468636321
 30
0.0
 10
189.09225365453472
 20
86.579889624664943
 30
0.0
 10
189.08089304968689
 20
86.517067780693566
 30
0.0
 10
189.05620501883817
 20
86.459183463273249
 30
0.0
 10
189.03151698798945
 20
86.401299145852931
 30
0.0
 10
188.99779055424875
 20
86.343240657484472
 30
0.0
 10
188.964064120508
 20
86.285182169115998
 30
0.0
 10
188.90935529543469
 20
86.227969501814371
 30
0.0
 10
188.85464647036133
 20
86.170756834512744
 30
0.0
 10
188.80836542147233
 20
86.140180447026822
 30
0.0
 10
188.76208437258333
 20
86.109604059540899
 30
0.0
 10
188.70948540263393
 20
86.084574013996061
 30
0.0
 10
188.65688643268453
 20
86.059543968451223
 30
0.0
 10
188.60741603512707
 20
86.052964237192754
 30
0.0
 10
188.55794563756962
 20
86.04638450593427
 30
0.0
 10
188.53462939442417
 20
86.044669918457075
 30
0.0
 10
188.51131315127873
 20
86.042955330979879
 30
0.0
 10
188.48794335478325
 20
86.04163446357262
 30
0.0
 10
188.48716454923391
 20
86.041589054938086
 30
0.0
 10
188.48638574368456
 20
86.041543646303552
 30
0.0
  0
LINE
  5
FD
100
AcDbEntity
  8
0
370
              25
  6
Continuous
 62
               7
100
AcDbLine
 10
189.11733629886902
 20
127.55966560409999
 30
0.0
 11
189.11733629886902
 21
86.788836880199995
 31
0.0
  0
LINE
  5
FE
100
AcDbEntity
  8
0
370
              25
  6
Continuous
 62
               7
100
AcDbLine
 10
189.77489660271902
 20
127.55966560409999
 30
0.0
 11
189.11733629886902
 21
127.55966560409999
 31
0.0
  0
LINE
  5
FF
100
AcDbEntity
  8
0
370
              25
  6
Continuous
 62
               7
100
AcDbLine
 10
189.77489660271902
 20
85.0846804814
 30
0.0
 11
189.77489660271902
 21
127.55966560409999
 31
0.0
  0
LINE
  5
100
100
AcDbEntity
  8
0
370
              25
  6
Continuous
 62
               7
100
AcDbLine
 10
150.18188173656901
 20
85.0846804814
 30
0.0
 11
189.77489660271902
 21
85.0846804814
 31
0.0
  0
LINE
  5
101
100
AcDbEntity
  8
0
370
              25
  6
Continuous
 62
               7
100
AcDbLine
 10
150.18188173656901
 20
127.55966560409999
 30
0.0
 11
150.18188173656901
 21
85.0846804814
 31
0.0
  0
LINE
  5
102
100
AcDbEntity
  8
0
370
              25
  6
Continuous
 62
               7
100
AcDbLine
 10
150.18188173656901
 20
127.55966560409999
 30
0.0
 11
150.83944204036902
 21
127.55966560409999
 31
0.0
  0
SPLINE
  5
103
100
AcDbEntity
  8
0
370
              25
  6
Continuous
 62
               7
100
AcDbSpline
210
0.0
220
0.0
230
1.0
 70
               8
 71
               2
 72
              26
 73
              23
 74
               0
 42
0.000001
 43
0.000001
 40
0.0
 40
0.0
 40
0.0
 40
0.0001354832131491
 40
0.0001354832131491
 40
0.0053730953007715
 40
0.0053730953007715
 40
0.0409642617922858
 40
0.0409642617922858
 40
0.124759675570285
 40
0.124759675570285
 40
0.2178872210484263
 40
0.2178872210484263
 40
0.3133725499896098
 40
0.3133725499896098
 40
0.4547158007358202
 40
0.4547158007358202
 40
0.6343269180329125
 40
0.6343269180329125
 40
0.8139510913388979
 40
0.8139510913388979
 40
0.9961446199814971
 40
0.9961446199814971
 40
1.0
 40
1.0
 40
1.0
 10
189.72339632696605
 20
79.584661884752663
 30
0.0
 10
189.72357466477499
 20
79.584989331166142
 30
0.0
 10
189.72375300258392
 20
79.585316777579621
 30
0.0
 10
189.72768944674044
 20
79.592075190033611
 30
0.0
 10
189.73584664270845
 20
79.611460029286832
 30
0.0
 10
189.74400383867649
 20
79.630844868540038
 30
0.0
 10
189.75385317585136
 20
79.806281880070003
 30
0.0
 10
189.76370251302626
 20
79.981718891599954
 30
0.0
 10
189.76781660155496
 20
80.267247354860032
 30
0.0
 10
189.77193069008365
 20
80.552775818120111
 30
0.0
 10
189.77331814079687
 20
80.779805431125126
 30
0.0
 10
189.77470559151007
 20
81.006835044130142
 30
0.0
 10
189.77551000720456
 20
81.30536790071146
 30
0.0
 10
189.77631442289908
 20
81.603900757292777
 30
0.0
 10
189.77629457279562
 20
82.083344342894065
 30
0.0
 10
189.77627472269216
 20
82.562787928495339
 30
0.0
 10
189.77585175453333
 20
83.071954203734848
 30
0.0
 10
189.7754287863745
 20
83.581120478974356
 30
0.0
 10
189.77519919644024
 20
84.060635841692871
 30
0.0
 10
189.77496960650598
 20
84.540151204411387
 30
0.0
 10
189.77490017773653
 20
85.063459817350093
 30
0.0
 10
189.77489839021683
 20
85.074070149375956
 30
0.0
 10
189.77489660269717
 20
85.084680481401818
 30
0.0
  0
LINE
  5
104
100
AcDbEntity
  8
0
370
              25
  6
Continuous
 62
               7
100
AcDbLine
 10
150.233382012319
 20
79.584661884749991
 30
0.0
 11
189.72339632696901
 21
79.584661884749991
 31
0.0
  0
SPLINE
  5
105
100
AcDbEntity
  8
0
370
              25
  6
Continuous
 62
               7
100
AcDbSpline
210
0.0
220
0.0
230
1.0
 70
               8
 71
               2
 72
              26
 73
              23
 74
               0
 42
0.000001
 43
0.000001
 40
0.0
 40
0.0
 40
0.0
 40
0.0031150019719767
 40
0.0031150019719767
 40
0.2047046549338504
 40
0.2047046549338504
 40
0.3922246900586831
 40
0.3922246900586831
 40
0.5487732428679339
 40
0.5487732428679339
 40
0.6842041544281332
 40
0.6842041544281332
 40
0.7991958779375736
 40
0.7991958779375736
 40
0.8996000886978405
 40
0.8996000886978405
 40
0.9657444734353922
 40
0.9657444734353922
 40
0.9908525382907575
 40
0.9908525382907575
 40
0.9998252725280062
 40
0.9998252725280062
 40
1.0
 40
1.0
 40
1.0
 10
150.18188173658353
 20
85.084680481401818
 30
0.0
 10
150.18188044571895
 20
85.07610861930057
 30
0.0
 10
150.18187915485436
 20
85.067536757199321
 30
0.0
 10
150.18183360518867
 20
84.534384657406306
 30
0.0
 10
150.1815013699578
 20
83.958068053687327
 30
0.0
 10
150.18116913472693
 20
83.381751449968363
 30
0.0
 10
150.18083834529332
 20
82.926033030226677
 30
0.0
 10
150.18050755585969
 20
82.470314610484991
 30
0.0
 10
150.18039765141361
 20
82.064452561726227
 30
0.0
 10
150.18028774696751
 20
81.658590512967464
 30
0.0
 10
150.18121167987164
 20
81.319095875007321
 30
0.0
 10
150.18213561277571
 20
80.979601237047191
 30
0.0
 10
150.18403934871478
 20
80.686234317923521
 30
0.0
 10
150.18594308465384
 20
80.392867398799851
 30
0.0
 10
150.19167979387998
 20
80.133710962179947
 30
0.0
 10
150.19741650310613
 20
79.874554525560058
 30
0.0
 10
150.20474397581421
 20
79.76995591196598
 30
0.0
 10
150.21207144852229
 20
79.665357298371916
 30
0.0
 10
150.21852589236664
 20
79.632558607802025
 30
0.0
 10
150.22498033621093
 20
79.599759917232134
 30
0.0
 10
150.232965283646
 20
79.585528527496479
 30
0.0
 10
150.23317364798027
 20
79.585095206124578
 30
0.0
 10
150.23338201231456
 20
79.584661884752663
 30
0.0
  0
LINE
  5
106
100
AcDbEntity
  8
0
370
              25
  6
Continuous
 62
               7
100
AcDbLine
 10
188.78911773451901
 20
127.55722181364999
 30
0.0
 11
188.84278612916901
 21
127.55799667405
 31
0.0
  0
LINE
  5
107
100
AcDbEntity
  8
0
370
              25
  6
Continuous
 62
               7
100
AcDbLine
 10
188.78911773451901
 20
127.55722181364999
 30
0.0
 11
184.57923049811902
 21
127.48465315864999
 31
0.0
  0
LINE
  5
108
100
AcDbEntity
  8
0
370
              25
  6
Continuous
 62
               7
100
AcDbLine
 10
151.16766060476903
 20
127.55722181364999
 30
0.0
 11
155.377547841119
 21
127.48465315864999
 31
0.0
  0
LINE
  5
109
100
AcDbEntity
  8
0
370
              25
  6
Continuous
 62
               7
100
AcDbLine
 10
151.16766060476903
 20
127.55722181364999
 30
0.0
 11
151.11399221011902
 21
127.55799667405
 31
0.0
  0
LINE
  5
10A
100
AcDbEntity
  8
0
370
              25
  6
Continuous
 62
               7
100
AcDbLine
 10
188.84278612918357
 20
127.5579966740288
 30
0.0
 11
151.11399221009711
 21
127.5579966740288
 31
0.0
  0
LINE
  5
10B
100
AcDbEntity
  8
0
370
              25
  6
Continuous
 62
               7
100
AcDbLine
 10
189.690053116169
 20
127.55966560409999
 30
0.0
 11
189.690053116169
 21
128.0596591668
 31
0.0
  0
LINE
  5
10C
100
AcDbEntity
  8
0
370
              25
  6
Continuous
 62
               7
100
AcDbLine
 10
188.84278612916901
 20
127.55799667405
 30
0.0
 11
188.84278612916901
 21
127.55966560409999
 31
0.0
  0
LINE
  5
10D
100
AcDbEntity
  8
0
370
              25
  6
Continuous
 62
               7
100
AcDbLine
 10
151.11399221011902
 20
127.55799667405
 30
0.0
 11
151.11399221011902
 21
127.55966560409999
 31
0.0
  0
LINE
  5
10E
100
AcDbEntity
  8
0
370
              25
  6
Continuous
 62
               7
100
AcDbLine
 10
150.26672522311901
 20
127.55966560409999
 30
0.0
 11
150.26672522311901
 21
128.0596591668
 31
0.0
  0
SPLINE
  5
10F
100
AcDbEntity
  8
0
370
              25
  6
Continuous
 62
               7
100
AcDbSpline
210
0.0
220
0.0
230
1.0
 70
               8
 71
               2
 72
              30
 73
              27
 74
               0
 42
0.000001
 43
0.000001
 40
0.0
 40
0.0
 40
0.0
 40
0.0012990621528536
 40
0.0012990621528536
 40
0.0840130114832702
 40
0.0840130114832702
 40
0.1648157108608998
 40
0.1648157108608998
 40
0.2349299993930269
 40
0.2349299993930269
 40
0.3231764255553818
 40
0.3231764255553818
 40
0.4465152421585004
 40
0.4465152421585004
 40
0.5578688979980473
 40
0.5578688979980473
 40
0.6544907217738426
 40
0.6544907217738426
 40
0.760147765489383
 40
0.760147765489383
 40
0.8515676964141543
 40
0.8515676964141543
 40
0.9254779902112773
 40
0.9254779902112773
 40
0.9975924744694245
 40
0.9975924744694245
 40
1.0
 40
1.0
 40
1.0
 10
188.38687392658687
 20
86.285147829500573
 30
0.0
 10
188.3873478104353
 20
86.28516659104875
 30
0.0
 10
188.38782169428376
 20
86.285185352596898
 30
0.0
 10
188.41725149402311
 20
86.286046370290137
 30
0.0
 10
188.44808862037729
 20
86.288864701597419
 30
0.0
 10
188.47892574673148
 20
86.2916830329047
 30
0.0
 10
188.50588210042463
 20
86.300094997165004
 30
0.0
 10
188.53283845411781
 20
86.308506961425309
 30
0.0
 10
188.55362997786671
 20
86.318425846928022
 30
0.0
 10
188.57442150161557
 20
86.328344732430736
 30
0.0
 10
188.60917714173891
 20
86.350983782744422
 30
0.0
 10
188.64393278186225
 20
86.373622833058107
 30
0.0
 10
188.67526425594676
 20
86.411613532048349
 30
0.0
 10
188.70659573003127
 20
86.449604231038592
 30
0.0
 10
188.72260930423312
 20
86.477583272919929
 30
0.0
 10
188.73862287843497
 20
86.505562314801267
 30
0.0
 10
188.7538080605697
 20
86.540795973624739
 30
0.0
 10
188.76899324270443
 20
86.576029632448211
 30
0.0
 10
188.77598599778514
 20
86.614489432537823
 30
0.0
 10
188.78297875286589
 20
86.652949232627435
 30
0.0
 10
188.78521922207199
 20
86.680558011519508
 30
0.0
 10
188.78745969127812
 20
86.708166790411582
 30
0.0
 10
188.78814100462617
 20
86.734434230057886
 30
0.0
 10
188.78882231797425
 20
86.76070166970419
 30
0.0
 10
188.78909659650151
 20
86.787079152571039
 30
0.0
 10
188.78910716550013
 20
86.787958016373054
 30
0.0
 10
188.78911773449875
 20
86.788836880175069
 30
0.0
  0
LINE
  5
110
100
AcDbEntity
  8
0
370
              25
  6
Continuous
 62
               7
100
AcDbLine
 10
189.11733629886902
 20
86.788836880199995
 30
0.0
 11
188.78911773451901
 21
86.788836880199995
 31
0.0
  0
SPLINE
  5
111
100
AcDbEntity
  8
0
370
              25
  6
Continuous
 62
               7
100
AcDbSpline
210
0.0
220
0.0
230
1.0
 70
               8
 71
               2
 72
              30
 73
              27
 74
               0
 42
0.000001
 43
0.000001
 40
0.0
 40
0.0
 40
0.0
 40
0.0012990621528536
 40
0.0012990621528536
 40
0.0840130114832243
 40
0.0840130114832243
 40
0.1648157108608759
 40
0.1648157108608759
 40
0.2349299993930231
 40
0.2349299993930231
 40
0.3231764255553984
 40
0.3231764255553984
 40
0.4465152421584929
 40
0.4465152421584929
 40
0.5578688979980367
 40
0.5578688979980367
 40
0.6544907217738241
 40
0.6544907217738241
 40
0.7601477654893689
 40
0.7601477654893689
 40
0.8515676964141498
 40
0.8515676964141498
 40
0.9254779902112742
 40
0.9254779902112742
 40
0.9975924744694242
 40
0.9975924744694242
 40
1.0
 40
1.0
 40
1.0
 10
151.56990441269375
 20
86.285147829500573
 30
0.0
 10
151.56943052884532
 20
86.28516659104875
 30
0.0
 10
151.56895664499689
 20
86.285185352596898
 30
0.0
 10
151.5395268452576
 20
86.286046370290137
 30
0.0
 10
151.50868971890338
 20
86.288864701597419
 30
0.0
 10
151.4778525925492
 20
86.2916830329047
 30
0.0
 10
151.45089623885602
 20
86.300094997165004
 30
0.0
 10
151.42393988516284
 20
86.308506961425309
 30
0.0
 10
151.40314836141394
 20
86.318425846928022
 30
0.0
 10
151.38235683766504
 20
86.328344732430736
 30
0.0
 10
151.34760119754171
 20
86.350983782744422
 30
0.0
 10
151.31284555741837
 20
86.373622833058107
 30
0.0
 10
151.28151408333389
 20
86.411613532048349
 30
0.0
 10
151.25018260924941
 20
86.449604231038592
 30
0.0
 10
151.23416903504756
 20
86.477583272919929
 30
0.0
 10
151.21815546084568
 20
86.505562314801267
 30
0.0
 10
151.20297027871101
 20
86.540795973624739
 30
0.0
 10
151.18778509657631
 20
86.576029632448211
 30
0.0
 10
151.18079234149553
 20
86.614489432537823
 30
0.0
 10
151.17379958641473
 20
86.652949232627435
 30
0.0
 10
151.17155911720866
 20
86.680558011519508
 30
0.0
 10
151.16931864800256
 20
86.708166790411582
 30
0.0
 10
151.16863733465448
 20
86.734434230057886
 30
0.0
 10
151.16795602130637
 20
86.76070166970419
 30
0.0
 10
151.16768174277914
 20
86.787079152571039
 30
0.0
 10
151.16767117378049
 20
86.787958016373054
 30
0.0
 10
151.16766060478187
 20
86.788836880175069
 30
0.0
  0
LINE
  5
112
100
AcDbEntity
  8
0
370
              25
  6
Continuous
 62
               7
100
AcDbLine
 10
150.83944204036902
 20
86.788836880199995
 30
0.0
 11
151.16766060476903
 21
86.788836880199995
 31
0.0
  0
SPLINE
  5
113
100
AcDbEntity
  8
0
370
              25
  6
Continuous
 62
               7
100
AcDbSpline
210
0.0
220
0.0
230
1.0
 70
               8
 71
               2
 72
              10
 73
               7
 74
               0
 42
0.000001
 43
0.000001
 40
0.0
 40
0.0
 40
0.0
 40
0.0102790568815304
 40
0.0102790568815304
 40
0.9910479106625214
 40
0.9910479106625214
 40
1.0
 40
1.0
 40
1.0
 10
155.37754784113861
 20
88.309649391619104
 30
0.0
 10
155.35592664702793
 20
88.301789880557067
 30
0.0
 10
155.33430545291725
 20
88.293930369495001
 30
0.0
 10
153.26782090965918
 20
87.542074347020957
 30
0.0
 10
151.20537637451918
 20
86.802372381062213
 30
0.0
 10
151.18651848965052
 20
86.795604630618612
 30
0.0
 10
151.16766060478187
 20
86.788836880175012
 30
0.0
  0
SPLINE
  5
114
100
AcDbEntity
  8
0
370
              25
  6
Continuous
 62
               7
100
AcDbSpline
210
0.0
220
0.0
230
1.0
 70
               8
 71
               2
 72
              28
 73
              25
 74
               0
 42
0.000001
 43
0.000001
 40
0.0
 40
0.0
 40
0.0
 40
0.0013347796521
 40
0.0013347796521
 40
0.0467654834404987
 40
0.0467654834404987
 40
0.1060468857942769
 40
0.1060468857942769
 40
0.173780462136192
 40
0.173780462136192
 40
0.2386404793771305
 40
0.2386404793771305
 40
0.3240658406218638
 40
0.3240658406218638
 40
0.4568401535272829
 40
0.4568401535272829
 40
0.6184947286316866
 40
0.6184947286316866
 40
0.7820663573053893
 40
0.7820663573053893
 40
0.9120017688325129
 40
0.9120017688325129
 40
0.9988027689306963
 40
0.9988027689306963
 40
1.0
 40
1.0
 40
1.0
 10
155.62485775686002
 20
87.734673185793298
 30
0.0
 10
155.6244244262719
 20
87.734782508330994
 30
0.0
 10
155.62399109568381
 20
87.73489183086869
 30
0.0
 10
155.61097821815025
 20
87.738084086126761
 30
0.0
 10
155.5945781721625
 20
87.742655072994665
 30
0.0
 10
155.57817812617475
 20
87.747226059862555
 30
0.0
 10
155.55825493037182
 20
87.758421628913084
 30
0.0
 10
155.53833173456889
 20
87.769617197963612
 30
0.0
 10
155.52293900543884
 20
87.786558090875701
 30
0.0
 10
155.50754627630883
 20
87.80349898378779
 30
0.0
 10
155.4960001083266
 20
87.820573950437705
 30
0.0
 10
155.48445394034439
 20
87.837648917087606
 30
0.0
 10
155.46712893672756
 20
87.869917919014966
 30
0.0
 10
155.44980393311073
 20
87.902186920942341
 30
0.0
 10
155.43301002219786
 20
87.951900210346878
 30
0.0
 10
155.416216111285
 20
88.0016134997514
 30
0.0
 10
155.40387987908414
 20
88.056082190651409
 30
0.0
 10
155.39154364688329
 20
88.110550881551418
 30
0.0
 10
155.38583852413083
 20
88.164025451571703
 30
0.0
 10
155.38013340137837
 20
88.217500021591988
 30
0.0
 10
155.37907743476964
 20
88.250743137472327
 30
0.0
 10
155.37802146816091
 20
88.28398625335268
 30
0.0
 10
155.37756394326686
 20
88.308847844658544
 30
0.0
 10
155.37755589220274
 20
88.309248618138824
 30
0.0
 10
155.37754784113861
 20
88.309649391619104
 30
0.0
  0
SPLINE
  5
115
100
AcDbEntity
  8
0
370
              25
  6
Continuous
 62
               7
100
AcDbSpline
210
0.0
220
0.0
230
1.0
 70
               8
 71
               2
 72
              10
 73
               7
 74
               0
 42
0.000001
 43
0.000001
 40
0.0
 40
0.0
 40
0.0
 40
0.0102790568815304
 40
0.0102790568815304
 40
0.9910479106625214
 40
0.9910479106625214
 40
1.0
 40
1.0
 40
1.0
 10
184.57923049814201
 20
88.309649391619104
 30
0.0
 10
184.60085169225272
 20
88.301789880557067
 30
0.0
 10
184.6224728863634
 20
88.293930369495001
 30
0.0
 10
186.68895742962161
 20
87.542074347020957
 30
0.0
 10
188.75140196476147
 20
86.802372381062213
 30
0.0
 10
188.77025984963012
 20
86.795604630618612
 30
0.0
 10
188.78911773449875
 20
86.788836880175012
 30
0.0
  0
SPLINE
  5
116
100
AcDbEntity
  8
0
370
              25
  6
Continuous
 62
               7
100
AcDbSpline
210
0.0
220
0.0
230
1.0
 70
               8
 71
               2
 72
              28
 73
              25
 74
               0
 42
0.000001
 43
0.000001
 40
0.0
 40
0.0
 40
0.0
 40
0.0013347796521
 40
0.0013347796521
 40
0.0467654834404975
 40
0.0467654834404975
 40
0.1060468857942835
 40
0.1060468857942835
 40
0.173780462136238
 40
0.173780462136238
 40
0.2386404793771693
 40
0.2386404793771693
 40
0.3240658406218729
 40
0.3240658406218729
 40
0.4568401535273071
 40
0.4568401535273071
 40
0.6184947286317102
 40
0.6184947286317102
 40
0.7820663573053941
 40
0.7820663573053941
 40
0.9120017688325154
 40
0.9120017688325154
 40
0.9988027689306965
 40
0.9988027689306965
 40
1.0
 40
1.0
 40
1.0
 10
184.33192058242062
 20
87.734673185793298
 30
0.0
 10
184.33235391300872
 20
87.734782508330994
 30
0.0
 10
184.33278724359684
 20
87.73489183086869
 30
0.0
 10
184.34580012113042
 20
87.738084086126761
 30
0.0
 10
184.36220016711815
 20
87.742655072994665
 30
0.0
 10
184.37860021310587
 20
87.747226059862555
 30
0.0
 10
184.39852340890883
 20
87.758421628913084
 30
0.0
 10
184.41844660471179
 20
87.769617197963612
 30
0.0
 10
184.43383933384183
 20
87.786558090875701
 30
0.0
 10
184.44923206297187
 20
87.80349898378779
 30
0.0
 10
184.46077823095408
 20
87.820573950437705
 30
0.0
 10
184.47232439893628
 20
87.837648917087606
 30
0.0
 10
184.48964940255308
 20
87.869917919014966
 30
0.0
 10
184.50697440616989
 20
87.902186920942341
 30
0.0
 10
184.52376831708281
 20
87.951900210346878
 30
0.0
 10
184.54056222799574
 20
88.0016134997514
 30
0.0
 10
184.55289846019653
 20
88.056082190651409
 30
0.0
 10
184.56523469239733
 20
88.110550881551418
 30
0.0
 10
184.57093981514979
 20
88.164025451571703
 30
0.0
 10
184.57664493790224
 20
88.217500021591988
 30
0.0
 10
184.577700904511
 20
88.250743137472327
 30
0.0
 10
184.57875687111977
 20
88.28398625335268
 30
0.0
 10
184.57921439601375
 20
88.308847844658544
 30
0.0
 10
184.57922244707788
 20
88.309248618138824
 30
0.0
 10
184.57923049814201
 20
88.309649391619104
 30
0.0
  0
LINE
  5
117
100
AcDbEntity
  8
0
370
              25
  6
Continuous
 62
               7
100
AcDbLine
 10
151.16766060476903
 20
86.788836880199995
 30
0.0
 11
151.16766060476903
 21
127.55722181364999
 31
0.0
  0
LINE
  5
118
100
AcDbEntity
  8
0
370
              25
  6
Continuous
 62
               7
100
AcDbLine
 10
151.11399221011902
 20
127.55966560409999
 30
0.0
 11
150.83944204036902
 21
127.55966560409999
 31
0.0
  0
LINE
  5
119
100
AcDbEntity
  8
0
370
              25
  6
Continuous
 62
               7
100
AcDbLine
 10
188.78911773451901
 20
86.788836880199995
 30
0.0
 11
188.78911773451901
 21
127.55722181364999
 31
0.0
  0
LINE
  5
11A
100
AcDbEntity
  8
0
370
              25
  6
Continuous
 62
               7
100
AcDbLine
 10
188.84278612916901
 20
127.55966560409999
 30
0.0
 11
189.11733629886902
 21
127.55966560409999
 31
0.0
  0
LINE
  5
11B
100
AcDbEntity
  8
0
370
              25
  6
Continuous
 62
               7
100
AcDbLine
 10
184.57923049811902
 20
88.30964939159999
 30
0.0
 11
184.57923049811902
 21
127.48465315864999
 31
0.0
  0
LINE
  5
11C
100
AcDbEntity
  8
0
370
              25
  6
Continuous
 62
               7
100
AcDbLine
 10
155.377547841119
 20
88.30964939159999
 30
0.0
 11
155.377547841119
 21
127.48465315864999
 31
0.0
  0
ARC
  5
11D
100
AcDbEntity
  8
0
370
              25
  6
Continuous
 62
               7
100
AcDbCircle
 10
189.72336961096903
 20
166.83467787594998
 30
0.0
 40
0.2499899706842046
100
AcDbArc
 50
359.99502348919913
 51
89.993876897100776
  0
SPLINE
  5
11E
100
AcDbEntity
  8
0
370
              25
  6
Continuous
 62
               7
100
AcDbSpline
210
0.0
220
0.0
230
1.0
 70
               8
 71
               2
 72
              26
 73
              23
 74
               0
 42
0.000001
 43
0.000001
 40
0.0
 40
0.0
 40
0.0
 40
0.000257498269348
 40
0.000257498269348
 40
0.0061261544118939
 40
0.0061261544118939
 40
0.0181663652093226
 40
0.0181663652093226
 40
0.0626622797610659
 40
0.0626622797610659
 40
0.1631117707887368
 40
0.1631117707887368
 40
0.297677646462223
 40
0.297677646462223
 40
0.4232410051591209
 40
0.4232410051591209
 40
0.5674716701025839
 40
0.5674716701025839
 40
0.774628857965831
 40
0.774628857965831
 40
0.9964523193656509
 40
0.9964523193656509
 40
1.0
 40
1.0
 40
1.0
 10
189.97335958070255
 20
166.83465616270672
 30
0.0
 10
189.97317037810902
 20
166.83400688389423
 30
0.0
 10
189.97298117551549
 20
166.83335760508174
 30
0.0
 10
189.96881593797366
 20
166.82001794999081
 30
0.0
 10
189.96542451654034
 20
166.80349149668817
 30
0.0
 10
189.96203309510702
 20
166.78696504338552
 30
0.0
 10
189.95659880977223
 20
166.74088892929618
 30
0.0
 10
189.95116452443739
 20
166.69481281520683
 30
0.0
 10
189.94223478068875
 20
166.50765099107531
 30
0.0
 10
189.93330503694011
 20
166.32048916694379
 30
0.0
 10
189.92442438104712
 20
165.980331714638
 30
0.0
 10
189.91554372515412
 20
165.64017426233221
 30
0.0
 10
189.90952804137984
 20
165.27365466837139
 30
0.0
 10
189.90351235760556
 20
164.90713507441058
 30
0.0
 10
189.90003462809727
 20
164.61417344864611
 30
0.0
 10
189.89655689858898
 20
164.32121182288165
 30
0.0
 10
189.89222019038579
 20
163.85660934025236
 30
0.0
 10
189.88788348218256
 20
163.39200685762307
 30
0.0
 10
189.88583119894
 20
162.76848980988325
 30
0.0
 10
189.88377891569741
 20
162.14497276214342
 30
0.0
 10
189.88346964171183
 20
161.60331405133496
 30
0.0
 10
189.88346153317565
 20
161.59399655111264
 30
0.0
 10
189.88345342463947
 20
161.58467905089034
 30
0.0
  0
LINE
  5
11F
100
AcDbEntity
  8
0
370
              25
  6
Continuous
 62
               7
100
AcDbLine
 10
189.77489660271902
 20
161.58467905089998
 30
0.0
 11
189.88345342461901
 21
161.58467905089998
 31
0.0
  0
SPLINE
  5
120
100
AcDbEntity
  8
0
370
              25
  6
Continuous
 62
               7
100
AcDbSpline
210
0.0
220
0.0
230
1.0
 70
               8
 71
               2
 72
              26
 73
              23
 74
               0
 42
0.000001
 43
0.000001
 40
0.0
 40
0.0
 40
0.0
 40
0.0035476645108766
 40
0.0035476645108766
 40
0.1697960406251716
 40
0.1697960406251716
 40
0.3575547169754583
 40
0.3575547169754583
 40
0.5171654844782728
 40
0.5171654844782728
 40
0.6418588850470164
 40
0.6418588850470164
 40
0.7970718693765948
 40
0.7970718693765948
 40
0.9332533242826314
 40
0.9332533242826314
 40
0.9841014973581156
 40
0.9841014973581156
 40
0.995352393634474
 40
0.995352393634474
 40
0.9997425029009276
 40
0.9997425029009276
 40
1.0
 40
1.0
 40
1.0
 10
150.07332491464115
 20
161.58467905089037
 30
0.0
 10
150.07331680610497
 20
161.5939965511127
 30
0.0
 10
150.07330869756879
 20
161.60331405133499
 30
0.0
 10
150.07307743184271
 20
161.99534488034439
 30
0.0
 10
150.07195415953157
 20
162.47657459120674
 30
0.0
 10
150.07083088722044
 20
162.95780430206906
 30
0.0
 10
150.06735321389561
 20
163.46281264421307
 30
0.0
 10
150.06387554057079
 20
163.96782098635708
 30
0.0
 10
150.06027380638386
 20
164.30117801611362
 30
0.0
 10
150.05667207219693
 20
164.63453504587014
 30
0.0
 10
150.05222573985577
 20
164.95611190319678
 30
0.0
 10
150.04777940751461
 20
165.27768876052346
 30
0.0
 10
150.03757411401864
 20
165.77127351879005
 30
0.0
 10
150.02736882052267
 20
166.26485827705665
 30
0.0
 10
150.01585836426932
 20
166.48623402205055
 30
0.0
 10
150.00434790801597
 20
166.70760976704443
 30
0.0
 10
149.99879774125097
 20
166.7527346396723
 30
0.0
 10
149.99324757448596
 20
166.79785951230019
 30
0.0
 10
149.98984691443434
 20
166.81110690797712
 30
0.0
 10
149.98644625438271
 20
166.82435430365405
 30
0.0
 10
149.98379716376519
 20
166.83335760508174
 30
0.0
 10
149.98360796117163
 20
166.83400688389423
 30
0.0
 10
149.98341875857807
 20
166.83465616270672
 30
0.0
  0
ARC
  5
121
100
AcDbEntity
  8
0
370
              25
  6
Continuous
 62
               7
100
AcDbCircle
 10
150.23340872831903
 20
166.83467787594998
 30
0.0
 40
0.2499899706841929
100
AcDbArc
 50
90.006123102899224
 51
180.00497651080084
  0
LINE
  5
122
100
AcDbEntity
  8
0
370
              25
  6
Continuous
 62
               7
100
AcDbLine
 10
150.07332491461904
 20
161.58467905089998
 30
0.0
 11
150.18188173656901
 21
161.58467905089998
 31
0.0
  0
SPLINE
  5
123
100
AcDbEntity
  8
0
370
              25
  6
Continuous
 62
               7
100
AcDbSpline
210
0.0
220
0.0
230
1.0
 70
               8
 71
               2
 72
              24
 73
              21
 74
               0
 42
0.000001
 43
0.000001
 40
0.0
 40
0.0
 40
0.0
 40
0.0031425815456727
 40
0.0031425815456727
 40
0.2064424065359839
 40
0.2064424065359839
 40
0.4081493558619319
 40
0.4081493558619319
 40
0.5954047929969004
 40
0.5954047929969004
 40
0.7637051762869437
 40
0.7637051762869437
 40
0.8888496695854227
 40
0.8888496695854227
 40
0.9627753937082739
 40
0.9627753937082739
 40
0.993422331123214
 40
0.993422331123214
 40
0.9998757009139221
 40
0.9998757009139221
 40
1.0
 40
1.0
 40
1.0
 10
189.88345342463947
 20
85.084680481401818
 30
0.0
 10
189.8834597494471
 20
85.07642644981533
 30
0.0
 10
189.88346607425473
 20
85.068172418228841
 30
0.0
 10
189.88362818584562
 20
84.554763709616282
 30
0.0
 10
189.88545729205259
 20
84.000235248290252
 30
0.0
 10
189.88728639825956
 20
83.445706786964209
 30
0.0
 10
189.89133687978307
 20
82.940680835414639
 30
0.0
 10
189.89538736130663
 20
82.435654883865084
 30
0.0
 10
189.90125110240382
 20
81.95707389434709
 30
0.0
 10
189.90711484350101
 20
81.478492904829096
 30
0.0
 10
189.91553358969452
 20
81.073106665036903
 30
0.0
 10
189.92395233588803
 20
80.667720425244696
 30
0.0
 10
189.93245622534874
 20
80.41594358576728
 30
0.0
 10
189.9409601148094
 20
80.164166746289865
 30
0.0
 10
189.94930435961976
 20
80.027992033614396
 30
0.0
 10
189.95764860443012
 20
79.891817320938912
 30
0.0
 10
189.96347301120323
 20
79.867733016319761
 30
0.0
 10
189.96929741797635
 20
79.843648711700595
 30
0.0
 10
189.9731057353647
 20
79.835275149956601
 30
0.0
 10
189.97323265803362
 20
79.834974358609827
 30
0.0
 10
189.97335958070255
 20
79.834673567263039
 30
0.0
  0
ARC
  5
124
100
AcDbEntity
  8
0
370
              25
  6
Continuous
 62
               7
100
AcDbCircle
 10
189.72335721041901
 20
79.834664252149992
 30
0.0
 40
0.2500023704566841
100
AcDbArc
 50
270.00896476720089
 51
0.0021348466002564
  0
LINE
  5
125
100
AcDbEntity
  8
0
370
              25
  6
Continuous
 62
               7
100
AcDbLine
 10
189.88345342461901
 20
85.0846804814
 30
0.0
 11
189.77489660271902
 21
85.0846804814
 31
0.0
  0
ARC
  5
126
100
AcDbEntity
  8
0
370
              25
  6
Continuous
 62
               7
100
AcDbCircle
 10
150.233421128869
 20
79.834664252149992
 30
0.0
 40
0.2500023704566965
100
AcDbArc
 50
179.99786515339969
 51
269.99103523279911
  0
SPLINE
  5
127
100
AcDbEntity
  8
0
370
              25
  6
Continuous
 62
               7
100
AcDbSpline
210
0.0
220
0.0
230
1.0
 70
               8
 71
               2
 72
              24
 73
              21
 74
               0
 42
0.000001
 43
0.000001
 40
0.0
 40
0.0
 40
0.0
 40
0.0001242953079313
 40
0.0001242953079313
 40
0.0049809686148693
 40
0.0049809686148693
 40
0.039578759718466
 40
0.039578759718466
 40
0.1289759769953107
 40
0.1289759769953107
 40
0.2566285318784808
 40
0.2566285318784808
 40
0.413481383164972
 40
0.413481383164972
 40
0.6015426743937167
 40
0.6015426743937167
 40
0.8006699652846702
 40
0.8006699652846702
 40
0.9968575139750135
 40
0.9968575139750135
 40
1.0
 40
1.0
 40
1.0
 10
149.98341875857807
 20
79.834673567263039
 30
0.0
 10
149.98354568124699
 20
79.834974358609827
 30
0.0
 10
149.98367260391592
 20
79.835275149956601
 30
0.0
 10
149.98646577334301
 20
79.841479191194438
 30
0.0
 10
149.99230609544605
 20
79.859268159391434
 30
0.0
 10
149.99814641754909
 20
79.877057127588415
 30
0.0
 10
150.00819045210864
 20
80.040189198183327
 30
0.0
 10
150.01823448666818
 20
80.203321268778254
 30
0.0
 10
150.02730364715703
 20
80.509393346060961
 30
0.0
 10
150.03637280764585
 20
80.815465423343682
 30
0.0
 10
150.04334090600807
 20
81.179779758489929
 30
0.0
 10
150.05030900437026
 20
81.544094093636161
 30
0.0
 10
150.0560845563476
 20
82.003656444144212
 30
0.0
 10
150.06186010832494
 20
82.463218794652278
 30
0.0
 10
150.06583983783281
 20
82.991527928434422
 30
0.0
 10
150.06981956734069
 20
83.519837062216567
 30
0.0
 10
150.07144922902137
 20
84.037564608571074
 30
0.0
 10
150.07307889070211
 20
84.555292154925581
 30
0.0
 10
150.07331226502592
 20
85.068172418228841
 30
0.0
 10
150.07331858983355
 20
85.07642644981533
 30
0.0
 10
150.07332491464115
 20
85.084680481401818
 30
0.0
  0
LINE
  5
128
100
AcDbEntity
  8
0
370
              25
  6
Continuous
 62
               7
100
AcDbLine
 10
150.18188173656901
 20
85.0846804814
 30
0.0
 11
150.07332491461904
 21
85.0846804814
 31
0.0
  0
LINE
  5
129
100
AcDbEntity
  8
0
370
              25
  6
Continuous
 62
               7
100
AcDbLine
 10
189.978388722619
 20
166.83465616269999
 30
0.0
 11
189.97335958071903
 21
166.83465616269999
 31
0.0
  0
LINE
  5
12A
100
AcDbEntity
  8
0
370
              25
  6
Continuous
 62
               7
100
AcDbLine
 10
189.978388722619
 20
166.83465616269999
 30
0.0
 11
189.978388722619
 21
164.88466040654998
 31
0.0
  0
LINE
  5
12B
100
AcDbEntity
  8
0
370
              25
  6
Continuous
 62
               7
100
AcDbLine
 10
189.977913748069
 20
164.88466040654998
 30
0.0
 11
189.978388722619
 21
164.88466040654998
 31
0.0
  0
SPLINE
  5
12C
100
AcDbEntity
  8
0
370
              25
  6
Continuous
 62
               7
100
AcDbSpline
210
0.0
220
0.0
230
1.0
 70
               8
 71
               2
 72
              22
 73
              19
 74
               0
 42
0.000001
 43
0.000001
 40
0.0
 40
0.0
 40
0.0
 40
0.000440391371245
 40
0.000440391371245
 40
0.0251467916887868
 40
0.0251467916887868
 40
0.1297371640936084
 40
0.1297371640936084
 40
0.2529995791139033
 40
0.2529995791139033
 40
0.3589875839905066
 40
0.3589875839905066
 40
0.5284578757756959
 40
0.5284578757756959
 40
0.7384781689419603
 40
0.7384781689419603
 40
0.9747699951979476
 40
0.9747699951979476
 40
1.0
 40
1.0
 40
1.0
 10
189.97791462286904
 20
164.88466784519997
 30
0.0
 10
189.97718729139228
 20
164.88466784519997
 30
0.0
 10
189.97645995991553
 20
164.88466784519997
 30
0.0
 10
189.97200760513476
 20
164.87184285586272
 30
0.0
 10
189.96420441529131
 20
164.80406253788561
 30
0.0
 10
189.95640122544779
 20
164.7362822199085
 30
0.0
 10
189.94930782071219
 20
164.45901851769875
 30
0.0
 10
189.94221441597659
 20
164.181754815489
 30
0.0
 10
189.93966352166692
 20
164.0519837108987
 30
0.0
 10
189.93711262735727
 20
163.92221260630842
 30
0.0
 10
189.933704488546
 20
163.70194431276508
 30
0.0
 10
189.9302963497347
 20
163.48167601922171
 30
0.0
 10
189.92713912102784
 20
163.1422043746341
 30
0.0
 10
189.92398189232097
 20
162.8027327300465
 30
0.0
 10
189.92232878266552
 20
162.44850098866573
 30
0.0
 10
189.92067567301007
 20
162.0942692472849
 30
0.0
 10
189.92031290869903
 20
161.66800543012556
 30
0.0
 10
189.92031290869903
 20
161.62633663766277
 30
0.0
 10
189.92031290869903
 20
161.58466784519999
 30
0.0
  0
LINE
  5
12D
100
AcDbEntity
  8
0
370
              25
  6
Continuous
 62
               7
100
AcDbLine
 10
189.92031330951903
 20
128.0596591668
 30
0.0
 11
189.92031330951903
 21
161.58467905089998
 31
0.0
  0
LINE
  5
12E
100
AcDbEntity
  8
0
370
              25
  6
Continuous
 62
               7
100
AcDbLine
 10
189.88345342461901
 20
161.58467905089998
 30
0.0
 11
189.88345342461901
 21
128.0596591668
 31
0.0
  0
LINE
  5
12F
100
AcDbEntity
  8
0
370
              25
  6
Continuous
 62
               7
100
AcDbLine
 10
189.92031330951903
 20
128.0596591668
 30
0.0
 11
189.88345342461901
 21
128.0596591668
 31
0.0
  0
LINE
  5
130
100
AcDbEntity
  8
0
370
              25
  6
Continuous
 62
               7
100
AcDbLine
 10
150.03646502976903
 20
128.0596591668
 30
0.0
 11
150.03646502976903
 21
161.58467905089998
 31
0.0
  0
SPLINE
  5
131
100
AcDbEntity
  8
0
370
              25
  6
Continuous
 62
               7
100
AcDbSpline
210
0.0
220
0.0
230
1.0
 70
               8
 71
               2
 72
              22
 73
              19
 74
               0
 42
0.000001
 43
0.000001
 40
0.0
 40
0.0
 40
0.0
 40
0.0252307900239517
 40
0.0252307900239517
 40
0.2347443397835489
 40
0.2347443397835489
 40
0.3677629128132555
 40
0.3677629128132555
 40
0.4975558747527794
 40
0.4975558747527794
 40
0.6635295069780745
 40
0.6635295069780745
 40
0.8367069930522469
 40
0.8367069930522469
 40
0.9569524461689436
 40
0.9569524461689436
 40
0.9995595949226559
 40
0.9995595949226559
 40
1.0
 40
1.0
 40
1.0
 10
150.036465430589
 20
161.58466784519999
 30
0.0
 10
150.036465430589
 20
161.62633663766277
 30
0.0
 10
150.036465430589
 20
161.66800543012556
 30
0.0
 10
150.03611005012863
 20
162.09508240838812
 30
0.0
 10
150.03486689888376
 20
162.36002860025184
 30
0.0
 10
150.0336237476389
 20
162.62497479211555
 30
0.0
 10
150.03242088062211
 20
162.79938351541864
 30
0.0
 10
150.03121801360533
 20
162.97379223872173
 30
0.0
 10
150.0288451809684
 20
163.22807607188608
 30
0.0
 10
150.02647234833148
 20
163.48235990505043
 30
0.0
 10
150.02193003322458
 20
163.77624396325606
 30
0.0
 10
150.0173877181177
 20
164.0701280214617
 30
0.0
 10
150.01033592955832
 20
164.34813013985499
 30
0.0
 10
150.00328414099897
 20
164.62613225824828
 30
0.0
 10
149.99551587868686
 20
164.74499242108624
 30
0.0
 10
149.98774761637475
 20
164.8638525839242
 30
0.0
 10
149.98031837937248
 20
164.88466784519997
 30
0.0
 10
149.97959104789575
 20
164.88466784519997
 30
0.0
 10
149.97886371641903
 20
164.88466784519997
 30
0.0
  0
LINE
  5
132
100
AcDbEntity
  8
0
370
              25
  6
Continuous
 62
               7
100
AcDbLine
 10
149.97886459116901
 20
164.88466040654998
 30
0.0
 11
149.97838961666901
 21
164.88466040654998
 31
0.0
  0
LINE
  5
133
100
AcDbEntity
  8
0
370
              25
  6
Continuous
 62
               7
100
AcDbLine
 10
149.97838961666901
 20
166.83465616269999
 30
0.0
 11
149.97838961666901
 21
164.88466040654998
 31
0.0
  0
LINE
  5
134
100
AcDbEntity
  8
0
370
              25
  6
Continuous
 62
               7
100
AcDbLine
 10
149.98341875856903
 20
166.83465616269999
 30
0.0
 11
149.97838961666901
 21
166.83465616269999
 31
0.0
  0
LINE
  5
135
100
AcDbEntity
  8
0
370
              25
  6
Continuous
 62
               7
100
AcDbLine
 10
150.07332491461904
 20
128.0596591668
 30
0.0
 11
150.07332491461904
 21
161.58467905089998
 31
0.0
  0
LINE
  5
136
100
AcDbEntity
  8
0
370
              25
  6
Continuous
 62
               7
100
AcDbLine
 10
150.03646502976903
 20
128.0596591668
 30
0.0
 11
150.07332491461904
 21
128.0596591668
 31
0.0
  0
LINE
  5
137
100
AcDbEntity
  8
0
370
              25
  6
Continuous
 62
               7
100
AcDbLine
 10
189.88345342461901
 20
127.55966560409999
 30
0.0
 11
189.88345342461901
 21
85.0846804814
 31
0.0
  0
LINE
  5
138
100
AcDbEntity
  8
0
370
              25
  6
Continuous
 62
               7
100
AcDbLine
 10
189.92031330951903
 20
83.884660168149992
 30
0.0
 11
189.92031330951903
 21
127.55966560409999
 31
0.0
  0
SPLINE
  5
139
100
AcDbEntity
  8
0
370
              25
  6
Continuous
 62
               7
100
AcDbSpline
210
0.0
220
0.0
230
1.0
 70
               8
 71
               2
 72
              22
 73
              19
 74
               0
 42
0.000001
 43
0.000001
 40
0.0
 40
0.0
 40
0.0
 40
0.0252307900239514
 40
0.0252307900239514
 40
0.2347443397835461
 40
0.2347443397835461
 40
0.3677629128132489
 40
0.3677629128132489
 40
0.4975558747527714
 40
0.4975558747527714
 40
0.6635295069780685
 40
0.6635295069780685
 40
0.8367069930522432
 40
0.8367069930522432
 40
0.9569524461689466
 40
0.9569524461689466
 40
0.9995595949226515
 40
0.9995595949226515
 40
1.0
 40
1.0
 40
1.0
 10
189.92031290869903
 20
83.884667845199999
 30
0.0
 10
189.92031290869903
 20
83.842999052737213
 30
0.0
 10
189.92031290869903
 20
83.801330260274426
 30
0.0
 10
189.92066828915938
 20
83.374253282011836
 30
0.0
 10
189.92191144040424
 20
83.109307090148135
 30
0.0
 10
189.92315459164911
 20
82.844360898284435
 30
0.0
 10
189.9243574586659
 20
82.669952174981347
 30
0.0
 10
189.92556032568274
 20
82.495543451678259
 30
0.0
 10
189.92793315831966
 20
82.241259618513908
 30
0.0
 10
189.93030599095658
 20
81.986975785349543
 30
0.0
 10
189.93484830606343
 20
81.693091727143909
 30
0.0
 10
189.9393906211703
 20
81.399207668938274
 30
0.0
 10
189.94644240972968
 20
81.121205550544971
 30
0.0
 10
189.95349419828909
 20
80.843203432151668
 30
0.0
 10
189.96126246060115
 20
80.724343269313692
 30
0.0
 10
189.9690307229132
 20
80.605483106475731
 30
0.0
 10
189.97645995991553
 20
80.584667845199988
 30
0.0
 10
189.97718729139228
 20
80.584667845199988
 30
0.0
 10
189.97791462286904
 20
80.584667845199988
 30
0.0
  0
LINE
  5
13A
100
AcDbEntity
  8
0
370
              25
  6
Continuous
 62
               7
100
AcDbLine
 10
189.978388722619
 20
80.584678812449994
 30
0.0
 11
189.977913748069
 21
80.584678812449994
 31
0.0
  0
LINE
  5
13B
100
AcDbEntity
  8
0
370
              25
  6
Continuous
 62
               7
100
AcDbLine
 10
189.978388722619
 20
80.584678812449994
 30
0.0
 11
189.978388722619
 21
79.834673567249993
 31
0.0
  0
LINE
  5
13C
100
AcDbEntity
  8
0
370
              25
  6
Continuous
 62
               7
100
AcDbLine
 10
189.97335958071903
 20
79.834673567249993
 30
0.0
 11
189.978388722619
 21
79.834673567249993
 31
0.0
  0
LINE
  5
13D
100
AcDbEntity
  8
0
370
              25
  6
Continuous
 62
               7
100
AcDbLine
 10
189.92031330951903
 20
127.55966560409999
 30
0.0
 11
189.88345342461901
 21
127.55966560409999
 31
0.0
  0
LINE
  5
13E
100
AcDbEntity
  8
0
370
              25
  6
Continuous
 62
               7
100
AcDbLine
 10
149.97838961666901
 20
80.584678812449994
 30
0.0
 11
149.97886459116901
 21
80.584678812449994
 31
0.0
  0
SPLINE
  5
13F
100
AcDbEntity
  8
0
370
              25
  6
Continuous
 62
               7
100
AcDbSpline
210
0.0
220
0.0
230
1.0
 70
               8
 71
               2
 72
              22
 73
              19
 74
               0
 42
0.000001
 43
0.000001
 40
0.0
 40
0.0
 40
0.0
 40
0.000440391371245
 40
0.000440391371245
 40
0.0251467916887965
 40
0.0251467916887965
 40
0.1297371640936128
 40
0.1297371640936128
 40
0.2529995791139048
 40
0.2529995791139048
 40
0.3589875839905116
 40
0.3589875839905116
 40
0.5284578757756973
 40
0.5284578757756973
 40
0.7384781689419599
 40
0.7384781689419599
 40
0.9747699951979476
 40
0.9747699951979476
 40
1.0
 40
1.0
 40
1.0
 10
149.97886371641903
 20
80.584667845199988
 30
0.0
 10
149.97959104789575
 20
80.584667845199988
 30
0.0
 10
149.98031837937248
 20
80.584667845199988
 30
0.0
 10
149.9847707341533
 20
80.597492834537249
 30
0.0
 10
149.99257392399676
 20
80.665273152514374
 30
0.0
 10
150.00037711384024
 20
80.733053470491484
 30
0.0
 10
150.00747051857587
 20
81.010317172701221
 30
0.0
 10
150.01456392331147
 20
81.287580874910958
 30
0.0
 10
150.01711481762115
 20
81.417351979501262
 30
0.0
 10
150.01966571193083
 20
81.547123084091567
 30
0.0
 10
150.02307385074207
 20
81.767391377634908
 30
0.0
 10
150.0264819895533
 20
81.987659671178235
 30
0.0
 10
150.02963921826017
 20
82.327131315765854
 30
0.0
 10
150.03279644696707
 20
82.666602960353472
 30
0.0
 10
150.03444955662249
 20
83.020834701734259
 30
0.0
 10
150.03610266627791
 20
83.375066443115045
 30
0.0
 10
150.036465430589
 20
83.801330260274426
 30
0.0
 10
150.036465430589
 20
83.842999052737213
 30
0.0
 10
150.036465430589
 20
83.884667845199999
 30
0.0
  0
LINE
  5
140
100
AcDbEntity
  8
0
370
              25
  6
Continuous
 62
               7
100
AcDbLine
 10
150.03646502976903
 20
83.884660168149992
 30
0.0
 11
150.03646502976903
 21
127.55966560409999
 31
0.0
  0
LINE
  5
141
100
AcDbEntity
  8
0
370
              25
  6
Continuous
 62
               7
100
AcDbLine
 10
150.07332491461904
 20
85.0846804814
 30
0.0
 11
150.07332491461904
 21
127.55966560409999
 31
0.0
  0
LINE
  5
142
100
AcDbEntity
  8
0
370
              25
  6
Continuous
 62
               7
100
AcDbLine
 10
149.97838961666901
 20
79.834673567249993
 30
0.0
 11
149.98341875856903
 21
79.834673567249993
 31
0.0
  0
LINE
  5
143
100
AcDbEntity
  8
0
370
              25
  6
Continuous
 62
               7
100
AcDbLine
 10
149.97838961666901
 20
80.584678812449994
 30
0.0
 11
149.97838961666901
 21
79.834673567249993
 31
0.0
  0
LINE
  5
144
100
AcDbEntity
  8
0
370
              25
  6
Continuous
 62
               7
100
AcDbLine
 10
150.03646502976903
 20
127.55966560409999
 30
0.0
 11
150.07332491461904
 21
127.55966560409999
 31
0.0
  0
LINE
  5
145
100
AcDbEntity
  8
0
370
              25
  6
Continuous
 62
               7
100
AcDbLine
 10
189.77489660271902
 20
127.55966560409999
 30
0.0
 11
189.88345342461901
 21
127.55966560409999
 31
0.0
  0
LINE
  5
146
100
AcDbEntity
  8
0
370
              25
  6
Continuous
 62
               7
100
AcDbLine
 10
150.07332491461904
 20
127.55966560409999
 30
0.0
 11
150.18188173656901
 21
127.55966560409999
 31
0.0
  0
LINE
  5
147
100
AcDbEntity
  8
0
370
              25
  6
Continuous
 62
               7
100
AcDbLine
 10
150.18188173656901
 20
128.0596591668
 30
0.0
 11
150.07332491461904
 21
128.0596591668
 31
0.0
  0
LINE
  5
148
100
AcDbEntity
  8
0
370
              25
  6
Continuous
 62
               7
100
AcDbLine
 10
189.88345342461901
 20
128.0596591668
 30
0.0
 11
189.77489660271902
 21
128.0596591668
 31
0.0
  0
LINE
  5
149
100
AcDbEntity
  8
0
370
              25
  6
Continuous
 62
               7
100
AcDbLine
 10
150.22330137676903
 20
128.0596591668
 30
0.0
 11
150.22330137676903
 21
127.55966560409999
 31
0.0
  0
LINE
  5
14A
100
AcDbEntity
  8
0
370
              25
  6
Continuous
 62
               7
100
AcDbLine
 10
189.73347696251903
 20
128.0596591668
 30
0.0
 11
189.73347696251903
 21
127.55966560409999
 31
0.0
  0
LINE
  5
14B
100
AcDbEntity
  8
0
370
              25
  6
Continuous
 62
               7
100
AcDbLine
 10
150.18648805801899
 20
128.0596591668
 30
0.0
 11
150.18648805801899
 21
127.55966560409999
 31
0.0
  0
LINE
  5
14C
100
AcDbEntity
  8
0
370
              25
  6
Continuous
 62
               7
100
AcDbLine
 10
189.77029028121902
 20
128.0596591668
 30
0.0
 11
189.77029028121902
 21
127.55966560409999
 31
0.0
  0
SPLINE
  5
14D
100
AcDbEntity
  8
0
370
              25
  6
Continuous
 62
               7
100
AcDbSpline
210
0.0
220
0.0
230
1.0
 70
               8
 71
               2
 72
              24
 73
              21
 74
               0
 42
0.000001
 43
0.000001
 40
0.0
 40
0.0
 40
0.0
 40
0.0074997071640853
 40
0.0074997071640853
 40
0.1325366868324924
 40
0.1325366868324924
 40
0.2314918182682207
 40
0.2314918182682207
 40
0.3254189629246696
 40
0.3254189629246696
 40
0.4473670191491906
 40
0.4473670191491906
 40
0.5878199106713288
 40
0.5878199106713288
 40
0.7261772755388662
 40
0.7261772755388662
 40
0.8593529882087247
 40
0.8593529882087247
 40
0.9924980076562945
 40
0.9924980076562945
 40
1.0
 40
1.0
 40
1.0
 10
189.97838916964466
 20
166.83466784519999
 30
0.0
 10
189.97838916964466
 20
166.83614098432744
 30
0.0
 10
189.97838916964466
 20
166.8376141234549
 30
0.0
 10
189.97784462148348
 20
166.86451045897948
 30
0.0
 10
189.97299147449309
 20
166.88634721843704
 30
0.0
 10
189.96813832750274
 20
166.90818397789457
 30
0.0
 10
189.9620469982392
 20
166.92360366670971
 30
0.0
 10
189.95595566897566
 20
166.93902335552482
 30
0.0
 10
189.94650540483261
 20
166.95704182821447
 30
0.0
 10
189.93705514068958
 20
166.97506030090409
 30
0.0
 10
189.9191333420188
 20
166.99623149315318
 30
0.0
 10
189.90121154334804
 20
167.01740268540223
 30
0.0
 10
189.87913748783851
 20
167.03405693999227
 30
0.0
 10
189.857063432329
 20
167.05071119458228
 30
0.0
 10
189.83258415878944
 20
167.06187605343624
 30
0.0
 10
189.80810488524992
 20
167.07304091229017
 30
0.0
 10
189.78311424293338
 20
167.07856671346866
 30
0.0
 10
189.75812360061684
 20
167.08409251464718
 30
0.0
 10
189.73126017001232
 20
167.0846678451968
 30
0.0
 10
189.72978658201566
 20
167.0846678451968
 30
0.0
 10
189.72831299401901
 20
167.0846678451968
 30
0.0
  0
LINE
  5
14E
100
AcDbEntity
  8
0
370
              25
  6
Continuous
 62
               7
100
AcDbLine
 10
189.72339632696901
 20
167.08466784519999
 30
0.0
 11
189.728313710169
 21
167.08466784519999
 31
0.0
  0
SPLINE
  5
14F
100
AcDbEntity
  8
0
370
              25
  6
Continuous
 62
               7
100
AcDbSpline
210
0.0
220
0.0
230
1.0
 70
               8
 71
               2
 72
              24
 73
              21
 74
               0
 42
0.000001
 43
0.000001
 40
0.0
 40
0.0
 40
0.0
 40
0.0040601370674166
 40
0.0040601370674166
 40
0.1155620610355924
 40
0.1155620610355924
 40
0.2416566881011764
 40
0.2416566881011764
 40
0.3721150672642657
 40
0.3721150672642657
 40
0.4960211799793668
 40
0.4960211799793668
 40
0.6239712323786986
 40
0.6239712323786986
 40
0.7585691406602346
 40
0.7585691406602346
 40
0.8845899602747025
 40
0.8845899602747025
 40
0.9959410996897329
 40
0.9959410996897329
 40
1.0
 40
1.0
 40
1.0
 10
150.22846534526914
 20
167.08466784519678
 30
0.0
 10
150.22766784519212
 20
167.08466784519678
 30
0.0
 10
150.22687034511512
 20
167.08466784519678
 30
0.0
 10
150.20602204968748
 20
167.08441860184882
 30
0.0
 10
150.18330813580602
 20
167.08058242673545
 30
0.0
 10
150.16059422192458
 20
167.07674625162207
 30
0.0
 10
150.13581801642368
 20
167.06686571949774
 30
0.0
 10
150.11104181092276
 20
167.05698518737341
 30
0.0
 10
150.09050059468686
 20
167.04316512262682
 30
0.0
 10
150.06995937845096
 20
167.02934505788022
 30
0.0
 10
150.05273148894003
 20
167.01257678240987
 30
0.0
 10
150.03550359942909
 20
166.99580850693951
 30
0.0
 10
150.02077515643708
 20
166.97390929473593
 30
0.0
 10
150.00604671344504
 20
166.95201008253235
 30
0.0
 10
149.9961784498432
 20
166.9272301483652
 30
0.0
 10
149.98631018624133
 20
166.90245021419798
 30
0.0
 10
149.98247747588999
 20
166.87976503872892
 30
0.0
 10
149.9786447655386
 20
166.85707986325986
 30
0.0
 10
149.97838916964338
 20
166.83626235950149
 30
0.0
 10
149.97838916964338
 20
166.83546510235072
 30
0.0
 10
149.97838916964338
 20
166.83466784519999
 30
0.0
  0
LINE
  5
150
100
AcDbEntity
  8
0
370
              25
  6
Continuous
 62
               7
100
AcDbLine
 10
150.228464629119
 20
167.08466784519999
 30
0.0
 11
150.233382012319
 21
167.08466784519999
 31
0.0
  0
SPLINE
  5
151
100
AcDbEntity
  8
0
370
              25
  6
Continuous
 62
               7
100
AcDbSpline
210
0.0
220
0.0
230
1.0
 70
               8
 71
               2
 72
              24
 73
              21
 74
               0
 42
0.000001
 43
0.000001
 40
0.0
 40
0.0
 40
0.0
 40
0.0074997071640497
 40
0.0074997071640497
 40
0.132536686832441
 40
0.132536686832441
 40
0.2314918182682036
 40
0.2314918182682036
 40
0.3254189629246951
 40
0.3254189629246951
 40
0.4473670191491911
 40
0.4473670191491911
 40
0.5878199106713329
 40
0.5878199106713329
 40
0.7261772755388521
 40
0.7261772755388521
 40
0.8593529882086757
 40
0.8593529882086757
 40
0.9924980076562937
 40
0.9924980076562937
 40
1.0
 40
1.0
 40
1.0
 10
149.97838916964338
 20
79.834667845199988
 30
0.0
 10
149.97838916964338
 20
79.833194706072533
 30
0.0
 10
149.97838916964338
 20
79.831721566945092
 30
0.0
 10
149.97893371780467
 20
79.804825231420509
 30
0.0
 10
149.98378686479498
 20
79.782988471962966
 30
0.0
 10
149.98864001178526
 20
79.761151712505409
 30
0.0
 10
149.99473134104886
 20
79.74573202369028
 30
0.0
 10
150.00082267031246
 20
79.730312334875151
 30
0.0
 10
150.01027293445543
 20
79.712293862185504
 30
0.0
 10
150.01972319859846
 20
79.694275389495871
 30
0.0
 10
150.03764499726924
 20
79.673104197246815
 30
0.0
 10
150.05556679594005
 20
79.651933004997758
 30
0.0
 10
150.07764085144953
 20
79.635278750407721
 30
0.0
 10
150.09971490695904
 20
79.618624495817684
 30
0.0
 10
150.12419418049859
 20
79.607459636963767
 30
0.0
 10
150.14867345403815
 20
79.596294778109836
 30
0.0
 10
150.17366409635466
 20
79.590768976931315
 30
0.0
 10
150.19865473867117
 20
79.585243175752794
 30
0.0
 10
150.22551816927572
 20
79.584667845203199
 30
0.0
 10
150.22699175727237
 20
79.584667845203199
 30
0.0
 10
150.228465345269
 20
79.584667845203199
 30
0.0
  0
LINE
  5
152
100
AcDbEntity
  8
0
370
              25
  6
Continuous
 62
               7
100
AcDbLine
 10
150.233382012319
 20
79.584661884749991
 30
0.0
 11
150.228464629119
 21
79.584661884749991
 31
0.0
  0
SPLINE
  5
153
100
AcDbEntity
  8
0
370
              25
  6
Continuous
 62
               7
100
AcDbSpline
210
0.0
220
0.0
230
1.0
 70
               8
 71
               2
 72
              24
 73
              21
 74
               0
 42
0.000001
 43
0.000001
 40
0.0
 40
0.0
 40
0.0
 40
0.0075019927554424
 40
0.0075019927554424
 40
0.1325758840067187
 40
0.1325758840067187
 40
0.2315562701742784
 40
0.2315562701742784
 40
0.3255018229319442
 40
0.3255018229319442
 40
0.4474625695025766
 40
0.4474625695025766
 40
0.5879131188127463
 40
0.5879131188127463
 40
0.7262507132296086
 40
0.7262507132296086
 40
0.8593944300254665
 40
0.8593944300254665
 40
0.9925002924243396
 40
0.9925002924243396
 40
1.0
 40
1.0
 40
1.0
 10
189.72831299401901
 20
79.584667845203185
 30
0.0
 10
189.72978658201566
 20
79.584667845203185
 30
0.0
 10
189.73126017001232
 20
79.584667845203185
 30
0.0
 10
189.75816470091803
 20
79.585212227489762
 30
0.0
 10
189.78000811409112
 20
79.590063896164452
 30
0.0
 10
189.80185152726415
 20
79.594915564839141
 30
0.0
 10
189.81727591449726
 20
79.601005038624749
 30
0.0
 10
189.83270030173037
 20
79.607094512410342
 30
0.0
 10
189.85072426469395
 20
79.616541897911219
 30
0.0
 10
189.86874822765753
 20
79.625989283412096
 30
0.0
 10
189.88992587082214
 20
79.643905622929168
 30
0.0
 10
189.91110351398675
 20
79.661821962446254
 30
0.0
 10
189.92776284317
 20
79.683889293984322
 30
0.0
 10
189.94442217235331
 20
79.705956625522376
 30
0.0
 10
189.95559043316783
 20
79.730428442437756
 30
0.0
 10
189.96675869398234
 20
79.75490025935315
 30
0.0
 10
189.97228617888635
 20
79.779883289277635
 30
0.0
 10
189.97781366379036
 20
79.804866319202119
 30
0.0
 10
189.97838916964466
 20
79.831721566945092
 30
0.0
 10
189.97838916964466
 20
79.833194706072533
 30
0.0
 10
189.97838916964466
 20
79.834667845199988
 30
0.0
  0
LINE
  5
154
100
AcDbEntity
  8
0
370
              25
  6
Continuous
 62
               7
100
AcDbLine
 10
189.728313710169
 20
79.584661884749991
 30
0.0
 11
189.72339632696901
 21
79.584661884749991
 31
0.0
  0
LINE
  5
155
100
AcDbEntity
  8
0
370
              25
  6
Continuous
 62
               7
100
AcDbLine
 10
173.13016590436902
 20
79.511437578649989
 30
0.0
 11
166.82661243491901
 21
79.511437578649989
 31
0.0
  0
ARC
  5
156
100
AcDbEntity
  8
0
370
              25
  6
Continuous
 62
               7
100
AcDbCircle
 10
166.64983577906901
 20
79.334667845199988
 30
0.0
 40
0.2499999999999819
100
AcDbArc
 50
45.0
 51
90.0
  0
ARC
  5
157
100
AcDbEntity
  8
0
370
              25
  6
Continuous
 62
               7
100
AcDbCircle
 10
173.306942560219
 20
79.334667845199988
 30
0.0
 40
0.2499999999999716
100
AcDbArc
 50
90.0
 51
135.0
  0
LINE
  5
158
100
AcDbEntity
  8
0
370
              25
  6
Continuous
 62
               7
100
AcDbLine
 10
167.43016580826901
 20
78.907880945649993
 30
0.0
 11
172.526612531019
 21
78.907880945649993
 31
0.0
  0
LINE
  5
159
100
AcDbEntity
  8
0
370
              25
  6
Continuous
 62
               7
100
AcDbLine
 10
166.82661243491901
 20
79.511437578649989
 30
0.0
 11
167.43016580826901
 21
78.907880945649993
 31
0.0
  0
LINE
  5
15A
100
AcDbEntity
  8
0
370
              25
  6
Continuous
 62
               7
100
AcDbLine
 10
173.13016590436902
 20
79.511437578649989
 30
0.0
 11
172.526612531019
 21
78.907880945649993
 31
0.0
  0
LINE
  5
15B
100
AcDbEntity
  8
0
370
              25
  6
Continuous
 62
               7
100
AcDbLine
 10
172.349835864819
 20
78.834656639549991
 30
0.0
 11
167.60694247446901
 21
78.834656639549991
 31
0.0
  0
ARC
  5
15C
100
AcDbEntity
  8
0
370
              25
  6
Continuous
 62
               7
100
AcDbCircle
 10
167.60694256021901
 20
79.084667845199988
 30
0.0
 40
0.249999999999992
100
AcDbArc
 50
224.99999999999767
 51
270.0
  0
ARC
  5
15D
100
AcDbEntity
  8
0
370
              25
  6
Continuous
 62
               7
100
AcDbCircle
 10
172.349835779069
 20
79.084667845199988
 30
0.0
 40
0.25
100
AcDbArc
 50
270.0
 51
315.0
  0
ARC
  5
15E
100
AcDbEntity
  8
0
370
              25
  6
Continuous
 62
               7
100
AcDbCircle
 10
187.15785964426902
 20
83.375794107249988
 30
0.0
 40
37.253097937395481
100
AcDbArc
 50
179.1019500168
 51
184.03497843540006
  0
ARC
  5
15F
100
AcDbEntity
  8
0
370
              25
  6
Continuous
 62
               7
100
AcDbCircle
 10
154.704384546119
 20
83.32361920324999
 30
0.0
 40
35.348779080594724
100
AcDbArc
 50
355.83205594470002
 51
1.0310156031999895
  0
SPLINE
  5
160
100
AcDbEntity
  8
0
370
              25
  6
Continuous
 62
               7
100
AcDbSpline
210
0.0
220
0.0
230
1.0
 70
               8
 71
               2
 72
              20
 73
              17
 74
               0
 42
0.000001
 43
0.000001
 40
0.0
 40
0.0
 40
0.0
 40
0.0213799871073177
 40
0.0213799871073177
 40
0.2194553644452656
 40
0.2194553644452656
 40
0.3961634275554162
 40
0.3961634275554162
 40
0.5639228676904488
 40
0.5639228676904488
 40
0.7134159226358158
 40
0.7134159226358158
 40
0.8639974155937961
 40
0.8639974155937961
 40
0.9953787648252999
 40
0.9953787648252999
 40
1.0
 40
1.0
 40
1.0
 10
190.04744052304403
 20
161.5096678452
 30
0.0
 10
190.04744052304403
 20
161.54363690290745
 30
0.0
 10
190.04744052304403
 20
161.5776059606149
 30
0.0
 10
190.0469559980522
 20
161.92301399542447
 30
0.0
 10
190.04479663856878
 20
162.20701312676192
 30
0.0
 10
190.0426372790854
 20
162.49101225809937
 30
0.0
 10
190.03858005122461
 20
162.7684933571621
 30
0.0
 10
190.03452282336383
 20
163.04597445622483
 30
0.0
 10
190.02862814217792
 20
163.30147886157962
 30
0.0
 10
190.02273346099201
 20
163.55698326693442
 30
0.0
 10
190.01528338517016
 20
163.77632448601722
 30
0.0
 10
190.00783330934831
 20
163.99566570510001
 30
0.0
 10
189.99474104282262
 20
164.25437040317755
 30
0.0
 10
189.98164877629694
 20
164.51307510125505
 30
0.0
 10
189.9604894547916
 20
164.67027599257028
 30
0.0
 10
189.95933056390356
 20
164.67752629181601
 30
0.0
 10
189.9581716730155
 20
164.68477659106173
 30
0.0
  0
SPLINE
  5
161
100
AcDbEntity
  8
0
370
              25
  6
Continuous
 62
               7
100
AcDbSpline
210
0.0
220
0.0
230
1.0
 70
               8
 71
               2
 72
              20
 73
              17
 74
               0
 42
0.000001
 43
0.000001
 40
0.0
 40
0.0
 40
0.0
 40
0.0046212249279576
 40
0.0046212249279576
 40
0.136062955246294
 40
0.136062955246294
 40
0.2867329498220864
 40
0.2867329498220864
 40
0.436227539488504
 40
0.436227539488504
 40
0.6039571671672491
 40
0.6039571671672491
 40
0.7806414379322212
 40
0.7806414379322212
 40
0.9786200602976364
 40
0.9786200602976364
 40
1.0
 40
1.0
 40
1.0
 10
149.99860666622399
 20
164.68477659107094
 30
0.0
 10
149.99744777533593
 20
164.67752629182561
 30
0.0
 10
149.99628888444789
 20
164.67027599258026
 30
0.0
 10
149.97499320564691
 20
164.51312387710317
 30
0.0
 10
149.96196065055511
 20
164.25418814006099
 30
0.0
 10
149.94892809546332
 20
163.99525240301881
 30
0.0
 10
149.94147924630008
 20
163.77585680908979
 30
0.0
 10
149.93403039713684
 20
163.55646121516077
 30
0.0
 10
149.92814094119802
 20
163.301005072441
 30
0.0
 10
149.92225148525921
 20
163.04554892972124
 30
0.0
 10
149.91819631600515
 20
162.76811299350831
 30
0.0
 10
149.91414114675109
 20
162.49067705729539
 30
0.0
 10
149.91198538447651
 20
162.20670706708864
 30
0.0
 10
149.90982962220193
 20
161.9227370768819
 30
0.0
 10
149.90933781619401
 20
161.57760596061547
 30
0.0
 10
149.90933781619401
 20
161.54363690290774
 30
0.0
 10
149.90933781619401
 20
161.5096678452
 30
0.0
  0
LINE
  5
162
100
AcDbEntity
  8
0
370
              25
  6
Continuous
 62
               7
100
AcDbLine
 10
190.04744070356901
 20
83.959672613599992
 30
0.0
 11
190.04744070356901
 21
161.50966660544998
 31
0.0
  0
LINE
  5
163
100
AcDbEntity
  8
0
370
              25
  6
Continuous
 62
               7
100
AcDbLine
 10
149.909337635719
 20
161.50966660544998
 30
0.0
 11
149.909337635719
 21
83.959672613599992
 31
0.0
  0
SPLINE
  5
164
100
AcDbEntity
  8
0
370
              25
  6
Continuous
 62
               8
100
AcDbSpline
210
0.0
220
0.0
230
1.0
 70
               8
 71
               2
 72
              22
 73
              19
 74
               0
 42
0.000001
 43
0.000001
 40
0.0
 40
0.0
 40
0.0
 40
0.0018203481781234
 40
0.0018203481781234
 40
0.1038005091077043
 40
0.1038005091077043
 40
0.2299608658245353
 40
0.2299608658245353
 40
0.3788658865078617
 40
0.3788658865078617
 40
0.5165500178464995
 40
0.5165500178464995
 40
0.6404996477172481
 40
0.6404996477172481
 40
0.7913758470976079
 40
0.7913758470976079
 40
0.9980677510085219
 40
0.9980677510085219
 40
1.0
 40
1.0
 40
1.0
 10
160.13061034268839
 20
127.4977661804833
 30
0.0
 10
160.13055444989052
 20
127.49767415319693
 30
0.0
 10
160.13049855709269
 20
127.49758212591054
 30
0.0
 10
160.12746768906618
 20
127.49262167302598
 30
0.0
 10
160.12428841345678
 20
127.48723954225126
 30
0.0
 10
160.12110913784738
 20
127.48185741147654
 30
0.0
 10
160.11714137471381
 20
127.47414128197762
 30
0.0
 10
160.11317361158024
 20
127.46642515247871
 30
0.0
 10
160.11040318476742
 20
127.45788920361704
 30
0.0
 10
160.1076327579546
 20
127.44935325475539
 30
0.0
 10
160.10602817776206
 20
127.44220918856814
 30
0.0
 10
160.10442359756951
 20
127.43506512238091
 30
0.0
 10
160.10334639744531
 20
127.42779871458193
 30
0.0
 10
160.10226919732111
 20
127.42053230678296
 30
0.0
 10
160.10134460831301
 20
127.4100669086825
 30
0.0
 10
160.10042001930498
 20
127.39960151058202
 30
0.0
 10
160.09976479306158
 20
127.38566949360234
 30
0.0
 10
160.09975881244259
 20
127.38555536050319
 30
0.0
 10
160.09975283182362
 20
127.38544122740404
 30
0.0
  0
SPLINE
  5
165
100
AcDbEntity
  8
0
370
              25
  6
Continuous
 62
               8
100
AcDbSpline
210
0.0
220
0.0
230
1.0
 70
               8
 71
               2
 72
              14
 73
              11
 74
               0
 42
0.000001
 43
0.000001
 40
0.0
 40
0.0
 40
0.0
 40
0.0000356009960912
 40
0.0000356009960912
 40
0.3514086477553917
 40
0.3514086477553917
 40
0.6855300286505979
 40
0.6855300286505979
 40
0.9887792699693647
 40
0.9887792699693647
 40
1.0
 40
1.0
 40
1.0
 10
165.63412745258907
 20
87.731484337297815
 30
0.0
 10
165.63411042896959
 20
87.731484844657317
 30
0.0
 10
165.63409340535009
 20
87.731485352016804
 30
0.0
 10
165.46705273272465
 20
87.736589384931946
 30
0.0
 10
165.2982043281151
 20
87.745401989353823
 30
0.0
 10
165.12935592350553
 20
87.7542145937757
 30
0.0
 10
164.979070856926
 20
87.764044760404431
 30
0.0
 10
164.82878579034644
 20
87.773874927033148
 30
0.0
 10
164.68957517034363
 20
87.78341411453701
 30
0.0
 10
164.68421973510706
 20
87.783779577746969
 30
0.0
 10
164.6788642998705
 20
87.784145040956929
 30
0.0
  0
SPLINE
  5
166
100
AcDbEntity
  8
0
370
              25
  6
Continuous
 62
               8
100
AcDbSpline
210
0.0
220
0.0
230
1.0
 70
               8
 71
               2
 72
              14
 73
              11
 74
               0
 42
0.000001
 43
0.000001
 40
0.0
 40
0.0
 40
0.0
 40
0.0112129832852119
 40
0.0112129832852119
 40
0.3479636679169734
 40
0.3479636679169734
 40
0.6823400770040502
 40
0.6823400770040502
 40
0.9999556815700352
 40
0.9999556815700352
 40
1.0
 40
1.0
 40
1.0
 10
175.27790658882952
 20
87.784145040956872
 30
0.0
 10
175.27255037203503
 20
87.783785376901534
 30
0.0
 10
175.26719415524056
 20
87.783425712846167
 30
0.0
 10
175.1065951029297
 20
87.77253780673847
 30
0.0
 10
174.94544701416598
 20
87.762265064680292
 30
0.0
 10
174.78429892540228
 20
87.751992322622101
 30
0.0
 10
174.62579946574147
 20
87.744062127121168
 30
0.0
 10
174.46730000608062
 20
87.736131931620221
 30
0.0
 10
174.32194637981127
 20
87.731455887826897
 30
0.0
 10
174.321925172899
 20
87.731455211401169
 30
0.0
 10
174.32190396598676
 20
87.731454534975427
 30
0.0
  0
SPLINE
  5
167
100
AcDbEntity
  8
0
370
              25
  6
Continuous
 62
               8
100
AcDbSpline
210
0.0
220
0.0
230
1.0
 70
               8
 71
               2
 72
              22
 73
              19
 74
               0
 42
0.000001
 43
0.000001
 40
0.0
 40
0.0
 40
0.0
 40
0.0018202825202183
 40
0.0018202825202183
 40
0.1037968604780086
 40
0.1037968604780086
 40
0.2299423903666741
 40
0.2299423903666741
 40
0.3787995851086145
 40
0.3787995851086145
 40
0.5164023743111978
 40
0.5164023743111978
 40
0.6402976515236549
 40
0.6402976515236549
 40
0.7912238253640618
 40
0.7912238253640618
 40
0.9980662540801484
 40
0.9980662540801484
 40
1.0
 40
1.0
 40
1.0
 10
179.82617079056001
 20
127.4977661804833
 30
0.0
 10
179.82622666903345
 20
127.49767414977288
 30
0.0
 10
179.82628254750688
 20
127.49758211906246
 30
0.0
 10
179.82931262583276
 20
127.49262147260427
 30
0.0
 10
179.83249115053655
 20
127.48723918606399
 30
0.0
 10
179.83566967524035
 20
127.48185689952371
 30
0.0
 10
179.8396363548282
 20
127.47414201271687
 30
0.0
 10
179.84360303441611
 20
127.46642712591004
 30
0.0
 10
179.84637359754876
 20
127.45789570718021
 30
0.0
 10
179.84914416068142
 20
127.44936428845037
 30
0.0
 10
179.85074920593027
 20
127.44222593063601
 30
0.0
 10
179.85235425117912
 20
127.43508757282166
 30
0.0
 10
179.85343246037144
 20
127.4278223657155
 30
0.0
 10
179.85451066956381
 20
127.42055715860934
 30
0.0
 10
179.85543548631355
 20
127.41008488025739
 30
0.0
 10
179.85636030306333
 20
127.39961260190543
 30
0.0
 10
179.85701357322466
 20
127.38566967101026
 30
0.0
 10
179.85701954034084
 20
127.38555544920715
 30
0.0
 10
179.85702550745702
 20
127.38544122740404
 30
0.0
  0
LINE
  5
168
100
AcDbEntity
  8
0
370
              25
  6
Continuous
 62
               8
100
AcDbLine
 10
169.97838916107378
 20
87.731812162844079
 30
0.0
 11
169.97838915028106
 21
87.798718376604455
 31
0.0
  0
SPLINE
  5
169
100
AcDbEntity
  8
0
370
              25
  6
Continuous
 62
               8
100
AcDbSpline
210
0.0
220
0.0
230
1.0
 70
               8
 71
               2
 72
              28
 73
              25
 74
               0
 42
0.000001
 43
0.000001
 40
0.0
 40
0.0
 40
0.0
 40
0.00306352249394
 40
0.00306352249394
 40
0.1683436925267619
 40
0.1683436925267619
 40
0.3111235590734327
 40
0.3111235590734327
 40
0.4619325376361396
 40
0.4619325376361396
 40
0.600682251958603
 40
0.600682251958603
 40
0.7109814996344098
 40
0.7109814996344098
 40
0.7932309914066971
 40
0.7932309914066971
 40
0.8531395271162146
 40
0.8531395271162146
 40
0.9073856962533662
 40
0.9073856962533662
 40
0.9557186127562541
 40
0.9557186127562541
 40
0.99929565947969
 40
0.99929565947969
 40
1.0
 40
1.0
 40
1.0
 10
179.63275371826387
 20
127.49621645971909
 30
0.0
 10
179.63301672809712
 20
127.49612510163084
 30
0.0
 10
179.63327973793037
 20
127.49603374354257
 30
0.0
 10
179.64963681119991
 20
127.49047902874597
 30
0.0
 10
179.66154571577522
 20
127.48586531006417
 30
0.0
 10
179.67345462035058
 20
127.48125159138237
 30
0.0
 10
179.6855000590356
 20
127.47588870543855
 30
0.0
 10
179.69754549772063
 20
127.47052581949472
 30
0.0
 10
179.7094664862702
 20
127.46265497935897
 30
0.0
 10
179.72138747481978
 20
127.45478413922322
 30
0.0
 10
179.72961744547814
 20
127.44752657695317
 30
0.0
 10
179.73784741613645
 20
127.44026901468312
 30
0.0
 10
179.74355356607396
 20
127.43315184618513
 30
0.0
 10
179.74925971601147
 20
127.42603467768711
 30
0.0
 10
179.75228152697545
 20
127.42102803010937
 30
0.0
 10
179.75530333793947
 20
127.41602138253164
 30
0.0
 10
179.75737522519617
 20
127.41141446955514
 30
0.0
 10
179.7594471124529
 20
127.40680755657864
 30
0.0
 10
179.76050096093661
 20
127.4020829774399
 30
0.0
 10
179.76155480942032
 20
127.39735839830117
 30
0.0
 10
179.76204872641358
 20
127.39343990761036
 30
0.0
 10
179.76254264340679
 20
127.38952141691955
 30
0.0
 10
179.76293036040141
 20
127.38556859820548
 30
0.0
 10
179.76293683068539
 20
127.38550491280476
 30
0.0
 10
179.76294330096937
 20
127.38544122740404
 30
0.0
  0
SPLINE
  5
16A
100
AcDbEntity
  8
0
370
              25
  6
Continuous
 62
               8
100
AcDbSpline
210
0.0
220
0.0
230
1.0
 70
               8
 71
               2
 72
              26
 73
              23
 74
               0
 42
0.000001
 43
0.000001
 40
0.0
 40
0.0
 40
0.0
 40
0.0007043722484174
 40
0.0007043722484174
 40
0.0822335634490259
 40
0.0822335634490259
 40
0.1468512625186316
 40
0.1468512625186316
 40
0.2067707987759952
 40
0.2067707987759952
 40
0.289030677405961
 40
0.289030677405961
 40
0.399348990702694
 40
0.399348990702694
 40
0.513414005663253
 40
0.513414005663253
 40
0.6399004682483593
 40
0.6399004682483593
 40
0.8071848510896307
 40
0.8071848510896307
 40
0.9969358602574723
 40
0.9969358602574723
 40
1.0
 40
1.0
 40
1.0
 10
160.19383503831125
 20
127.38544122740404
 30
0.0
 10
160.19384150822634
 20
127.38550491235915
 30
0.0
 10
160.19384797814138
 20
127.38556859731426
 30
0.0
 10
160.19446768053285
 20
127.39365217024744
 30
0.0
 10
160.19590029311124
 20
127.40023118754485
 30
0.0
 10
160.19733290568962
 20
127.40681020484226
 30
0.0
 10
160.19940786708116
 20
127.41141537857358
 30
0.0
 10
160.20148282847271
 20
127.4160205523049
 30
0.0
 10
160.20450784574331
 20
127.4210272663227
 30
0.0
 10
160.20753286301391
 20
127.42603398034049
 30
0.0
 10
160.21324145430452
 20
127.43314838479006
 30
0.0
 10
160.21895004559514
 20
127.44026278923964
 30
0.0
 10
160.22718227374276
 20
127.44752208590486
 30
0.0
 10
160.23541450189038
 20
127.4547813825701
 30
0.0
 10
160.24356904826823
 20
127.46019287424113
 30
0.0
 10
160.25172359464611
 20
127.46560436591214
 30
0.0
 10
160.26337318111871
 20
127.47184459564237
 30
0.0
 10
160.27502276759134
 20
127.4780848253726
 30
0.0
 10
160.29109427212271
 20
127.48426473209737
 30
0.0
 10
160.30716577665407
 20
127.49044463882215
 30
0.0
 10
160.32350968500458
 20
127.49603375630066
 30
0.0
 10
160.32377274094614
 20
127.49612510800991
 30
0.0
 10
160.32403579688767
 20
127.49621645971914
 30
0.0
  0
LINE
  5
16B
100
AcDbEntity
  8
0
370
              25
  6
Continuous
 62
               8
100
AcDbLine
 10
168.64718415551903
 20
78.734073801499989
 30
0.0
 11
171.30959418376904
 21
78.734073801499989
 31
0.0
  0
LINE
  5
16C
100
AcDbEntity
  8
0
370
              25
  6
Continuous
 62
               8
100
AcDbLine
 10
170.80511880581901
 20
78.297320766899986
 30
0.0
 11
169.006430255319
 21
78.297320766899986
 31
0.0
  0
LINE
  5
16D
100
AcDbEntity
  8
0
370
              25
  6
Continuous
 62
               8
100
AcDbLine
 10
170.950348083969
 20
78.297320766899986
 30
0.0
 11
170.80511880581901
 21
78.297320766899986
 31
0.0
  0
LINE
  5
16E
100
AcDbEntity
  8
0
370
              25
  6
Continuous
 62
               8
100
AcDbLine
 10
150.03646502976903
 20
83.959672613599992
 30
0.0
 11
149.909337635719
 21
83.959672613599992
 31
0.0
  0
LINE
  5
16F
100
AcDbEntity
  8
0
370
              25
  6
Continuous
 62
               8
100
AcDbLine
 10
189.92031330951903
 20
83.959672613599992
 30
0.0
 11
190.04744070356901
 21
83.959672613599992
 31
0.0
  0
LINE
  5
170
100
AcDbEntity
  8
0
370
              25
  6
Continuous
 62
               8
100
AcDbLine
 10
190.04744070356901
 20
161.50966660544998
 30
0.0
 11
189.92031330951903
 21
161.50966660544998
 31
0.0
  0
LINE
  5
171
100
AcDbEntity
  8
0
370
              25
  6
Continuous
 62
               8
100
AcDbLine
 10
150.03646502976903
 20
161.50966660544998
 30
0.0
 11
149.909337635719
 21
161.50966660544998
 31
0.0
  0
INSERT
  5
172
100
AcDbEntity
  8
寸法
100
AcDbBlockReference
  2
_D
 10
68.154545342169015
 20
73.857765184299993
 30
0.0
 41
0.5
 42
0.5
 43
0.5
  0
INSERT
  5
173
100
AcDbEntity
  8
寸法
100
AcDbBlockReference
  2
_D_1
 10
68.154545342169015
 20
73.857765184299993
 30
0.0
 41
0.5
 42
0.5
 43
0.5
  0
ARC
  5
174
100
AcDbEntity
  8
0
370
              25
  6
Continuous
 62
               7
100
AcDbCircle
 10
112.35977605541902
 20
90.961182105299997
 30
0.0
 40
2.2499999999999973
100
AcDbArc
 50
315.18514562820002
 51
358.67441434499995
  0
ARC
  5
175
100
AcDbEntity
  8
0
370
              25
  6
Continuous
 62
               7
100
AcDbCircle
 10
112.35977605541902
 20
99.107080139049998
 30
0.0
 40
2.2499999999999938
100
AcDbArc
 50
1.3255856550000256
 51
48.189685104199903
  0
LINE
  5
176
100
AcDbEntity
  8
0
370
              25
  6
Continuous
 62
               7
100
AcDbLine
 10
114.60977726541901
 20
99.131766720249999
 30
0.0
 11
114.60917376836902
 21
99.131766720249999
 31
0.0
  0
LINE
  5
177
100
AcDbEntity
  8
0
370
              25
  6
Continuous
 62
               7
100
AcDbLine
 10
114.60917376836902
 20
90.931776924600001
 30
0.0
 11
114.60977726541901
 21
90.931776924600001
 31
0.0
  0
LINE
  5
178
100
AcDbEntity
  8
0
370
              25
  6
Continuous
 62
               7
100
AcDbLine
 10
106.54430770241902
 20
159.50966255229997
 30
0.0
 11
106.56175696216901
 21
159.50966255229997
 31
0.0
  0
LINE
  5
179
100
AcDbEntity
  8
0
370
              25
  6
Continuous
 62
               7
100
AcDbLine
 10
106.56175696216901
 20
163.50967065854999
 30
0.0
 11
106.54430770241902
 21
163.50967065854999
 31
0.0
  0
LINE
  5
17A
100
AcDbEntity
  8
0
370
              25
  6
Continuous
 62
               7
100
AcDbLine
 10
106.54430770241902
 20
83.1596590714
 30
0.0
 11
106.56175696216901
 21
83.1596590714
 31
0.0
  0
LINE
  5
17B
100
AcDbEntity
  8
0
370
              25
  6
Continuous
 62
               7
100
AcDbLine
 10
106.56175696216901
 20
87.159667177649993
 30
0.0
 11
106.54430770241902
 21
87.159667177649993
 31
0.0
  0
LINE
  5
17C
100
AcDbEntity
  8
0
370
              25
  6
Continuous
 62
               7
100
AcDbLine
 10
106.54430770241902
 20
87.159667177649993
 30
0.0
 11
106.53906994421902
 21
87.159667177649993
 31
0.0
  0
LINE
  5
17D
100
AcDbEntity
  8
0
370
              25
  6
Continuous
 62
               7
100
AcDbLine
 10
106.53906994421902
 20
83.1596590714
 30
0.0
 11
106.54430770241902
 21
83.1596590714
 31
0.0
  0
LINE
  5
17E
100
AcDbEntity
  8
0
370
              25
  6
Continuous
 62
               7
100
AcDbLine
 10
106.54430770241902
 20
163.50967065854999
 30
0.0
 11
106.53906994421902
 21
163.50967065854999
 31
0.0
  0
LINE
  5
17F
100
AcDbEntity
  8
0
370
              25
  6
Continuous
 62
               7
100
AcDbLine
 10
106.53906994421902
 20
159.50966255229997
 30
0.0
 11
106.54430770241902
 21
159.50966255229997
 31
0.0
  0
LINE
  5
180
100
AcDbEntity
  8
0
370
              25
  6
Continuous
 62
               7
100
AcDbLine
 10
116.38662152846902
 20
87.911728783099989
 30
0.0
 11
116.32356353961902
 21
87.913755340999984
 31
0.0
  0
LINE
  5
181
100
AcDbEntity
  8
0
370
              25
  6
Continuous
 62
               7
100
AcDbLine
 10
100.76977246366901
 20
78.834656639549991
 30
0.0
 11
100.77857159931901
 21
78.734073801499989
 31
0.0
  0
LINE
  5
182
100
AcDbEntity
  8
0
370
              25
  6
Continuous
 62
               7
100
AcDbLine
 10
103.44098069631902
 20
78.734073801499989
 30
0.0
 11
103.44977983196901
 21
78.834656639549991
 31
0.0
  0
ARC
  5
183
100
AcDbEntity
  8
0
370
              25
  6
Continuous
 62
               7
100
AcDbCircle
 10
101.27666840956901
 20
78.777666517949996
 30
0.0
 40
0.5000000000000487
100
AcDbArc
 50
185.00000000000094
 51
253.87686662900035
  0
ARC
  5
184
100
AcDbEntity
  8
0
370
              25
  6
Continuous
 62
               7
100
AcDbCircle
 10
102.94288370131902
 20
78.777666517949996
 30
0.0
 40
0.4999999999999928
100
AcDbArc
 50
286.12313337099988
 51
355.00000000000011
  0
ARC
  5
185
100
AcDbEntity
  8
0
370
              25
  6
Continuous
 62
               7
100
AcDbCircle
 10
102.10977605541902
 20
81.659667845199991
 30
0.0
 40
3.500000000000024
100
AcDbArc
 50
276.2385816483
 51
286.12313337100005
  0
ARC
  5
186
100
AcDbEntity
  8
0
370
              25
  6
Continuous
 62
               7
100
AcDbCircle
 10
102.10977605541902
 20
81.659667845199991
 30
0.0
 40
3.5000000000000262
100
AcDbArc
 50
253.87686662900001
 51
263.76141835169989
  0
SPLINE
  5
187
100
AcDbEntity
  8
0
370
              25
  6
Continuous
 62
               7
100
AcDbSpline
210
0.0
220
0.0
230
1.0
 70
               8
 71
               2
 72
              28
 73
              25
 74
               0
 42
0.000001
 43
0.000001
 40
0.0
 40
0.0
 40
0.0
 40
0.0023331853480494
 40
0.0023331853480494
 40
0.0728570997282307
 40
0.0728570997282307
 40
0.1642239668188803
 40
0.1642239668188803
 40
0.2967640147936405
 40
0.2967640147936405
 40
0.4369194226769302
 40
0.4369194226769302
 40
0.5609298439841221
 40
0.5609298439841221
 40
0.6787946391376891
 40
0.6787946391376891
 40
0.784628131247892
 40
0.784628131247892
 40
0.8762566125174774
 40
0.8762566125174774
 40
0.947345658205569
 40
0.947345658205569
 40
0.9984211759165534
 40
0.9984211759165534
 40
1.0
 40
1.0
 40
1.0
 10
118.35977741441901
 20
161.58467905089034
 30
0.0
 10
118.35947755654014
 20
161.59366347995882
 30
0.0
 10
118.35917769866127
 20
161.60264790902733
 30
0.0
 10
118.35173453704687
 20
161.87220526043387
 30
0.0
 10
118.33389016209105
 20
162.14544839419096
 30
0.0
 10
118.31604578713524
 20
162.41869152794806
 30
0.0
 10
118.24301718359195
 20
162.84313958220457
 30
0.0
 10
118.16998858004865
 20
163.26758763646103
 30
0.0
 10
117.97290734807335
 20
163.8267218472518
 30
0.0
 10
117.77582611609805
 20
164.38585605804258
 30
0.0
 10
117.52054245902856
 20
164.80501928816807
 30
0.0
 10
117.26525880195908
 20
165.2241825182935
 30
0.0
 10
116.97342199925386
 20
165.58756106323369
 30
0.0
 10
116.68158519654864
 20
165.95093960817388
 30
0.0
 10
116.32788179600007
 20
166.22297781440409
 30
0.0
 10
115.97417839545147
 20
166.49501602063427
 30
0.0
 10
115.6489768053808
 20
166.67319249048552
 30
0.0
 10
115.32377521531012
 20
166.85136896033677
 30
0.0
 10
114.9985650437701
 20
166.94361310046159
 30
0.0
 10
114.67335487223008
 20
167.03585724058638
 30
0.0
 10
114.46319548833765
 20
167.0558025903731
 30
0.0
 10
114.25303610444521
 20
167.07574794015977
 30
0.0
 10
114.07069677349182
 20
167.08405876513774
 30
0.0
 10
114.0646214167179
 20
167.08436330517745
 30
0.0
 10
114.05854605994398
 20
167.08466784521715
 30
0.0
  0
SPLINE
  5
188
100
AcDbEntity
  8
0
370
              25
  6
Continuous
 62
               7
100
AcDbSpline
210
0.0
220
0.0
230
1.0
 70
               8
 71
               2
 72
              28
 73
              25
 74
               0
 42
0.000001
 43
0.000001
 40
0.0
 40
0.0
 40
0.0
 40
0.00145889615353
 40
0.00145889615353
 40
0.045495271883202
 40
0.045495271883202
 40
0.1015211717276781
 40
0.1015211717276781
 40
0.1838200233417719
 40
0.1838200233417719
 40
0.2802409779911085
 40
0.2802409779911085
 40
0.3853646616131807
 40
0.3853646616131807
 40
0.5309972655193049
 40
0.5309972655193049
 40
0.7020181338862483
 40
0.7020181338862483
 40
0.8351757585178318
 40
0.8351757585178318
 40
0.9229314699855029
 40
0.9229314699855029
 40
0.9975274205257946
 40
0.9975274205257946
 40
1.0
 40
1.0
 40
1.0
 10
114.05854605994398
 20
79.584661884752663
 30
0.0
 10
114.0641607632775
 20
79.584920210188812
 30
0.0
 10
114.06977546661102
 20
79.585178535624976
 30
0.0
 10
114.23833119543244
 20
79.591630777020029
 30
0.0
 10
114.40835390498361
 20
79.606700338170754
 30
0.0
 10
114.5783766145348
 20
79.621769899321492
 30
0.0
 10
114.83335106673054
 20
79.680377722927858
 30
0.0
 10
115.08832551892627
 20
79.738985546534209
 30
0.0
 10
115.4306898523397
 20
79.890167619804615
 30
0.0
 10
115.77305418575313
 20
80.04134969307502
 30
0.0
 10
116.07502660964845
 20
80.257106167691731
 30
0.0
 10
116.37699903354378
 20
80.472862642308442
 30
0.0
 10
116.69370126772228
 20
80.778676239044842
 30
0.0
 10
117.01040350190078
 20
81.084489835781255
 30
0.0
 10
117.39145083523357
 20
81.654620539007965
 30
0.0
 10
117.77249816856636
 20
82.224751242234689
 30
0.0
 10
117.97227392459651
 20
82.832587144587279
 30
0.0
 10
118.17204968062667
 20
83.440423046939856
 30
0.0
 10
118.24130128852279
 20
83.82183491887136
 30
0.0
 10
118.31055289641893
 20
84.203246790802879
 30
0.0
 10
118.33028804655027
 20
84.491624273400191
 30
0.0
 10
118.3500231966816
 20
84.780001755997517
 30
0.0
 10
118.35910648636337
 20
85.065640242021431
 30
0.0
 10
118.35944195039119
 20
85.075160361711625
 30
0.0
 10
118.35977741441901
 20
85.084680481401818
 30
0.0
  0
LINE
  5
189
100
AcDbEntity
  8
0
370
              25
  6
Continuous
 62
               7
100
AcDbLine
 10
118.35977741441901
 20
85.0846804814
 30
0.0
 11
118.35977741441901
 21
86.157862110599993
 31
0.0
  0
LINE
  5
18A
100
AcDbEntity
  8
0
370
              25
  6
Continuous
 62
               7
100
AcDbLine
 10
118.35977741441901
 20
128.0596591668
 30
0.0
 11
118.35977741441901
 21
161.58467905089998
 31
0.0
  0
LINE
  5
18B
100
AcDbEntity
  8
0
370
              25
  6
Continuous
 62
               7
100
AcDbLine
 10
118.20977487526901
 20
127.5487877564
 30
0.0
 11
118.20977487526901
 21
128.0596591668
 31
0.0
  0
SPLINE
  5
18C
100
AcDbEntity
  8
0
370
              25
  6
Continuous
 62
               7
100
AcDbSpline
210
0.0
220
0.0
230
1.0
 70
               8
 71
               2
 72
              34
 73
              31
 74
               0
 42
0.000001
 43
0.000001
 40
0.0
 40
0.0
 40
0.0
 40
0.000019749194048
 40
0.000019749194048
 40
0.0015486727933388
 40
0.0015486727933388
 40
0.0089130017920667
 40
0.0089130017920667
 40
0.0316315510444795
 40
0.0316315510444795
 40
0.0668968880976043
 40
0.0668968880976043
 40
0.1102233541433086
 40
0.1102233541433086
 40
0.1791680370398149
 40
0.1791680370398149
 40
0.2910097872123117
 40
0.2910097872123117
 40
0.4201214524243109
 40
0.4201214524243109
 40
0.5334965368162964
 40
0.5334965368162964
 40
0.6422909653551761
 40
0.6422909653551761
 40
0.7742764719497872
 40
0.7742764719497872
 40
0.9124292329797917
 40
0.9124292329797917
 40
0.9992298111247037
 40
0.9992298111247037
 40
1.0
 40
1.0
 40
1.0
 10
112.85445400438482
 20
86.292658014742273
 30
0.0
 10
112.85445674208371
 20
86.292653534659465
 30
0.0
 10
112.85445947978261
 20
86.292649054576657
 30
0.0
 10
112.8548463757504
 20
86.29215922338588
 30
0.0
 10
112.85415609240924
 20
86.292747231484569
 30
0.0
 10
112.85346580906807
 20
86.293335239583257
 30
0.0
 10
112.85121365968732
 20
86.295330589668467
 30
0.0
 10
112.84896151030655
 20
86.297325939753676
 30
0.0
 10
112.84259191435743
 20
86.303787404884332
 30
0.0
 10
112.83622231840832
 20
86.310248870014988
 30
0.0
 10
112.82987897810268
 20
86.317563818130765
 30
0.0
 10
112.82353563779705
 20
86.324878766246556
 30
0.0
 10
112.81562269952867
 20
86.335647817196502
 30
0.0
 10
112.8077097612603
 20
86.346416868146434
 30
0.0
 10
112.79595008228844
 20
86.366552216992346
 30
0.0
 10
112.78419040331659
 20
86.386687565838272
 30
0.0
 10
112.77022789078012
 20
86.420116332979731
 30
0.0
 10
112.75626537824367
 20
86.453545100121204
 30
0.0
 10
112.74715959529811
 20
86.484716951161602
 30
0.0
 10
112.73805381235258
 20
86.515888802201999
 30
0.0
 10
112.7314153419931
 20
86.542899170459691
 30
0.0
 10
112.72477687163362
 20
86.569909538717383
 30
0.0
 10
112.71930846740476
 20
86.599451881853383
 30
0.0
 10
112.71384006317589
 20
86.628994224989384
 30
0.0
 10
112.70870894157135
 20
86.668810708476684
 30
0.0
 10
112.7035778199668
 20
86.708627191963984
 30
0.0
 10
112.70463747962398
 20
86.742066575356688
 30
0.0
 10
112.70569713928114
 20
86.775505958749392
 30
0.0
 10
112.70627016511526
 20
86.788189340373535
 30
0.0
 10
112.70627909922968
 20
86.78839390098473
 30
0.0
 10
112.70628803334409
 20
86.78859846159591
 30
0.0
  0
LINE
  5
18D
100
AcDbEntity
  8
0
370
              25
  6
Continuous
 62
               7
100
AcDbLine
 10
112.70406030976901
 20
86.788836880199995
 30
0.0
 11
112.70406030976901
 21
127.55966560409999
 31
0.0
  0
POLYLINE
  5
18E
100
AcDbEntity
  8
0
370
              25
  6
Continuous
 62
               7
100
AcDb2dPolyline
 66
               1
 10
0.0
 20
0.0
 30
0.0
 75
               5
  0
VERTEX
  5
18F
100
AcDbEntity
  8
0
370
              25
  6
Continuous
 62
               7
100
AcDbVertex
100
AcDb2dVertex
 10
117.35869132836902
 20
127.48465315864999
 30
0.0
  0
VERTEX
  5
190
100
AcDbEntity
  8
0
370
              25
  6
Continuous
 62
               7
100
AcDbVertex
100
AcDb2dVertex
 10
117.85046690066901
 20
127.52154843374998
 30
0.0
  0
VERTEX
  5
191
100
AcDbEntity
  8
0
370
              25
  6
Continuous
 62
               7
100
AcDbVertex
100
AcDb2dVertex
 10
118.19235541781902
 20
127.54717843099999
 30
0.0
  0
SEQEND
  5
192
100
AcDbEntity
  8
0
370
              25
  6
Continuous
 62
               7
  0
SPLINE
  5
193
100
AcDbEntity
  8
0
370
              25
  6
Continuous
 62
               7
100
AcDbSpline
210
0.0
220
0.0
230
1.0
 70
               8
 71
               2
 72
              22
 73
              19
 74
               0
 42
0.000001
 43
0.000001
 40
0.0
 40
0.0
 40
0.0
 40
0.0015185108383239
 40
0.0015185108383239
 40
0.095635707343675
 40
0.095635707343675
 40
0.2283810304025452
 40
0.2283810304025452
 40
0.4319512921689105
 40
0.4319512921689105
 40
0.6574580900451765
 40
0.6574580900451765
 40
0.8319227121576693
 40
0.8319227121576693
 40
0.9325190697596302
 40
0.9325190697596302
 40
0.9989289991009775
 40
0.9989289991009775
 40
1.0
 40
1.0
 40
1.0
 10
118.35580625496081
 20
86.158011122194665
 30
0.0
 10
118.35581481841102
 20
86.158122542987243
 30
0.0
 10
118.35582338186123
 20
86.158233963779807
 30
0.0
 10
118.35637661259537
 20
86.165141744586151
 30
0.0
 10
118.35680561351207
 20
86.172051256719342
 30
0.0
 10
118.35723461442876
 20
86.178960768852534
 30
0.0
 10
118.35728583904448
 20
86.191579437198669
 30
0.0
 10
118.3573370636602
 20
86.204198105544791
 30
0.0
 10
118.35332114670361
 20
86.221205471564502
 30
0.0
 10
118.34930522974702
 20
86.2382128375842
 30
0.0
 10
118.34272601189998
 20
86.25259590676248
 30
0.0
 10
118.33614679405295
 20
86.266978975940773
 30
0.0
 10
118.33053201778527
 20
86.275155843728157
 30
0.0
 10
118.3249172415176
 20
86.283332711515527
 30
0.0
 10
118.3220129662909
 20
86.287264366471788
 30
0.0
 10
118.3191086910642
 20
86.29119602142805
 30
0.0
 10
118.31616342419736
 20
86.295095104302163
 30
0.0
 10
118.31611600377227
 20
86.295158059384889
 30
0.0
 10
118.31606858334717
 20
86.295221014467614
 30
0.0
  0
LINE
  5
194
100
AcDbEntity
  8
0
370
              25
  6
Continuous
 62
               7
100
AcDbLine
 10
118.33118953666902
 20
86.276415749049988
 30
0.0
 11
117.35280909501901
 21
87.745133800949986
 31
0.0
  0
ARC
  5
195
100
AcDbEntity
  8
0
370
              25
  6
Continuous
 62
               7
100
AcDbCircle
 10
105.43832944601903
 20
79.334667845199988
 30
0.0
 40
0.2499999999999716
100
AcDbArc
 50
90.0
 51
134.99999999999886
  0
LINE
  5
196
100
AcDbEntity
  8
0
370
              25
  6
Continuous
 62
               7
100
AcDbLine
 10
104.65799950916902
 20
78.907880945649993
 30
0.0
 11
105.26155241691902
 21
79.511437578649989
 31
0.0
  0
ARC
  5
197
100
AcDbEntity
  8
0
370
              25
  6
Continuous
 62
               7
100
AcDbCircle
 10
104.48122266481901
 20
79.084667845199988
 30
0.0
 40
0.25
100
AcDbArc
 50
270.0
 51
315.0
  0
LINE
  5
198
100
AcDbEntity
  8
0
370
              25
  6
Continuous
 62
               7
100
AcDbLine
 10
114.60917376836902
 20
90.909127159549996
 30
0.0
 11
114.60917376836902
 21
99.159125252199999
 31
0.0
  0
LINE
  5
199
100
AcDbEntity
  8
0
370
              25
  6
Continuous
 62
               7
100
AcDbLine
 10
114.60977726541901
 20
99.131766720249999
 30
0.0
 11
114.60977726541901
 21
90.931776924600001
 31
0.0
  0
ARC
  5
19A
100
AcDbEntity
  8
0
370
              25
  6
Continuous
 62
               7
100
AcDbCircle
 10
106.54366312766902
 20
161.50915648889998
 30
0.0
 40
1.9994940404853301
100
AcDbArc
 50
270.0184703786
 51
6.4553926973001694
  0
ARC
  5
19B
100
AcDbEntity
  8
0
370
              25
  6
Continuous
 62
               7
100
AcDbCircle
 10
106.54379026311901
 20
161.51044779255
 30
0.0
 40
1.999222932958675
100
AcDbArc
 50
6.4190294770000573
 51
89.985170694500042
  0
ARC
  5
19C
100
AcDbEntity
  8
0
370
              25
  6
Continuous
 62
               7
100
AcDbCircle
 10
106.56111238741902
 20
161.50915648889998
 30
0.0
 40
1.9994940404853301
100
AcDbArc
 50
270.0184703786
 51
6.4553926973001694
  0
ARC
  5
19D
100
AcDbEntity
  8
0
370
              25
  6
Continuous
 62
               7
100
AcDbCircle
 10
106.56123952286902
 20
161.51044779255
 30
0.0
 40
1.999222932958675
100
AcDbArc
 50
6.4190294770000573
 51
89.985170694500042
  0
ARC
  5
19E
100
AcDbEntity
  8
0
370
              25
  6
Continuous
 62
               7
100
AcDbCircle
 10
106.54371682696902
 20
85.159009806849994
 30
0.0
 40
1.9993508227260117
100
AcDbArc
 50
270.01693283069994
 51
358.01813995159989
  0
ARC
  5
19F
100
AcDbEntity
  8
0
370
              25
  6
Continuous
 62
               7
100
AcDbCircle
 10
106.54372059456901
 20
85.160276016499992
 30
0.0
 40
1.9993912473528423
100
AcDbArc
 50
357.98187264100005
 51
89.983175478700048
  0
ARC
  5
1A0
100
AcDbEntity
  8
0
370
              25
  6
Continuous
 62
               7
100
AcDbCircle
 10
106.56116608671901
 20
85.159009806849994
 30
0.0
 40
1.9993508227260117
100
AcDbArc
 50
270.01693283069994
 51
358.01813995159989
  0
ARC
  5
1A1
100
AcDbEntity
  8
0
370
              25
  6
Continuous
 62
               7
100
AcDbCircle
 10
106.56116985431902
 20
85.160276016499992
 30
0.0
 40
1.9993912473528423
100
AcDbArc
 50
357.98187264100005
 51
89.983175478700048
  0
CIRCLE
  5
1A2
100
AcDbEntity
  8
0
370
              25
  6
Continuous
 62
               7
100
AcDbCircle
 10
106.52897526286901
 20
85.158875218299997
 30
0.0
 40
1.6992690053967223
  0
CIRCLE
  5
1A3
100
AcDbEntity
  8
0
370
              25
  6
Continuous
 62
               7
100
AcDbCircle
 10
106.53955488451902
 20
85.158793919349989
 30
0.0
 40
1.9992006848425348
  0
LINE
  5
1A4
100
AcDbEntity
  8
0
370
              25
  6
Continuous
 62
               7
100
AcDbLine
 10
105.53567790351902
 20
85.389677448699985
 30
0.0
 11
106.26410254201902
 21
85.059884949199997
 31
0.0
  0
LINE
  5
1A5
100
AcDbEntity
  8
0
370
              25
  6
Continuous
 62
               7
100
AcDbLine
 10
106.26410254201902
 20
85.059884949199997
 30
0.0
 11
105.93452983461901
 21
84.331009550549993
 31
0.0
  0
LINE
  5
1A6
100
AcDbEntity
  8
0
370
              25
  6
Continuous
 62
               7
100
AcDbLine
 10
105.93452983461901
 20
84.331009550549993
 30
0.0
 11
106.29874401651901
 21
84.166143103099984
 31
0.0
  0
LINE
  5
1A7
100
AcDbEntity
  8
0
370
              25
  6
Continuous
 62
               7
100
AcDbLine
 10
106.29874401651901
 20
84.166143103099984
 30
0.0
 11
106.62831672391901
 21
84.895018501750002
 31
0.0
  0
LINE
  5
1A8
100
AcDbEntity
  8
0
370
              25
  6
Continuous
 62
               7
100
AcDbLine
 10
106.62831672391901
 20
84.895018501750002
 30
0.0
 11
107.35674136241902
 21
84.565226002199992
 31
0.0
  0
LINE
  5
1A9
100
AcDbEntity
  8
0
370
              25
  6
Continuous
 62
               7
100
AcDbLine
 10
107.35674136241902
 20
84.565226002199992
 30
0.0
 11
107.52152585346902
 21
84.92967860265
 31
0.0
  0
LINE
  5
1AA
100
AcDbEntity
  8
0
370
              25
  6
Continuous
 62
               7
100
AcDbLine
 10
107.52152585346902
 20
84.92967860265
 30
0.0
 11
106.79310121496901
 21
85.25944129989999
 31
0.0
  0
LINE
  5
1AB
100
AcDbEntity
  8
0
370
              25
  6
Continuous
 62
               7
100
AcDbLine
 10
106.79310121496901
 20
85.25944129989999
 30
0.0
 11
107.12267019711902
 21
85.9883166985
 31
0.0
  0
LINE
  5
1AC
100
AcDbEntity
  8
0
370
              25
  6
Continuous
 62
               7
100
AcDbLine
 10
107.12267019711902
 20
85.9883166985
 30
0.0
 11
106.75845974051902
 21
86.153183145949995
 31
0.0
  0
LINE
  5
1AD
100
AcDbEntity
  8
0
370
              25
  6
Continuous
 62
               7
100
AcDbLine
 10
106.75845974051902
 20
86.153183145949995
 30
0.0
 11
106.42888703306902
 21
85.424337549649991
 31
0.0
  0
LINE
  5
1AE
100
AcDbEntity
  8
0
370
              25
  6
Continuous
 62
               7
100
AcDbLine
 10
106.42888703306902
 20
85.424337549649991
 30
0.0
 11
105.70046239456902
 21
85.754100246849987
 31
0.0
  0
LINE
  5
1AF
100
AcDbEntity
  8
0
370
              25
  6
Continuous
 62
               7
100
AcDbLine
 10
105.70046239456902
 20
85.754100246849987
 30
0.0
 11
105.53567790351902
 21
85.389677448699985
 31
0.0
  0
LINE
  5
1B0
100
AcDbEntity
  8
0
370
              25
  6
Continuous
 62
               7
100
AcDbLine
 10
106.64227538666901
 20
84.895018501750002
 30
0.0
 11
106.62831672391901
 21
84.895018501750002
 31
0.0
  0
LINE
  5
1B1
100
AcDbEntity
  8
0
370
              25
  6
Continuous
 62
               7
100
AcDbLine
 10
106.64227538666901
 20
84.895018501750002
 30
0.0
 11
107.35911064706902
 21
84.570471210899996
 31
0.0
  0
LINE
  5
1B2
100
AcDbEntity
  8
0
370
              25
  6
Continuous
 62
               7
100
AcDbLine
 10
106.77004539331901
 20
86.147937937249992
 30
0.0
 11
106.44284942111901
 21
85.424337549649991
 31
0.0
  0
LINE
  5
1B3
100
AcDbEntity
  8
0
370
              25
  6
Continuous
 62
               7
100
AcDbLine
 10
106.44284942111901
 20
85.424337549649991
 30
0.0
 11
106.42888703306902
 21
85.424337549649991
 31
0.0
  0
LINE
  5
1B4
100
AcDbEntity
  8
0
370
              25
  6
Continuous
 62
               7
100
AcDbLine
 10
105.94849222266902
 20
84.331009550549993
 30
0.0
 11
105.93452983461901
 21
84.331009550549993
 31
0.0
  0
LINE
  5
1B5
100
AcDbEntity
  8
0
370
              25
  6
Continuous
 62
               7
100
AcDbLine
 10
105.94849222266902
 20
84.331009550549993
 30
0.0
 11
106.30111702641901
 21
84.171388311849995
 31
0.0
  0
LINE
  5
1B6
100
AcDbEntity
  8
0
370
              25
  6
Continuous
 62
               7
100
AcDbLine
 10
105.54963656626902
 20
85.389677448699985
 30
0.0
 11
105.53567790351902
 21
85.389677448699985
 31
0.0
  0
LINE
  5
1B7
100
AcDbEntity
  8
0
370
              25
  6
Continuous
 62
               7
100
AcDbLine
 10
105.54963656626902
 20
85.389677448699985
 30
0.0
 11
106.27806120476902
 21
85.059884949199997
 31
0.0
  0
LINE
  5
1B8
100
AcDbEntity
  8
0
370
              25
  6
Continuous
 62
               7
100
AcDbLine
 10
106.27806120476902
 20
85.059884949199997
 30
0.0
 11
106.26410254201902
 21
85.059884949199997
 31
0.0
  0
LINE
  5
1B9
100
AcDbEntity
  8
0
370
              25
  6
Continuous
 62
               7
100
AcDbLine
 10
106.27806120476902
 20
85.059884949199997
 30
0.0
 11
105.94849222266902
 21
84.331009550549993
 31
0.0
  0
LINE
  5
1BA
100
AcDbEntity
  8
0
370
              25
  6
Continuous
 62
               7
100
AcDbLine
 10
105.71205177266901
 20
85.748855038149998
 30
0.0
 11
105.54963656626902
 21
85.389677448699985
 31
0.0
  0
ARC
  5
1BB
100
AcDbEntity
  8
0
370
              25
  6
Continuous
 62
               7
100
AcDbCircle
 10
106.54336992696901
 20
85.159663124549994
 30
0.0
 40
2.0000042729710761
100
AcDbArc
 50
270.02686523069997
 51
89.973134769300032
  0
CIRCLE
  5
1BC
100
AcDbEntity
  8
0
370
              25
  6
Continuous
 62
               7
100
AcDbCircle
 10
106.52781330776901
 20
161.50912103589999
 30
0.0
 40
1.6996322886904096
  0
CIRCLE
  5
1BD
100
AcDbEntity
  8
0
370
              25
  6
Continuous
 62
               7
100
AcDbCircle
 10
106.53819241371902
 20
161.50901410205
 30
0.0
 40
1.9995266259011402
  0
LINE
  5
1BE
100
AcDbEntity
  8
0
370
              25
  6
Continuous
 62
               7
100
AcDbLine
 10
106.09637879691901
 20
160.58612243695001
 30
0.0
 11
106.57085784636902
 21
161.23000161214998
 31
0.0
  0
LINE
  5
1BF
100
AcDbEntity
  8
0
370
              25
  6
Continuous
 62
               7
100
AcDbLine
 10
106.57085784636902
 20
161.23000161214998
 30
0.0
 11
107.21435704191902
 21
160.75525061650001
 31
0.0
  0
LINE
  5
1C0
100
AcDbEntity
  8
0
370
              25
  6
Continuous
 62
               7
100
AcDbLine
 10
107.21435704191902
 20
160.75525061650001
 30
0.0
 11
107.45159470401902
 21
161.07717530295
 31
0.0
  0
LINE
  5
1C1
100
AcDbEntity
  8
0
370
              25
  6
Continuous
 62
               7
100
AcDbLine
 10
107.45159470401902
 20
161.07717530295
 30
0.0
 11
106.80809550841902
 21
161.55195610089999
 31
0.0
  0
LINE
  5
1C2
100
AcDbEntity
  8
0
370
              25
  6
Continuous
 62
               7
100
AcDbLine
 10
106.80809550841902
 20
161.55195610089999
 30
0.0
 11
107.28257455786903
 21
162.19583527610001
 31
0.0
  0
LINE
  5
1C3
100
AcDbEntity
  8
0
370
              25
  6
Continuous
 62
               7
100
AcDbLine
 10
107.28257455786903
 20
162.19583527610001
 30
0.0
 11
106.96082496006902
 21
162.43321077389999
 31
0.0
  0
LINE
  5
1C4
100
AcDbEntity
  8
0
370
              25
  6
Continuous
 62
               7
100
AcDbLine
 10
106.96082496006902
 20
162.43321077389999
 30
0.0
 11
106.48634591066902
 21
161.78933159874998
 31
0.0
  0
LINE
  5
1C5
100
AcDbEntity
  8
0
370
              25
  6
Continuous
 62
               7
100
AcDbLine
 10
106.48634591066902
 20
161.78933159874998
 30
0.0
 11
105.84284671506902
 21
162.2641123967
 31
0.0
  0
LINE
  5
1C6
100
AcDbEntity
  8
0
370
              25
  6
Continuous
 62
               7
100
AcDbLine
 10
105.84284671506902
 20
162.2641123967
 30
0.0
 11
105.60560905296902
 21
161.94215790794999
 31
0.0
  0
LINE
  5
1C7
100
AcDbEntity
  8
0
370
              25
  6
Continuous
 62
               7
100
AcDbLine
 10
105.60560905296902
 20
161.94215790794999
 30
0.0
 11
106.24910824856902
 21
161.46737710995001
 31
0.0
  0
LINE
  5
1C8
100
AcDbEntity
  8
0
370
              25
  6
Continuous
 62
               7
100
AcDbLine
 10
106.24910824856902
 20
161.46737710995001
 30
0.0
 11
105.774629199119
 21
160.8234979348
 31
0.0
  0
LINE
  5
1C9
100
AcDbEntity
  8
0
370
              25
  6
Continuous
 62
               7
100
AcDbLine
 10
105.774629199119
 20
160.8234979348
 30
0.0
 11
106.09637879691901
 21
160.58612243695001
 31
0.0
  0
LINE
  5
1CA
100
AcDbEntity
  8
0
370
              25
  6
Continuous
 62
               7
100
AcDbLine
 10
106.58481650911901
 20
161.23000161214998
 30
0.0
 11
106.57085784636902
 21
161.23000161214998
 31
0.0
  0
LINE
  5
1CB
100
AcDbEntity
  8
0
370
              25
  6
Continuous
 62
               7
100
AcDbLine
 10
106.58481650911901
 20
161.23000161214998
 30
0.0
 11
107.21927442511901
 21
160.76189653439999
 31
0.0
  0
LINE
  5
1CC
100
AcDbEntity
  8
0
370
              25
  6
Continuous
 62
               7
100
AcDbLine
 10
106.96986623966902
 20
162.426564856
 30
0.0
 11
106.50030457341902
 21
161.78933159874998
 31
0.0
  0
LINE
  5
1CD
100
AcDbEntity
  8
0
370
              25
  6
Continuous
 62
               7
100
AcDbLine
 10
106.50030457341902
 20
161.78933159874998
 30
0.0
 11
106.48634591066902
 21
161.78933159874998
 31
0.0
  0
LINE
  5
1CE
100
AcDbEntity
  8
0
370
              25
  6
Continuous
 62
               7
100
AcDbLine
 10
106.26306691131902
 20
161.46737710995001
 30
0.0
 11
106.24910824856902
 21
161.46737710995001
 31
0.0
  0
LINE
  5
1CF
100
AcDbEntity
  8
0
370
              25
  6
Continuous
 62
               7
100
AcDbLine
 10
106.26306691131902
 20
161.46737710995001
 30
0.0
 11
105.78858786186902
 21
160.8234979348
 31
0.0
  0
LINE
  5
1D0
100
AcDbEntity
  8
0
370
              25
  6
Continuous
 62
               7
100
AcDbLine
 10
105.78858786186902
 20
160.8234979348
 30
0.0
 11
105.774629199119
 21
160.8234979348
 31
0.0
  0
LINE
  5
1D1
100
AcDbEntity
  8
0
370
              25
  6
Continuous
 62
               7
100
AcDbLine
 10
105.61956771571901
 20
161.94215790794999
 30
0.0
 11
105.60560905296902
 21
161.94215790794999
 31
0.0
  0
LINE
  5
1D2
100
AcDbEntity
  8
0
370
              25
  6
Continuous
 62
               7
100
AcDbLine
 10
105.61956771571901
 20
161.94215790794999
 30
0.0
 11
106.26306691131902
 21
161.46737710995001
 31
0.0
  0
LINE
  5
1D3
100
AcDbEntity
  8
0
370
              25
  6
Continuous
 62
               7
100
AcDbLine
 10
105.78858786186902
 20
160.8234979348
 30
0.0
 11
106.10129618011902
 21
160.59279815719998
 31
0.0
  0
LINE
  5
1D4
100
AcDbEntity
  8
0
370
              25
  6
Continuous
 62
               7
100
AcDbLine
 10
105.85188799461901
 20
162.25743667645
 30
0.0
 11
105.61956771571901
 21
161.94215790794999
 31
0.0
  0
ARC
  5
1D5
100
AcDbEntity
  8
0
370
              25
  6
Continuous
 62
               7
100
AcDbCircle
 10
106.54419229571901
 20
161.50792887764999
 30
0.0
 40
1.9982663286662659
100
AcDbArc
 50
270.00330902590002
 51
323.62277459910007
  0
ARC
  5
1D6
100
AcDbEntity
  8
0
370
              25
  6
Continuous
 62
               7
100
AcDbCircle
 10
106.54328739466902
 20
161.50965317020001
 30
0.0
 40
2.0000177486146349
100
AcDbArc
 50
323.59837875439996
 51
89.970770594700042
  0
LINE
  5
1D7
100
AcDbEntity
  8
0
370
              25
  6
Continuous
 62
               7
100
AcDbLine
 10
113.82660203536901
 20
127.38544122739999
 30
0.0
 11
113.82660203536901
 21
90.159121914349996
 31
0.0
  0
SPLINE
  5
1D8
100
AcDbEntity
  8
0
370
              25
  6
Continuous
 62
               7
100
AcDbSpline
210
0.0
220
0.0
230
1.0
 70
               8
 71
               2
 72
              36
 73
              33
 74
               0
 42
0.000001
 43
0.000001
 40
0.0
 40
0.0
 40
0.0
 40
0.0011344507059714
 40
0.0011344507059714
 40
0.0458790140097964
 40
0.0458790140097964
 40
0.1171845456995461
 40
0.1171845456995461
 40
0.2079495560898134
 40
0.2079495560898134
 40
0.299176495048609
 40
0.299176495048609
 40
0.3866484587390334
 40
0.3866484587390334
 40
0.4803564598987141
 40
0.4803564598987141
 40
0.5645653859676351
 40
0.5645653859676351
 40
0.6257534258878911
 40
0.6257534258878911
 40
0.6832328656829405
 40
0.6832328656829405
 40
0.7408879852845097
 40
0.7408879852845097
 40
0.8023560188186176
 40
0.8023560188186176
 40
0.8731475182555053
 40
0.8731475182555053
 40
0.9405868035746534
 40
0.9405868035746534
 40
0.9989030396381241
 40
0.9989030396381241
 40
1.0
 40
1.0
 40
1.0
 10
116.39141597709829
 20
87.784145040956872
 30
0.0
 10
116.38922985897831
 20
87.784567160613108
 30
0.0
 10
116.38704374085833
 20
87.784989280269329
 30
0.0
 10
116.32167267619612
 20
87.797548673838236
 30
0.0
 10
116.21465676717403
 20
87.818601094612717
 30
0.0
 10
116.10764085815194
 20
87.839653515387198
 30
0.0
 10
115.94150616880535
 20
87.879529158306269
 30
0.0
 10
115.77537147945877
 20
87.919404801225355
 30
0.0
 10
115.59732717473665
 20
87.971374214968648
 30
0.0
 10
115.41928287001453
 20
88.023343628711928
 30
0.0
 10
115.25780101403313
 20
88.084725739782229
 30
0.0
 10
115.09631915805174
 20
88.14610785085253
 30
0.0
 10
114.94125851732288
 20
88.217470113823993
 30
0.0
 10
114.78619787659402
 20
88.288832376795455
 30
0.0
 10
114.62075139377644
 20
88.397175093171541
 30
0.0
 10
114.45530491095889
 20
88.505517809547626
 30
0.0
 10
114.35888019659369
 20
88.598038365477493
 30
0.0
 10
114.26245548222849
 20
88.690558921407359
 30
0.0
 10
114.19278118344168
 20
88.771339423988607
 30
0.0
 10
114.12310688465487
 20
88.852119926569856
 30
0.0
 10
114.06361299449995
 20
88.955856840161658
 30
0.0
 10
114.00411910434504
 20
89.059593753753461
 30
0.0
 10
113.96302053954338
 20
89.158331065829586
 30
0.0
 10
113.92192197474172
 20
89.257068377905711
 30
0.0
 10
113.88985685214152
 20
89.387969824970526
 30
0.0
 10
113.85779172954132
 20
89.518871272035355
 30
0.0
 10
113.8441058517374
 20
89.661774849375888
 30
0.0
 10
113.83041997393349
 20
89.804678426716421
 30
0.0
 10
113.82841238043552
 20
89.925922494007494
 30
0.0
 10
113.82640478693756
 20
90.047166561298553
 30
0.0
 10
113.82660272514173
 20
90.154816075385668
 30
0.0
 10
113.82660238026143
 20
90.156968994870212
 30
0.0
 10
113.82660203538114
 20
90.159121914354756
 30
0.0
  0
LINE
  5
1D9
100
AcDbEntity
  8
0
370
              25
  6
Continuous
 62
               7
100
AcDbLine
 10
113.85977574546902
 20
90.159121914349996
 30
0.0
 11
113.85977574546902
 21
127.38544122739999
 31
0.0
  0
LINE
  5
1DA
100
AcDbEntity
  8
0
370
              25
  6
Continuous
 62
               7
100
AcDbLine
 10
113.82660203536901
 20
90.159121914349996
 30
0.0
 11
113.85977574546902
 21
90.159121914349996
 31
0.0
  0
LINE
  5
1DB
100
AcDbEntity
  8
0
370
              25
  6
Continuous
 62
               7
100
AcDbLine
 10
113.85977574546902
 20
127.38544122739999
 30
0.0
 11
113.82660203536901
 21
127.38544122739999
 31
0.0
  0
SPLINE
  5
1DC
100
AcDbEntity
  8
0
370
              25
  6
Continuous
 62
               7
100
AcDbSpline
210
0.0
220
0.0
230
1.0
 70
               8
 71
               2
 72
              32
 73
              29
 74
               0
 42
0.000001
 43
0.000001
 40
0.0
 40
0.0
 40
0.0
 40
0.0005903193685452
 40
0.0005903193685452
 40
0.0731176458373696
 40
0.0731176458373696
 40
0.1363068547799976
 40
0.1363068547799976
 40
0.1972470919920786
 40
0.1972470919920786
 40
0.2670632152207094
 40
0.2670632152207094
 40
0.3547723998775183
 40
0.3547723998775183
 40
0.4618424654888994
 40
0.4618424654888994
 40
0.5616676478797305
 40
0.5616676478797305
 40
0.6465886650718021
 40
0.6465886650718021
 40
0.7334850271900273
 40
0.7334850271900273
 40
0.8224231655105141
 40
0.8224231655105141
 40
0.9089628993401255
 40
0.9089628993401255
 40
0.9973264864570021
 40
0.9973264864570021
 40
1.0
 40
1.0
 40
1.0
 10
113.85977574548895
 20
127.38544122740404
 30
0.0
 10
113.85977852855952
 20
127.3855101910531
 30
0.0
 10
113.85978131163009
 20
127.38557915470216
 30
0.0
 10
113.86002096674233
 20
127.39434547608003
 30
0.0
 10
113.86082700403232
 20
127.40250121303764
 30
0.0
 10
113.86163304132231
 20
127.41065694999524
 30
0.0
 10
113.86310953615437
 20
127.41708875930023
 30
0.0
 10
113.86458603098643
 20
127.42352056860521
 30
0.0
 10
113.86682242270085
 20
127.43084215444597
 30
0.0
 10
113.86905881441525
 20
127.43816374028673
 30
0.0
 10
113.87261137425102
 20
127.44609008311443
 30
0.0
 10
113.87616393408678
 20
127.45401642594211
 30
0.0
 10
113.88211612131509
 20
127.46424884280958
 30
0.0
 10
113.88806830854341
 20
127.47448125967703
 30
0.0
 10
113.89681023311039
 20
127.48446701815888
 30
0.0
 10
113.90555215767738
 20
127.49445277664073
 30
0.0
 10
113.91352988461898
 20
127.5007026738286
 30
0.0
 10
113.92150761156057
 20
127.50695257101648
 30
0.0
 10
113.9298356152469
 20
127.51200561750208
 30
0.0
 10
113.93816361893322
 20
127.51705866398768
 30
0.0
 10
113.94799997566636
 20
127.52105930528731
 30
0.0
 10
113.95783633239952
 20
127.52505994658691
 30
0.0
 10
113.9677029174799
 20
127.52766628649124
 30
0.0
 10
113.97756950256027
 20
127.53027262639556
 30
0.0
 10
113.98745443031137
 20
127.53202982562863
 30
0.0
 10
113.99733935806248
 20
127.53378702486168
 30
0.0
 10
114.00784881806575
 20
127.53534297915589
 30
0.0
 10
114.00815790026375
 20
127.53538964756859
 30
0.0
 10
114.00846698246175
 20
127.53543631598129
 30
0.0
  0
SPLINE
  5
1DD
100
AcDbEntity
  8
0
370
              25
  6
Continuous
 62
               7
100
AcDbSpline
210
0.0
220
0.0
230
1.0
 70
               8
 71
               2
 72
              28
 73
              25
 74
               0
 42
0.000001
 43
0.000001
 40
0.0
 40
0.0
 40
0.0
 40
0.0019119168115934
 40
0.0019119168115934
 40
0.0802535704971697
 40
0.0802535704971697
 40
0.1710535617146109
 40
0.1710535617146109
 40
0.2644573848403381
 40
0.2644573848403381
 40
0.3757697865483591
 40
0.3757697865483591
 40
0.4958235649267355
 40
0.4958235649267355
 40
0.602784356380108
 40
0.602784356380108
 40
0.7069318117395742
 40
0.7069318117395742
 40
0.8139600771675855
 40
0.8139600771675855
 40
0.9108993853098439
 40
0.9108993853098439
 40
0.9985833180947825
 40
0.9985833180947825
 40
1.0
 40
1.0
 40
1.0
 10
116.39141597709829
 20
87.784145040956872
 30
0.0
 10
116.39139936377984
 20
87.784337597495067
 30
0.0
 10
116.39138275046137
 20
87.784530154033249
 30
0.0
 10
116.39082877077865
 20
87.791080844599662
 30
0.0
 10
116.3899835682289
 20
87.800306990358337
 30
0.0
 10
116.38913836567914
 20
87.809533136116997
 30
0.0
 10
116.3875111481843
 20
87.818488268087549
 30
0.0
 10
116.38588393068947
 20
87.827443400058115
 30
0.0
 10
116.38337163019912
 20
87.836905299600375
 30
0.0
 10
116.38085932970876
 20
87.846367199142648
 30
0.0
 10
116.37494454845643
 20
87.85771818766284
 30
0.0
 10
116.36902976720408
 20
87.869069176183046
 30
0.0
 10
116.3620529745065
 20
87.878244986702555
 30
0.0
 10
116.3550761818089
 20
87.887420797222063
 30
0.0
 10
116.34789173713102
 20
87.894562499023479
 30
0.0
 10
116.34070729245316
 20
87.901704200824895
 30
0.0
 10
116.33195755030289
 20
87.90829886119036
 30
0.0
 10
116.32320780815263
 20
87.91489352155584
 30
0.0
 10
116.31336997978806
 20
87.919274441558002
 30
0.0
 10
116.3035321514235
 20
87.923655361560165
 30
0.0
 10
116.29510770450608
 20
87.926347700657772
 30
0.0
 10
116.28668325758865
 20
87.929040039755392
 30
0.0
 10
116.27813687243105
 20
87.9314679293024
 30
0.0
 10
116.27799927532581
 20
87.931507628394442
 30
0.0
 10
116.27786167822057
 20
87.93154732748647
 30
0.0
  0
SPLINE
  5
1DE
100
AcDbEntity
  8
0
370
              25
  6
Continuous
 62
               7
100
AcDbSpline
210
0.0
220
0.0
230
1.0
 70
               8
 71
               2
 72
              34
 73
              31
 74
               0
 42
0.000001
 43
0.000001
 40
0.0
 40
0.0
 40
0.0
 40
0.0011459955281694
 40
0.0011459955281694
 40
0.0749149019376374
 40
0.0749149019376374
 40
0.1368902131202904
 40
0.1368902131202904
 40
0.1895052738187655
 40
0.1895052738187655
 40
0.2469418729424682
 40
0.2469418729424682
 40
0.3115844397803618
 40
0.3115844397803618
 40
0.3827357923733787
 40
0.3827357923733787
 40
0.4627576440825452
 40
0.4627576440825452
 40
0.5580081795846519
 40
0.5580081795846519
 40
0.6702965135763814
 40
0.6702965135763814
 40
0.7807994766769587
 40
0.7807994766769587
 40
0.8743409013210778
 40
0.8743409013210778
 40
0.9470530421449894
 40
0.9470530421449894
 40
0.9985653941874815
 40
0.9985653941874815
 40
1.0
 40
1.0
 40
1.0
 10
113.85977574548895
 20
90.159121914354699
 30
0.0
 10
113.8597758832347
 20
90.157003716716062
 30
0.0
 10
113.85977602098046
 20
90.154885519077425
 30
0.0
 10
113.8589917756418
 20
90.015508472538016
 30
0.0
 10
113.86287228792305
 20
89.882222545070391
 30
0.0
 10
113.86675280020431
 20
89.74893661760278
 30
0.0
 10
113.87852704044637
 20
89.653777707348638
 30
0.0
 10
113.89030128068843
 20
89.55861879709451
 30
0.0
 10
113.90888145130253
 20
89.461713241392289
 30
0.0
 10
113.92746162191663
 20
89.364807685690053
 30
0.0
 10
113.96732530955718
 20
89.257878436566074
 30
0.0
 10
114.00718899719773
 20
89.150949187442109
 30
0.0
 10
114.06837064706338
 20
89.041619663752243
 30
0.0
 10
114.12955229692902
 20
88.932290140062378
 30
0.0
 10
114.22143045158074
 20
88.828410674697295
 30
0.0
 10
114.31330860623245
 20
88.724531209332213
 30
0.0
 10
114.43645468751231
 20
88.625845233287535
 30
0.0
 10
114.55960076879215
 20
88.527159257242872
 30
0.0
 10
114.72971739706156
 20
88.431759115895971
 30
0.0
 10
114.89983402533097
 20
88.336358974549057
 30
0.0
 10
115.1047482087329
 20
88.254621132221203
 30
0.0
 10
115.30966239213481
 20
88.172883289893349
 30
0.0
 10
115.49012296509829
 20
88.119811123405199
 30
0.0
 10
115.67058353806178
 20
88.06673895691705
 30
0.0
 10
115.82379484321936
 20
88.029227800309741
 30
0.0
 10
115.97700614837694
 20
87.991716643702446
 30
0.0
 10
116.08589490792731
 20
87.969734836171796
 30
0.0
 10
116.19478366747768
 20
87.947753028641131
 30
0.0
 10
116.27265722069114
 20
87.932566447434908
 30
0.0
 10
116.27525944945586
 20
87.932056887460661
 30
0.0
 10
116.27786167822057
 20
87.931547327486413
 30
0.0
  0
SPLINE
  5
1DF
100
AcDbEntity
  8
0
370
              25
  6
Continuous
 62
               7
100
AcDbSpline
210
0.0
220
0.0
230
1.0
 70
               8
 71
               2
 72
              24
 73
              21
 74
               0
 42
0.000001
 43
0.000001
 40
0.0
 40
0.0
 40
0.0
 40
0.0014626889346386
 40
0.0014626889346386
 40
0.0920517231276411
 40
0.0920517231276411
 40
0.1889825975456974
 40
0.1889825975456974
 40
0.3039477646979987
 40
0.3039477646979987
 40
0.4375061250418126
 40
0.4375061250418126
 40
0.5780554080997677
 40
0.5780554080997677
 40
0.7177763994812629
 40
0.7177763994812629
 40
0.8566755694825301
 40
0.8566755694825301
 40
0.9978274734275663
 40
0.9978274734275663
 40
1.0
 40
1.0
 40
1.0
 10
117.28092589340383
 20
87.732736034838098
 30
0.0
 10
117.2808768069749
 20
87.732816021479067
 30
0.0
 10
117.28082772054597
 20
87.732896008120036
 30
0.0
 10
117.27780342457442
 20
87.737871261347038
 30
0.0
 10
117.27467283286811
 20
87.742756940264897
 30
0.0
 10
117.2715422411618
 20
87.747642619182756
 30
0.0
 10
117.26754576875533
 20
87.752945474035101
 30
0.0
 10
117.26354929634886
 20
87.758248328887476
 30
0.0
 10
117.25766333012048
 20
87.763874548187758
 30
0.0
 10
117.2517773638921
 20
87.76950076748804
 30
0.0
 10
117.24423883460123
 20
87.774487478242065
 30
0.0
 10
117.23670030531036
 20
87.77947418899609
 30
0.0
 10
117.22851299754133
 20
87.783279386586315
 30
0.0
 10
117.22032568977228
 20
87.787084584176569
 30
0.0
 10
117.21183804416935
 20
87.789821107260167
 30
0.0
 10
117.20335039856641
 20
87.792557630343765
 30
0.0
 10
117.19468585952755
 20
87.794644313405456
 30
0.0
 10
117.18602132048868
 20
87.796730996467147
 30
0.0
 10
117.17702430115204
 20
87.798659182487398
 30
0.0
 10
117.17688808832484
 20
87.798688779545927
 30
0.0
 10
117.17675187549764
 20
87.798718376604455
 30
0.0
  0
SPLINE
  5
1E0
100
AcDbEntity
  8
0
370
              25
  6
Continuous
 62
               7
100
AcDbSpline
210
0.0
220
0.0
230
1.0
 70
               8
 71
               2
 72
              28
 73
              25
 74
               0
 42
0.000001
 43
0.000001
 40
0.0
 40
0.0
 40
0.0
 40
0.0045624517599671
 40
0.0045624517599671
 40
0.1406919456920092
 40
0.1406919456920092
 40
0.2591467088309075
 40
0.2591467088309075
 40
0.378789476892587
 40
0.378789476892587
 40
0.5235900944749706
 40
0.5235900944749706
 40
0.6808771805973102
 40
0.6808771805973102
 40
0.8233575462459888
 40
0.8233575462459888
 40
0.9230648638606104
 40
0.9230648638606104
 40
0.974094683449151
 40
0.974094683449151
 40
0.9912231205224852
 40
0.9912231205224852
 40
0.9997302023639585
 40
0.9997302023639585
 40
1.0
 40
1.0
 40
1.0
 10
116.33882232866461
 20
87.921235723940271
 30
0.0
 10
116.34066276407192
 20
87.920916235781306
 30
0.0
 10
116.34250319947924
 20
87.920596747622341
 30
0.0
 10
116.3978559857019
 20
87.910976250524982
 30
0.0
 10
116.45233729491989
 20
87.901579369138929
 30
0.0
 10
116.50681860413786
 20
87.892182487752862
 30
0.0
 10
116.54795564766583
 20
87.885293125438679
 30
0.0
 10
116.5890926911938
 20
87.878403763124496
 30
0.0
 10
116.64461930523379
 20
87.869358549582699
 30
0.0
 10
116.70014591927377
 20
87.860313336040917
 30
0.0
 10
116.76182746779182
 20
87.851466428399689
 30
0.0
 10
116.82350901630986
 20
87.842619520758461
 30
0.0
 10
116.88943489094208
 20
87.834041197206204
 30
0.0
 10
116.95536076557433
 20
87.825462873653919
 30
0.0
 10
117.00517106309289
 20
87.819322253542012
 30
0.0
 10
117.05498136061146
 20
87.813181633430091
 30
0.0
 10
117.08620843278489
 20
87.809384997577695
 30
0.0
 10
117.11743550495831
 20
87.805588361725285
 30
0.0
 10
117.12769420759759
 20
87.804391339890088
 30
0.0
 10
117.13795291023686
 20
87.803194318054878
 30
0.0
 10
117.14162630697165
 20
87.802775808271235
 30
0.0
 10
117.14529970370643
 20
87.802357298487607
 30
0.0
 10
117.14854796443365
 20
87.801991580917857
 30
0.0
 10
117.14865772960462
 20
87.801979205331293
 30
0.0
 10
117.1487674947756
 20
87.801966829744714
 30
0.0
  0
ARC
  5
1E1
100
AcDbEntity
  8
0
370
              25
  6
Continuous
 62
               7
100
AcDbCircle
 10
102.21030988281902
 20
80.73507158324999
 30
0.0
 40
2.5699120473842427
100
AcDbArc
 50
273.89908076569992
 51
287.34358590210019
  0
ARC
  5
1E2
100
AcDbEntity
  8
0
370
              25
  6
Continuous
 62
               7
100
AcDbCircle
 10
102.87123479806903
 20
79.46781428464999
 30
0.0
 40
1.1904664374066292
100
AcDbArc
 50
264.9317458654001
 51
275.0682541345999
  0
ARC
  5
1E3
100
AcDbEntity
  8
0
370
              25
  6
Continuous
 62
               7
100
AcDbCircle
 10
101.99996179616902
 20
80.735128885099996
 30
0.0
 40
2.5699699473277295
100
AcDbArc
 50
273.89923291299999
 51
287.34343375489999
  0
ARC
  5
1E4
100
AcDbEntity
  8
0
370
              25
  6
Continuous
 62
               7
100
AcDbCircle
 10
102.29744142146902
 20
79.233709374999989
 30
0.0
 40
1.0696640668991859
100
AcDbArc
 50
242.83872724559981
 51
263.41226377710001
  0
ARC
  5
1E5
100
AcDbEntity
  8
0
370
              25
  6
Continuous
 62
               7
100
AcDbCircle
 10
101.63902797661902
 20
81.391019669199991
 30
0.0
 40
3.113667899725221
100
AcDbArc
 50
266.86808314559994
 51
273.13191685439995
  0
ARC
  5
1E6
100
AcDbEntity
  8
0
370
              25
  6
Continuous
 62
               7
100
AcDbCircle
 10
101.95721651061902
 20
79.233724544649988
 30
0.0
 40
1.0696802351872132
100
AcDbArc
 50
242.83881927559992
 51
263.4118473847999
  0
POLYLINE
  5
1E7
100
AcDbEntity
  8
0
370
              25
  6
Continuous
 62
               7
100
AcDb2dPolyline
 66
               1
 10
0.0
 20
0.0
 30
0.0
 75
               5
  0
VERTEX
  5
1E8
100
AcDbEntity
  8
0
370
              25
  6
Continuous
 62
               7
100
AcDbVertex
100
AcDb2dVertex
 10
101.72943704686901
 20
78.180406256149993
 30
0.0
  0
VERTEX
  5
1E9
100
AcDbEntity
  8
0
370
              25
  6
Continuous
 62
               7
100
AcDbVertex
100
AcDb2dVertex
 10
101.75969757996901
 20
78.177277012299996
 30
0.0
  0
VERTEX
  5
1EA
100
AcDbEntity
  8
0
370
              25
  6
Continuous
 62
               7
100
AcDbVertex
100
AcDb2dVertex
 10
101.83449023326901
 20
78.171107931599991
 30
0.0
  0
SEQEND
  5
1EB
100
AcDbEntity
  8
0
370
              25
  6
Continuous
 62
               7
  0
ARC
  5
1EC
100
AcDbEntity
  8
0
370
              25
  6
Continuous
 62
               7
100
AcDbCircle
 10
102.21685855686901
 20
80.713552599299987
 30
0.0
 40
2.5482581398637487
100
AcDbArc
 50
261.37012606040003
 51
266.12906108560003
  0
POLYLINE
  5
1ED
100
AcDbEntity
  8
0
370
              25
  6
Continuous
 62
               7
100
AcDb2dPolyline
 66
               1
 10
0.0
 20
0.0
 30
0.0
 75
               5
  0
VERTEX
  5
1EE
100
AcDbEntity
  8
0
370
              25
  6
Continuous
 62
               7
100
AcDbVertex
100
AcDb2dVertex
 10
102.10977428516901
 20
78.180406256149993
 30
0.0
  0
VERTEX
  5
1EF
100
AcDbEntity
  8
0
370
              25
  6
Continuous
 62
               7
100
AcDbVertex
100
AcDb2dVertex
 10
102.09106960256901
 20
78.177277012299996
 30
0.0
  0
VERTEX
  5
1F0
100
AcDbEntity
  8
0
370
              25
  6
Continuous
 62
               7
100
AcDbVertex
100
AcDb2dVertex
 10
102.04482757411901
 20
78.171107931599991
 30
0.0
  0
SEQEND
  5
1F1
100
AcDbEntity
  8
0
370
              25
  6
Continuous
 62
               7
  0
LINE
  5
1F2
100
AcDbEntity
  8
0
370
              25
  6
Continuous
 62
               7
100
AcDbLine
 10
101.83449023326901
 20
78.269604607049999
 30
0.0
 11
101.83449023326901
 21
78.171107931599991
 31
0.0
  0
LINE
  5
1F3
100
AcDbEntity
  8
0
370
              25
  6
Continuous
 62
               7
100
AcDbLine
 10
102.38506206236902
 20
78.194145126799995
 30
0.0
 11
102.38506206236902
 21
78.171107931599991
 31
0.0
  0
LINE
  5
1F4
100
AcDbEntity
  8
0
370
              25
  6
Continuous
 62
               7
100
AcDbLine
 10
102.04482757411901
 20
78.19408552214999
 30
0.0
 11
102.04482757411901
 21
78.171107931599991
 31
0.0
  0
SPLINE
  5
1F5
100
AcDbEntity
  8
0
370
              25
  6
Continuous
 62
               7
100
AcDbSpline
210
0.0
220
0.0
230
1.0
 70
               8
 71
               2
 72
              26
 73
              23
 74
               0
 42
0.000001
 43
0.000001
 40
0.0
 40
0.0
 40
0.0
 40
0.0029221101113582
 40
0.0029221101113582
 40
0.0906590348815975
 40
0.0906590348815975
 40
0.1851041360070166
 40
0.1851041360070166
 40
0.2925441874988656
 40
0.2925441874988656
 40
0.418910851091412
 40
0.418910851091412
 40
0.5678943864544773
 40
0.5678943864544773
 40
0.711847341738897
 40
0.711847341738897
 40
0.8228426525515016
 40
0.8228426525515016
 40
0.9110065978414067
 40
0.9110065978414067
 40
0.9970564949048586
 40
0.9970564949048586
 40
1.0
 40
1.0
 40
1.0
 10
106.86639630160505
 20
167.08466784521715
 30
0.0
 10
106.87881639608851
 20
167.08389452190625
 30
0.0
 10
106.89123649057197
 20
167.08312119859534
 30
0.0
 10
107.2643993966071
 20
167.06380405030239
 30
0.0
 10
107.63553997533057
 20
167.01903136116121
 30
0.0
 10
108.00668055405404
 20
166.97425867202003
 30
0.0
 10
108.41927683305146
 20
166.84371254454811
 30
0.0
 10
108.83187311204887
 20
166.7131664170762
 30
0.0
 10
109.26270411506412
 20
166.4918453111207
 30
0.0
 10
109.6935351180794
 20
166.27052420516515
 30
0.0
 10
110.16264605253565
 20
165.90470868221917
 30
0.0
 10
110.63175698699192
 20
165.53889315927313
 30
0.0
 10
111.04962882557197
 20
165.00211652794735
 30
0.0
 10
111.46750066415203
 20
164.46533989662154
 30
0.0
 10
111.6918281429073
 20
163.96160912677061
 30
0.0
 10
111.91615562166257
 20
163.45787835691965
 30
0.0
 10
112.02085750191262
 20
163.07638651282053
 30
0.0
 10
112.12555938216265
 20
162.69489466872142
 30
0.0
 10
112.16422465118337
 20
162.3401951901451
 30
0.0
 10
112.2028899202041
 20
161.98549571156877
 30
0.0
 10
112.22181910290919
 20
161.60971048489318
 30
0.0
 10
112.22251878369042
 20
161.59719476789178
 30
0.0
 10
112.22321846447164
 20
161.58467905089034
 30
0.0
  0
LINE
  5
1F6
100
AcDbEntity
  8
0
370
              25
  6
Continuous
 62
               7
100
AcDbLine
 10
106.86639630161901
 20
167.08466784519999
 30
0.0
 11
114.05874350031903
 21
167.08466784519999
 31
0.0
  0
LINE
  5
1F7
100
AcDbEntity
  8
0
370
              25
  6
Continuous
 62
               7
100
AcDbLine
 10
106.86639630161901
 20
79.584661884749991
 30
0.0
 11
114.05874350031903
 21
79.584661884749991
 31
0.0
  0
SPLINE
  5
1F8
100
AcDbEntity
  8
0
370
              25
  6
Continuous
 62
               7
100
AcDbSpline
210
0.0
220
0.0
230
1.0
 70
               8
 71
               2
 72
              26
 73
              23
 74
               0
 42
0.000001
 43
0.000001
 40
0.0
 40
0.0
 40
0.0
 40
0.0021733561053134
 40
0.0021733561053134
 40
0.0697647396408202
 40
0.0697647396408202
 40
0.1500310881671939
 40
0.1500310881671939
 40
0.2676211969101502
 40
0.2676211969101502
 40
0.4243790457767746
 40
0.4243790457767746
 40
0.5856178505831613
 40
0.5856178505831613
 40
0.7278132516245678
 40
0.7278132516245678
 40
0.842481657970525
 40
0.842481657970525
 40
0.9271495358782884
 40
0.9271495358782884
 40
0.9977073126730708
 40
0.9977073126730708
 40
1.0
 40
1.0
 40
1.0
 10
112.22321846447164
 20
85.084680481401818
 30
0.0
 10
112.22282683116015
 20
85.075430922066786
 30
0.0
 10
112.22243519784867
 20
85.06618136273174
 30
0.0
 10
112.21266163872912
 20
84.788522052594899
 30
0.0
 10
112.18845708824323
 20
84.491423111435751
 30
0.0
 10
112.16425253775733
 20
84.194324170276602
 30
0.0
 10
112.07811874895752
 20
83.817216040204613
 30
0.0
 10
111.99198496015771
 20
83.440107910132639
 30
0.0
 10
111.76511708251789
 20
82.866642886717017
 30
0.0
 10
111.53824920487806
 20
82.293177863301381
 30
0.0
 10
111.0906637088417
 20
81.719623189947526
 30
0.0
 10
110.64307821280536
 20
81.146068516593658
 30
0.0
 10
110.13206536373556
 20
80.740826555476218
 30
0.0
 10
109.62105251466576
 20
80.335584594358792
 30
0.0
 10
109.10802743410504
 20
80.099718641435615
 30
0.0
 10
108.59500235354433
 20
79.863852688512438
 30
0.0
 10
108.19363066154729
 20
79.759888786983197
 30
0.0
 10
107.79225896955026
 20
79.655924885453942
 30
0.0
 10
107.48548396511811
 20
79.627171058123096
 30
0.0
 10
107.17870896068598
 20
79.598417230792251
 30
0.0
 10
106.88590577820221
 20
79.585606341863951
 30
0.0
 10
106.87615103990363
 20
79.5851341133083
 30
0.0
 10
106.86639630160505
 20
79.584661884752663
 30
0.0
  0
SPLINE
  5
1F9
100
AcDbEntity
  8
0
370
              25
  6
Continuous
 62
               7
100
AcDbSpline
210
0.0
220
0.0
230
1.0
 70
               8
 71
               2
 72
              26
 73
              23
 74
               0
 42
0.000001
 43
0.000001
 40
0.0
 40
0.0
 40
0.0
 40
0.0024574961651101
 40
0.0024574961651101
 40
0.078963636568006
 40
0.078963636568006
 40
0.1684690548892527
 40
0.1684690548892527
 40
0.2884963950559399
 40
0.2884963950559399
 40
0.4403626852807592
 40
0.4403626852807592
 40
0.5890241988433916
 40
0.5890241988433916
 40
0.7098632309273193
 40
0.7098632309273193
 40
0.8148303382101579
 40
0.8148303382101579
 40
0.9095566456483715
 40
0.9095566456483715
 40
0.9970985402245381
 40
0.9970985402245381
 40
1.0
 40
1.0
 40
1.0
 10
112.02141576371366
 20
161.58467905089034
 30
0.0
 10
112.0209335674768
 20
161.59469974740517
 30
0.0
 10
112.02045137123994
 20
161.60472044392003
 30
0.0
 10
112.00842092047506
 20
161.90557945228551
 30
0.0
 10
111.97855071272355
 20
162.22785143843936
 30
0.0
 10
111.94868050497203
 20
162.55012342459321
 30
0.0
 10
111.84532626707724
 20
162.94547008249103
 30
0.0
 10
111.74197202918245
 20
163.34081674038885
 30
0.0
 10
111.50824267731518
 20
163.8643782233419
 30
0.0
 10
111.27451332544791
 20
164.38793970629496
 30
0.0
 10
110.8490972288582
 20
164.91005741455834
 30
0.0
 10
110.42368113226848
 20
165.43217512282172
 30
0.0
 10
109.98600864173673
 20
165.75860023596516
 30
0.0
 10
109.54833615120498
 20
166.08502534910861
 30
0.0
 10
109.15342727624508
 20
166.28544114864553
 30
0.0
 10
108.75851840128519
 20
166.48585694818246
 30
0.0
 10
108.36098044623418
 20
166.60874189815291
 30
0.0
 10
107.96344249118317
 20
166.73162684812337
 30
0.0
 10
107.60642695865968
 20
166.77273590056461
 30
0.0
 10
107.24941142613619
 20
166.8138449530058
 30
0.0
 10
106.89440512507403
 20
166.83323147346294
 30
0.0
 10
106.88258187080929
 20
166.83394381808483
 30
0.0
 10
106.87075861654455
 20
166.83465616270672
 30
0.0
  0
ARC
  5
1FA
100
AcDbEntity
  8
0
370
              25
  6
Continuous
 62
               7
100
AcDbCircle
 10
103.28575755016902
 20
166.89714737
 30
0.0
 40
3.5855456763073561
100
AcDbArc
 50
359.00136156389999
 51
2.9978800094999087
  0
LINE
  5
1FB
100
AcDbEntity
  8
0
370
              25
  6
Continuous
 62
               7
100
AcDbLine
 10
112.02141576371901
 20
161.58467905089998
 30
0.0
 11
112.22321846446901
 21
161.58467905089998
 31
0.0
  0
LINE
  5
1FC
100
AcDbEntity
  8
0
370
              25
  6
Continuous
 62
               7
100
AcDbLine
 10
109.90977593621901
 20
128.0596591668
 30
0.0
 11
109.90977593621901
 21
161.58467905089998
 31
0.0
  0
ARC
  5
1FD
100
AcDbEntity
  8
0
370
              25
  6
Continuous
 62
               7
100
AcDbCircle
 10
106.60977605541902
 20
161.58466784519999
 30
0.0
 40
3.2999999999999972
100
AcDbArc
 50
0.0
 51
90.0
  0
LINE
  5
1FE
100
AcDbEntity
  8
0
370
              25
  6
Continuous
 62
               7
100
AcDbLine
 10
106.60977595411902
 20
164.88466040654998
 30
0.0
 11
106.58258878551902
 21
164.88466040654998
 31
0.0
  0
LINE
  5
1FF
100
AcDbEntity
  8
0
370
              25
  6
Continuous
 62
               7
100
AcDbLine
 10
106.58258878551902
 20
166.83465616269999
 30
0.0
 11
106.58258878551902
 21
164.88466040654998
 31
0.0
  0
LINE
  5
200
100
AcDbEntity
  8
0
370
              25
  6
Continuous
 62
               7
100
AcDbLine
 10
106.87075861656902
 20
166.83465616269999
 30
0.0
 11
106.58258878551902
 21
166.83465616269999
 31
0.0
  0
LINE
  5
201
100
AcDbEntity
  8
0
370
              25
  6
Continuous
 62
               7
100
AcDbLine
 10
112.02141576371901
 20
128.0596591668
 30
0.0
 11
112.02141576371901
 21
161.58467905089998
 31
0.0
  0
LINE
  5
202
100
AcDbEntity
  8
0
370
              25
  6
Continuous
 62
               7
100
AcDbLine
 10
109.90977593621901
 20
128.0596591668
 30
0.0
 11
112.02141576371901
 21
128.0596591668
 31
0.0
  0
LINE
  5
203
100
AcDbEntity
  8
0
370
              25
  6
Continuous
 62
               7
100
AcDbLine
 10
106.58258878551902
 20
80.584678812449994
 30
0.0
 11
106.60977595411902
 21
80.584678812449994
 31
0.0
  0
ARC
  5
204
100
AcDbEntity
  8
0
370
              25
  6
Continuous
 62
               7
100
AcDbCircle
 10
106.60977605541902
 20
83.884667845199999
 30
0.0
 40
3.3000000000000185
100
AcDbArc
 50
270.0
 51
0.0
  0
LINE
  5
205
100
AcDbEntity
  8
0
370
              25
  6
Continuous
 62
               7
100
AcDbLine
 10
109.90977593621901
 20
83.884660168149992
 30
0.0
 11
109.90977593621901
 21
127.55966560409999
 31
0.0
  0
LINE
  5
206
100
AcDbEntity
  8
0
370
              25
  6
Continuous
 62
               7
100
AcDbLine
 10
109.90977593621901
 20
127.55966560409999
 30
0.0
 11
112.02141576371901
 21
127.55966560409999
 31
0.0
  0
LINE
  5
207
100
AcDbEntity
  8
0
370
              25
  6
Continuous
 62
               7
100
AcDbLine
 10
112.02141576371901
 20
85.0846804814
 30
0.0
 11
112.02141576371901
 21
127.55966560409999
 31
0.0
  0
SPLINE
  5
208
100
AcDbEntity
  8
0
370
              25
  6
Continuous
 62
               7
100
AcDbSpline
210
0.0
220
0.0
230
1.0
 70
               8
 71
               2
 72
              26
 73
              23
 74
               0
 42
0.000001
 43
0.000001
 40
0.0
 40
0.0
 40
0.0
 40
0.0019443239231318
 40
0.0019443239231318
 40
0.0621808240629816
 40
0.0621808240629816
 40
0.1343433311763894
 40
0.1343433311763894
 40
0.2368164886456077
 40
0.2368164886456077
 40
0.3740856904569341
 40
0.3740856904569341
 40
0.5252245236012807
 40
0.5252245236012807
 40
0.6732090088823912
 40
0.6732090088823912
 40
0.8113648475136747
 40
0.8113648475136747
 40
0.9205723817358307
 40
0.9205723817358307
 40
0.997792323863561
 40
0.997792323863561
 40
1.0
 40
1.0
 40
1.0
 10
106.87075861654455
 20
79.834673567263039
 30
0.0
 10
106.87868973342493
 20
79.835001703277698
 30
0.0
 10
106.88662085030532
 20
79.83532983929237
 30
0.0
 10
107.12469034084145
 20
79.843572389896167
 30
0.0
 10
107.37760340649766
 20
79.863409243698584
 30
0.0
 10
107.63051647215383
 20
79.883246097501001
 30
0.0
 10
107.95928508644555
 20
79.954261115710167
 30
0.0
 10
108.28805370073727
 20
80.025276133919334
 30
0.0
 10
108.75733807581716
 20
80.202883595318568
 30
0.0
 10
109.22662245089707
 20
80.380491056717801
 30
0.0
 10
109.74130378286461
 20
80.733657309329033
 30
0.0
 10
110.25598511483213
 20
81.086823561940278
 30
0.0
 10
110.66651530955653
 20
81.545291586971587
 30
0.0
 10
111.07704550428093
 20
82.003759612002881
 30
0.0
 10
111.36407015289988
 20
82.528262765851139
 30
0.0
 10
111.65109480151882
 20
83.052765919699397
 30
0.0
 10
111.80070848060996
 20
83.565705206391243
 30
0.0
 10
111.95032215970109
 20
84.078644493083075
 30
0.0
 10
111.98008494130188
 20
84.437530831946845
 30
0.0
 10
112.00984772290268
 20
84.796417170810628
 30
0.0
 10
112.02062545821721
 20
85.066671685213123
 30
0.0
 10
112.02102061096544
 20
85.075676083307471
 30
0.0
 10
112.02141576371366
 20
85.084680481401818
 30
0.0
  0
LINE
  5
209
100
AcDbEntity
  8
0
370
              25
  6
Continuous
 62
               7
100
AcDbLine
 10
106.58258878551902
 20
79.834673567249993
 30
0.0
 11
106.87075861656902
 21
79.834673567249993
 31
0.0
  0
LINE
  5
20A
100
AcDbEntity
  8
0
370
              25
  6
Continuous
 62
               7
100
AcDbLine
 10
106.58258878551902
 20
80.584678812449994
 30
0.0
 11
106.58258878551902
 21
79.834673567249993
 31
0.0
  0
ARC
  5
20B
100
AcDbEntity
  8
0
370
              25
  6
Continuous
 62
               7
100
AcDbCircle
 10
103.28526028641902
 20
79.772191036449996
 30
0.0
 40
3.5860427133671084
100
AcDbArc
 50
357.00239706799994
 51
0.9983613585998795
  0
LINE
  5
20C
100
AcDbEntity
  8
0
370
              25
  6
Continuous
 62
               7
100
AcDbLine
 10
112.22321846446901
 20
85.0846804814
 30
0.0
 11
112.02141576371901
 21
85.0846804814
 31
0.0
  0
LINE
  5
20D
100
AcDbEntity
  8
0
370
              25
  6
Continuous
 62
               7
100
AcDbLine
 10
106.58258878551902
 20
164.88466040654998
 30
0.0
 11
89.348028683269007
 21
164.88466040654998
 31
0.0
  0
POLYLINE
  5
20E
100
AcDbEntity
  8
0
370
              25
  6
Continuous
 62
               7
100
AcDb2dPolyline
 66
               1
 10
0.0
 20
0.0
 30
0.0
 75
               5
  0
VERTEX
  5
20F
100
AcDbEntity
  8
0
370
              25
  6
Continuous
 62
               7
100
AcDbVertex
100
AcDb2dVertex
 10
89.348028683269007
 20
164.88466040654998
 30
0.0
  0
VERTEX
  5
210
100
AcDbEntity
  8
0
370
              25
  6
Continuous
 62
               7
100
AcDbVertex
100
AcDb2dVertex
 10
89.701551282019011
 20
166.20287673039999
 30
0.0
  0
VERTEX
  5
211
100
AcDbEntity
  8
0
370
              25
  6
Continuous
 62
               7
100
AcDbVertex
100
AcDb2dVertex
 10
89.871007287119014
 20
166.83474556965001
 30
0.0
  0
SEQEND
  5
212
100
AcDbEntity
  8
0
370
              25
  6
Continuous
 62
               7
  0
LINE
  5
213
100
AcDbEntity
  8
0
370
              25
  6
Continuous
 62
               7
100
AcDbLine
 10
106.58258878551902
 20
166.83465616269999
 30
0.0
 11
89.871007287119014
 21
166.83465616269999
 31
0.0
  0
SPLINE
  5
214
100
AcDbEntity
  8
0
370
              25
  6
Continuous
 62
               7
100
AcDbSpline
210
0.0
220
0.0
230
1.0
 70
               8
 71
               2
 72
              24
 73
              21
 74
               0
 42
0.000001
 43
0.000001
 40
0.0
 40
0.0
 40
0.0
 40
0.0003471835775858
 40
0.0003471835775858
 40
0.0211575743552863
 40
0.0211575743552863
 40
0.0534001252268434
 40
0.0534001252268434
 40
0.138421829578132
 40
0.138421829578132
 40
0.2577823726049933
 40
0.2577823726049933
 40
0.4035488827562815
 40
0.4035488827562815
 40
0.6123373116821286
 40
0.6123373116821286
 40
0.8193098629421107
 40
0.8193098629421107
 40
0.9971151308571313
 40
0.9971151308571313
 40
1.0
 40
1.0
 40
1.0
 10
89.88036149106199
 20
167.08466784521715
 30
0.0
 10
89.880348320283446
 20
167.08462643447405
 30
0.0
 10
89.880335149504901
 20
167.08458502373094
 30
0.0
 10
89.879516250835337
 20
167.08221247730597
 30
0.0
 10
89.878919068308988
 20
167.07957583395944
 30
0.0
 10
89.87832188578264
 20
167.07693919061296
 30
0.0
 10
89.877480284836736
 20
167.07163586403499
 30
0.0
 10
89.876638683890846
 20
167.06633253745707
 30
0.0
 10
89.875717836169414
 20
167.05043566816408
 30
0.0
 10
89.874796988447983
 20
167.03453879887115
 30
0.0
 10
89.874241978833595
 20
167.020593525859
 30
0.0
 10
89.873686969219207
 20
167.0066482528469
 30
0.0
 10
89.872977402005091
 20
166.98412623136608
 30
0.0
 10
89.872267834790975
 20
166.96160420988525
 30
0.0
 10
89.871866703012543
 20
166.93187359440572
 30
0.0
 10
89.871465571234097
 20
166.90214297892618
 30
0.0
 10
89.871309318256095
 20
166.88006580801073
 30
0.0
 10
89.871153065278094
 20
166.85798863709527
 30
0.0
 10
89.871033641826628
 20
166.83555712753878
 30
0.0
 10
89.871031640345493
 20
166.83519605208994
 30
0.0
 10
89.871029638864343
 20
166.83483497664116
 30
0.0
  0
LINE
  5
215
100
AcDbEntity
  8
0
370
              25
  6
Continuous
 62
               7
100
AcDbLine
 10
89.88036149106901
 20
167.08466784519999
 30
0.0
 11
106.58477180561901
 21
167.08466784519999
 31
0.0
  0
SPLINE
  5
216
100
AcDbEntity
  8
0
370
              25
  6
Continuous
 62
               7
100
AcDbSpline
210
0.0
220
0.0
230
1.0
 70
               8
 71
               2
 72
              22
 73
              19
 74
               0
 42
0.000001
 43
0.000001
 40
0.0
 40
0.0
 40
0.0
 40
0.0000907535002613
 40
0.0000907535002613
 40
0.0340331632541171
 40
0.0340331632541171
 40
0.1373414363851438
 40
0.1373414363851438
 40
0.2847999410298953
 40
0.2847999410298953
 40
0.4528466363334958
 40
0.4528466363334958
 40
0.6320482318153969
 40
0.6320482318153969
 40
0.8071806032161691
 40
0.8071806032161691
 40
0.9896038466584018
 40
0.9896038466584018
 40
1.0
 40
1.0
 40
1.0
 10
106.58477166986901
 20
167.08466784519999
 30
0.0
 10
106.58476032297992
 20
167.08466784519999
 30
0.0
 10
106.58474897609082
 20
167.08466784519999
 30
0.0
 10
106.58449686106306
 20
167.08420102805712
 30
0.0
 10
106.58420491279227
 20
167.07620654238636
 30
0.0
 10
106.58391296452147
 20
167.06821205671559
 30
0.0
 10
106.58366694955559
 20
167.05037963756081
 30
0.0
 10
106.5834209345897
 20
167.03254721840602
 30
0.0
 10
106.58324671071506
 20
167.01350867669163
 30
0.0
 10
106.58307248684042
 20
166.99447013497723
 30
0.0
 10
106.5829450534947
 20
166.97148811459445
 30
0.0
 10
106.58281762014897
 20
166.94850609421164
 30
0.0
 10
106.58274259459179
 20
166.92667751652431
 30
0.0
 10
106.5826675690346
 20
166.90484893883701
 30
0.0
 10
106.58263039848778
 20
166.88288414899478
 30
0.0
 10
106.58259322794096
 20
166.86091935915255
 30
0.0
 10
106.58258928814402
 20
166.83726750248377
 30
0.0
 10
106.58258928814402
 20
166.83596767384188
 30
0.0
 10
106.58258928814402
 20
166.83466784519999
 30
0.0
  0
LINE
  5
217
100
AcDbEntity
  8
0
370
              25
  6
Continuous
 62
               7
100
AcDbLine
 10
89.348028683269007
 20
79.834673567249993
 30
0.0
 11
106.58258878551902
 21
79.834673567249993
 31
0.0
  0
LINE
  5
218
100
AcDbEntity
  8
0
370
              25
  6
Continuous
 62
               7
100
AcDbLine
 10
89.348028683269007
 20
79.834673567249993
 30
0.0
 11
89.348028683269007
 21
80.434266491399995
 31
0.0
  0
LINE
  5
219
100
AcDbEntity
  8
0
370
              25
  6
Continuous
 62
               7
100
AcDbLine
 10
106.58258878551902
 20
80.584678812449994
 30
0.0
 11
89.348028683269007
 21
80.434266491399995
 31
0.0
  0
LINE
  5
21A
100
AcDbEntity
  8
0
370
              25
  6
Continuous
 62
               7
100
AcDbLine
 10
106.58477180561901
 20
79.584661884749991
 30
0.0
 11
89.356753313169008
 21
79.584661884749991
 31
0.0
  0
ARC
  5
21B
100
AcDbEntity
  8
0
370
              25
  6
Continuous
 62
               7
100
AcDbCircle
 10
91.146970251669018
 20
79.772292958649999
 30
0.0
 40
1.8000228073229618
100
AcDbArc
 50
178.01399104740011
 51
185.98327575570002
  0
SPLINE
  5
21C
100
AcDbEntity
  8
0
370
              25
  6
Continuous
 62
               7
100
AcDbSpline
210
0.0
220
0.0
230
1.0
 70
               8
 71
               2
 72
              22
 73
              19
 74
               0
 42
0.000001
 43
0.000001
 40
0.0
 40
0.0
 40
0.0
 40
0.0056262767887432
 40
0.0056262767887432
 40
0.2271224334753354
 40
0.2271224334753354
 40
0.4148055672029325
 40
0.4148055672029325
 40
0.5713493447941078
 40
0.5713493447941078
 40
0.7112382964351367
 40
0.7112382964351367
 40
0.8366212349170038
 40
0.8366212349170038
 40
0.9454971176101606
 40
0.9454971176101606
 40
0.9999508852654369
 40
0.9999508852654369
 40
1.0
 40
1.0
 40
1.0
 10
106.58258928814402
 20
79.834667845200045
 30
0.0
 10
106.58258928814402
 20
79.833964383008208
 30
0.0
 10
106.58258928814402
 20
79.833260920816357
 30
0.0
 10
106.58259176928635
 20
79.80342883473925
 30
0.0
 10
106.58264635670048
 20
79.777872942507486
 30
0.0
 10
106.58270094411462
 20
79.752317050275721
 30
0.0
 10
106.58278608061727
 20
79.730940528562797
 30
0.0
 10
106.5828712171199
 20
79.70956400684986
 30
0.0
 10
106.58298087638723
 20
79.691795197856933
 30
0.0
 10
106.58309053565455
 20
79.674026388864007
 30
0.0
 10
106.58323732454048
 20
79.656815080940135
 30
0.0
 10
106.5833841134264
 20
79.639603773016248
 30
0.0
 10
106.58357639103491
 20
79.625463314193183
 30
0.0
 10
106.58376866864342
 20
79.611322855370105
 30
0.0
 10
106.58405880612172
 20
79.598241869573584
 30
0.0
 10
106.58434894360003
 20
79.585160883777064
 30
0.0
 10
106.58475938808476
 20
79.584667845199988
 30
0.0
 10
106.58476552897689
 20
79.584667845199988
 30
0.0
 10
106.58477166986901
 20
79.584667845199988
 30
0.0
  0
LINE
  5
21D
100
AcDbEntity
  8
0
370
              25
  6
Continuous
 62
               7
100
AcDbLine
 10
106.58477180561901
 20
167.08466784519999
 30
0.0
 11
106.86639630161901
 21
167.08466784519999
 31
0.0
  0
LINE
  5
21E
100
AcDbEntity
  8
0
370
              25
  6
Continuous
 62
               7
100
AcDbLine
 10
106.86639630161901
 20
79.584661884749991
 30
0.0
 11
106.58477180561901
 21
79.584661884749991
 31
0.0
  0
LINE
  5
21F
100
AcDbEntity
  8
0
370
              25
  6
Continuous
 62
               7
100
AcDbLine
 10
112.22321846446901
 20
161.58467905089998
 30
0.0
 11
112.22321846446901
 21
128.0596591668
 31
0.0
  0
LINE
  5
220
100
AcDbEntity
  8
0
370
              25
  6
Continuous
 62
               7
100
AcDbLine
 10
112.22321846446901
 20
128.0596591668
 30
0.0
 11
112.02141576371901
 21
128.0596591668
 31
0.0
  0
LINE
  5
221
100
AcDbEntity
  8
0
370
              25
  6
Continuous
 62
               7
100
AcDbLine
 10
112.22321846446901
 20
127.55966560409999
 30
0.0
 11
112.22321846446901
 21
85.0846804814
 31
0.0
  0
LINE
  5
222
100
AcDbEntity
  8
0
370
              25
  6
Continuous
 62
               7
100
AcDbLine
 10
112.02141576371901
 20
127.55966560409999
 30
0.0
 11
112.22321846446901
 21
127.55966560409999
 31
0.0
  0
LINE
  5
223
100
AcDbEntity
  8
0
370
              25
  6
Continuous
 62
               7
100
AcDbLine
 10
112.66337268911902
 20
127.55966560409999
 30
0.0
 11
112.66337268911902
 21
86.788836880199995
 31
0.0
  0
SPLINE
  5
224
100
AcDbEntity
  8
0
370
              25
  6
Continuous
 62
               7
100
AcDbSpline
210
0.0
220
0.0
230
1.0
 70
               8
 71
               2
 72
              28
 73
              25
 74
               0
 42
0.000001
 43
0.000001
 40
0.0
 40
0.0
 40
0.0
 40
0.0030352999326243
 40
0.0030352999326243
 40
0.0939399460969984
 40
0.0939399460969984
 40
0.2018526628661908
 40
0.2018526628661908
 40
0.3243243767318743
 40
0.3243243767318743
 40
0.4501739777111179
 40
0.4501739777111179
 40
0.5929691897083743
 40
0.5929691897083743
 40
0.7192782536419681
 40
0.7192782536419681
 40
0.8173811355018654
 40
0.8173811355018654
 40
0.9050967957529287
 40
0.9050967957529287
 40
0.9646419931610026
 40
0.9646419931610026
 40
0.9989901115447225
 40
0.9989901115447225
 40
1.0
 40
1.0
 40
1.0
 10
112.66337268910581
 20
86.788836880175012
 30
0.0
 10
112.66344686333056
 20
86.787433492241448
 30
0.0
 10
112.6635210375553
 20
86.786030104307883
 30
0.0
 10
112.66566827818137
 20
86.743890228817605
 30
0.0
 10
112.66830192847611
 20
86.701988845420658
 30
0.0
 10
112.67093557877085
 20
86.660087462023711
 30
0.0
 10
112.67688029576067
 20
86.602440122920441
 30
0.0
 10
112.68282501275048
 20
86.544792783817172
 30
0.0
 10
112.69569025119924
 20
86.490694038873698
 30
0.0
 10
112.70855548964801
 20
86.43659529393021
 30
0.0
 10
112.72778449403933
 20
86.378721223365559
 30
0.0
 10
112.74701349843065
 20
86.320847152800908
 30
0.0
 10
112.78106580412165
 20
86.25790918732514
 30
0.0
 10
112.81511810981266
 20
86.194971221849372
 30
0.0
 10
112.84523790117578
 20
86.1604255307453
 30
0.0
 10
112.8753576925389
 20
86.125879839641215
 30
0.0
 10
112.90937524196674
 20
86.096203006404423
 30
0.0
 10
112.94339279139457
 20
86.066526173167631
 30
0.0
 10
112.97953033340859
 20
86.056708644453607
 30
0.0
 10
113.01566787542261
 20
86.046891115739612
 30
0.0
 10
113.03333652125141
 20
86.044894218531866
 30
0.0
 10
113.05100516708021
 20
86.042897321324119
 30
0.0
 10
113.06497409182612
 20
86.041630514995688
 30
0.0
 10
113.06543964942097
 20
86.041587080649634
 30
0.0
 10
113.06590520701582
 20
86.041543646303552
 30
0.0
  0
LINE
  5
225
100
AcDbEntity
  8
0
370
              25
  6
Continuous
 62
               7
100
AcDbLine
 10
112.22321846446901
 20
127.55966560409999
 30
0.0
 11
112.66337268911902
 21
127.55966560409999
 31
0.0
  0
LINE
  5
226
100
AcDbEntity
  8
0
370
              25
  6
Continuous
 62
               7
100
AcDbLine
 10
118.35977741441901
 20
128.0596591668
 30
0.0
 11
112.22321846446901
 21
128.0596591668
 31
0.0
  0
LINE
  5
227
100
AcDbEntity
  8
0
370
              25
  6
Continuous
 62
               7
100
AcDbLine
 10
112.01879688461901
 20
128.0596591668
 30
0.0
 11
112.01879688461901
 21
127.55966560409999
 31
0.0
  0
LINE
  5
228
100
AcDbEntity
  8
0
370
              25
  6
Continuous
 62
               7
100
AcDbLine
 10
109.90977593621901
 20
128.0596591668
 30
0.0
 11
109.90977593621901
 21
127.55966560409999
 31
0.0
  0
LINE
  5
229
100
AcDbEntity
  8
0
370
              25
  6
Continuous
 62
               7
100
AcDbLine
 10
112.09951647481901
 20
127.55966560409999
 30
0.0
 11
112.09951647481901
 21
128.0596591668
 31
0.0
  0
SPLINE
  5
22A
100
AcDbEntity
  8
0
370
              25
  6
Continuous
 62
               7
100
AcDbSpline
210
0.0
220
0.0
230
1.0
 70
               8
 71
               2
 72
              26
 73
              23
 74
               0
 42
0.000001
 43
0.000001
 40
0.0
 40
0.0
 40
0.0
 40
0.0000625944158393
 40
0.0000625944158393
 40
0.0068201487724629
 40
0.0068201487724629
 40
0.0262073967665957
 40
0.0262073967665957
 40
0.0733949910599924
 40
0.0733949910599924
 40
0.2033857490279393
 40
0.2033857490279393
 40
0.4224092566331332
 40
0.4224092566331332
 40
0.6357401492054372
 40
0.6357401492054372
 40
0.7949695919520985
 40
0.7949695919520985
 40
0.9116124452103617
 40
0.9116124452103617
 40
0.9947876931788551
 40
0.9947876931788551
 40
1.0
 40
1.0
 40
1.0
 10
118.19224738440687
 20
127.548787756411
 30
0.0
 10
118.19242014001472
 20
127.54878509014959
 30
0.0
 10
118.1925928956226
 20
127.54878242388818
 30
0.0
 10
118.22681717138367
 20
127.54827900606422
 30
0.0
 10
118.1868809034715
 20
127.54888587865767
 30
0.0
 10
118.14694463555935
 20
127.54949275125114
 30
0.0
 10
118.07986365736852
 20
127.55034781753778
 30
0.0
 10
118.01278267917772
 20
127.55120288382443
 30
0.0
 10
117.81937466813133
 20
127.55259078856875
 30
0.0
 10
117.62596665708494
 20
127.55397869331307
 30
0.0
 10
117.10176634226858
 20
127.55515039334632
 30
0.0
 10
116.57756602745219
 20
127.55632209337958
 30
0.0
 10
115.89264873434456
 20
127.55678387687713
 30
0.0
 10
115.20773144123692
 20
127.55724566037469
 30
0.0
 10
114.71495610022039
 20
127.55743646453368
 30
0.0
 10
114.22218075920387
 20
127.55762726869268
 30
0.0
 10
113.83593028842141
 20
127.55772902325359
 30
0.0
 10
113.44967981763895
 20
127.55783077781447
 30
0.0
 10
113.19200364000173
 20
127.55788849196837
 30
0.0
 10
112.93432746236452
 20
127.55794620612225
 30
0.0
 10
112.73283483977934
 20
127.55799035971131
 30
0.0
 10
112.71844757476248
 20
127.55799351687006
 30
0.0
 10
112.70406030974561
 20
127.5579966740288
 30
0.0
  0
LINE
  5
22B
100
AcDbEntity
  8
0
370
              25
  6
Continuous
 62
               7
100
AcDbLine
 10
89.871029638864343
 20
166.8348349766411
 30
0.0
 11
82.650096425034349
 21
166.89941660925524
 31
0.0
  0
SPLINE
  5
22C
100
AcDbEntity
  8
0
370
              25
  6
Continuous
 62
               7
100
AcDbSpline
210
0.0
220
0.0
230
1.0
 70
               8
 71
               2
 72
              26
 73
              23
 74
               0
 42
0.000001
 43
0.000001
 40
0.0
 40
0.0
 40
0.0
 40
0.0019643377739258
 40
0.0019643377739258
 40
0.0960865954893136
 40
0.0960865954893136
 40
0.1934894725846921
 40
0.1934894725846921
 40
0.3214777124068798
 40
0.3214777124068798
 40
0.4566354235093387
 40
0.4566354235093387
 40
0.5668477712038668
 40
0.5668477712038668
 40
0.6727932825464716
 40
0.6727932825464716
 40
0.7891303267967971
 40
0.7891303267967971
 40
0.8921961837363196
 40
0.8921961837363196
 40
0.9980354612521988
 40
0.9980354612521988
 40
1.0
 40
1.0
 40
1.0
 10
82.891564154245202
 20
167.08466784521715
 30
0.0
 10
82.891244342516771
 20
167.08463748352261
 30
0.0
 10
82.89092453078834
 20
167.08460712182807
 30
0.0
 10
82.873626165041088
 20
167.08307030336942
 30
0.0
 10
82.860312422462627
 20
167.08136906430934
 30
0.0
 10
82.84699867988418
 20
167.07966782524926
 30
0.0
 10
82.828858717097162
 20
167.07634132509239
 30
0.0
 10
82.810718754310145
 20
167.07301482493551
 30
0.0
 10
82.789286194680344
 20
167.06305205641411
 30
0.0
 10
82.767853635050557
 20
167.0530892878927
 30
0.0
 10
82.750832669425648
 20
167.04136147373271
 30
0.0
 10
82.73381170380074
 20
167.02963365957274
 30
0.0
 10
82.722556656070793
 20
167.01906216157039
 30
0.0
 10
82.711301608340861
 20
167.00849066356801
 30
0.0
 10
82.698479854998226
 20
166.99416211277139
 30
0.0
 10
82.685658101655591
 20
166.97983356197477
 30
0.0
 10
82.677112977227949
 20
166.9628211776371
 30
0.0
 10
82.668567852800308
 20
166.94580879329942
 30
0.0
 10
82.662870691979009
 20
166.93227677240014
 30
0.0
 10
82.657173531157724
 20
166.9187447515009
 30
0.0
 10
82.650320754835988
 20
166.90001874388327
 30
0.0
 10
82.650208589935175
 20
166.89971767656925
 30
0.0
 10
82.650096425034349
 20
166.89941660925524
 30
0.0
  0
LINE
  5
22D
100
AcDbEntity
  8
0
370
              25
  6
Continuous
 62
               7
100
AcDbLine
 10
82.891564154245202
 20
167.08466784521721
 30
0.0
 11
89.88036149106199
 21
167.08466784521715
 31
0.0
  0
LINE
  5
22E
100
AcDbEntity
  8
0
370
              25
  6
Continuous
 62
               7
100
AcDbLine
 10
106.57095470391901
 20
164.75963966414997
 30
0.0
 11
106.57095470391901
 21
164.88466040654998
 31
0.0
  0
LINE
  5
22F
100
AcDbEntity
  8
0
370
              25
  6
Continuous
 62
               7
100
AcDbLine
 10
108.91630434356901
 20
81.524584455949991
 30
0.0
 11
108.91630434356901
 21
81.701073809099995
 31
0.0
  0
LINE
  5
230
100
AcDbEntity
  8
0
370
              25
  6
Continuous
 62
               7
100
AcDbLine
 10
82.650096425019015
 20
166.89941660925001
 30
0.0
 11
82.172026195719013
 21
165.11679069565
 31
0.0
  0
LINE
  5
231
100
AcDbEntity
  8
0
370
              25
  6
Continuous
 62
               7
100
AcDbLine
 10
82.809775405742471
 20
164.88466040655749
 30
0.0
 11
82.172026195742433
 21
165.11679069563525
 31
0.0
  0
LINE
  5
232
100
AcDbEntity
  8
0
370
              25
  6
Continuous
 62
               7
100
AcDbLine
 10
82.809775405742471
 20
164.88466040655749
 30
0.0
 11
89.348028683282678
 21
164.88466040655749
 31
0.0
  0
LINE
  5
233
100
AcDbEntity
  8
0
370
              25
  6
Continuous
 62
               7
100
AcDbLine
 10
106.57035493216901
 20
164.88466040654998
 30
0.0
 11
106.57031767926901
 21
164.75963966414997
 31
0.0
  0
LINE
  5
234
100
AcDbEntity
  8
0
370
              25
  6
Continuous
 62
               7
100
AcDbLine
 10
82.109776594869018
 20
79.834673567249993
 30
0.0
 11
89.348028683269007
 21
79.834673567249993
 31
0.0
  0
LINE
  5
235
100
AcDbEntity
  8
0
370
              25
  6
Continuous
 62
               7
100
AcDbLine
 10
82.109776594869018
 20
80.371085567899996
 30
0.0
 11
82.109776594869018
 21
79.834673567249993
 31
0.0
  0
POLYLINE
  5
236
100
AcDbEntity
  8
0
370
              25
  6
Continuous
 62
               7
100
AcDb2dPolyline
 66
               1
 10
0.0
 20
0.0
 30
0.0
 75
               5
  0
VERTEX
  5
237
100
AcDbEntity
  8
0
370
              25
  6
Continuous
 62
               7
100
AcDbVertex
100
AcDb2dVertex
 10
82.109776594869018
 20
80.371085567899996
 30
0.0
  0
VERTEX
  5
238
100
AcDbEntity
  8
0
370
              25
  6
Continuous
 62
               7
100
AcDbVertex
100
AcDb2dVertex
 10
82.149057918419018
 20
80.371443195799998
 30
0.0
  0
VERTEX
  5
239
100
AcDbEntity
  8
0
370
              25
  6
Continuous
 62
               7
100
AcDbVertex
100
AcDb2dVertex
 10
82.266490244469011
 20
80.372456474749995
 30
0.0
  0
VERTEX
  5
23A
100
AcDbEntity
  8
0
370
              25
  6
Continuous
 62
               7
100
AcDbVertex
100
AcDb2dVertex
 10
82.460846089919016
 20
80.374155207149997
 30
0.0
  0
VERTEX
  5
23B
100
AcDbEntity
  8
0
370
              25
  6
Continuous
 62
               7
100
AcDbVertex
100
AcDb2dVertex
 10
82.73008772096901
 20
80.376509590599994
 30
0.0
  0
VERTEX
  5
23C
100
AcDbEntity
  8
0
370
              25
  6
Continuous
 62
               7
100
AcDbVertex
100
AcDb2dVertex
 10
83.071393230169008
 20
80.37948982284999
 30
0.0
  0
VERTEX
  5
23D
100
AcDbEntity
  8
0
370
              25
  6
Continuous
 62
               7
100
AcDbVertex
100
AcDb2dVertex
 10
83.481190064169013
 20
80.383066101499992
 30
0.0
  0
VERTEX
  5
23E
100
AcDbEntity
  8
0
370
              25
  6
Continuous
 62
               7
100
AcDbVertex
100
AcDb2dVertex
 10
83.955182963219016
 20
80.387208624349995
 30
0.0
  0
VERTEX
  5
23F
100
AcDbEntity
  8
0
370
              25
  6
Continuous
 62
               7
100
AcDbVertex
100
AcDb2dVertex
 10
84.488409840669021
 20
80.391857786599999
 30
0.0
  0
VERTEX
  5
240
100
AcDbEntity
  8
0
370
              25
  6
Continuous
 62
               7
100
AcDbVertex
100
AcDb2dVertex
 10
85.075282761069019
 20
80.396983786049987
 30
0.0
  0
VERTEX
  5
241
100
AcDbEntity
  8
0
370
              25
  6
Continuous
 62
               7
100
AcDbVertex
100
AcDb2dVertex
 10
85.709654995419015
 20
80.402527018049994
 30
0.0
  0
VERTEX
  5
242
100
AcDbEntity
  8
0
370
              25
  6
Continuous
 62
               7
100
AcDbVertex
100
AcDb2dVertex
 10
86.384882488469017
 20
80.408398075549997
 30
0.0
  0
VERTEX
  5
243
100
AcDbEntity
  8
0
370
              25
  6
Continuous
 62
               7
100
AcDbVertex
100
AcDb2dVertex
 10
87.09388905131901
 20
80.414596958599986
 30
0.0
  0
VERTEX
  5
244
100
AcDbEntity
  8
0
370
              25
  6
Continuous
 62
               7
100
AcDbVertex
100
AcDb2dVertex
 10
87.829250180319008
 20
80.421004457899997
 30
0.0
  0
VERTEX
  5
245
100
AcDbEntity
  8
0
370
              25
  6
Continuous
 62
               7
100
AcDbVertex
100
AcDb2dVertex
 10
88.58326383791902
 20
80.427590771149994
 30
0.0
  0
VERTEX
  5
246
100
AcDbEntity
  8
0
370
              25
  6
Continuous
 62
               7
100
AcDbVertex
100
AcDb2dVertex
 10
89.348028683269007
 20
80.434266491399995
 30
0.0
  0
SEQEND
  5
247
100
AcDbEntity
  8
0
370
              25
  6
Continuous
 62
               7
  0
ARC
  5
248
100
AcDbEntity
  8
0
370
              25
  6
Continuous
 62
               7
100
AcDbCircle
 10
82.359776055419019
 20
79.834667845199988
 30
0.0
 40
0.25
100
AcDbArc
 50
180.0
 51
270.0
  0
LINE
  5
249
100
AcDbEntity
  8
0
370
              25
  6
Continuous
 62
               7
100
AcDbLine
 10
89.356753313169008
 20
79.584661884749991
 30
0.0
 11
82.35977523886902
 21
79.584661884749991
 31
0.0
  0
LINE
  5
24A
100
AcDbEntity
  8
0
370
              25
  6
Continuous
 62
               7
100
AcDbLine
 10
108.90992664656901
 20
81.518385572899987
 30
0.0
 11
108.90992664656901
 21
81.694308681949991
 31
0.0
  0
ARC
  5
24B
100
AcDbEntity
  8
0
370
              25
  6
Continuous
 62
               7
100
AcDbCircle
 10
112.81917845241901
 20
86.051652833499986
 30
0.0
 40
0.246933770657067
100
AcDbArc
 50
357.65372037509997
 51
71.010357320900368
  0
LINE
  5
24C
100
AcDbEntity
  8
0
370
              25
  6
Continuous
 62
               7
100
AcDbLine
 10
112.70406030976901
 20
127.55966560409999
 30
0.0
 11
112.66337268911902
 21
127.55966560409999
 31
0.0
  0
LINE
  5
24D
100
AcDbEntity
  8
0
370
              25
  6
Continuous
 62
               7
100
AcDbLine
 10
117.35869132838423
 20
127.48465315863264
 30
0.0
 11
113.90126430354292
 21
127.48465315863264
 31
0.0
  0
LINE
  5
24E
100
AcDbEntity
  8
0
370
              25
  6
Continuous
 62
               7
100
AcDbLine
 10
82.811958425869022
 20
164.75966946644999
 30
0.0
 11
82.809775405719023
 21
164.88466040654998
 31
0.0
  0
SPLINE
  5
24F
100
AcDbEntity
  8
0
370
              25
  6
Continuous
 62
               7
100
AcDbSpline
210
0.0
220
0.0
230
1.0
 70
               8
 71
               2
 72
              20
 73
              17
 74
               0
 42
0.000001
 43
0.000001
 40
0.0
 40
0.0
 40
0.0
 40
0.0062763396986034
 40
0.0062763396986034
 40
0.2125405719456173
 40
0.2125405719456173
 40
0.407870188084042
 40
0.407870188084042
 40
0.6023353918907233
 40
0.6023353918907233
 40
0.7721552266535229
 40
0.7721552266535229
 40
0.8922497200163922
 40
0.8922497200163922
 40
0.9963084444120004
 40
0.9963084444120004
 40
1.0
 40
1.0
 40
1.0
 10
112.89953001699621
 20
86.28514782950063
 30
0.0
 10
112.90694102001778
 20
86.28533355824915
 30
0.0
 10
112.91435202303936
 20
86.285519286997669
 30
0.0
 10
113.16678450745384
 20
86.291844000333128
 30
0.0
 10
113.4014588091311
 20
86.297739726850892
 30
0.0
 10
113.63613311080834
 20
86.303635453368656
 30
0.0
 10
113.86273984609929
 20
86.309427986198386
 30
0.0
 10
114.0893465813902
 20
86.315220519028131
 30
0.0
 10
114.32197923395015
 20
86.32107618168493
 30
0.0
 10
114.55461188651007
 20
86.326931844341729
 30
0.0
 10
114.72303128091818
 20
86.330674065077815
 30
0.0
 10
114.8914506753263
 20
86.334416285813916
 30
0.0
 10
115.00666531808054
 20
86.336809285894844
 30
0.0
 10
115.12187996083478
 20
86.339202285975773
 30
0.0
 10
115.25243290828979
 20
86.341834362987271
 30
0.0
 10
115.25679231648192
 20
86.341922511801812
 30
0.0
 10
115.26115172467405
 20
86.342010660616353
 30
0.0
  0
SPLINE
  5
250
100
AcDbEntity
  8
0
370
              25
  6
Continuous
 62
               7
100
AcDbSpline
210
0.0
220
0.0
230
1.0
 70
               8
 71
               2
 72
              24
 73
              21
 74
               0
 42
0.000001
 43
0.000001
 40
0.0
 40
0.0
 40
0.0
 40
0.0001367093366618
 40
0.0001367093366618
 40
0.0073897505076944
 40
0.0073897505076944
 40
0.0511079971428969
 40
0.0511079971428969
 40
0.1635490485001497
 40
0.1635490485001497
 40
0.3350477672120409
 40
0.3350477672120409
 40
0.5663245940882021
 40
0.5663245940882021
 40
0.793762559579825
 40
0.793762559579825
 40
0.9333395511888052
 40
0.9333395511888052
 40
0.9987141479812471
 40
0.9987141479812471
 40
1.0
 40
1.0
 40
1.0
 10
117.35956304631407
 20
87.734673185793298
 30
0.0
 10
117.35924509790846
 20
87.734659807309185
 30
0.0
 10
117.35892714950283
 20
87.734646428825059
 30
0.0
 10
117.35045309795689
 20
87.734256719534287
 30
0.0
 10
117.32519210342647
 20
87.733177697387433
 30
0.0
 10
117.29993110889608
 20
87.732098675240564
 30
0.0
 10
117.12167706964964
 20
87.731102533444982
 30
0.0
 10
116.94342303040318
 20
87.730106391649386
 30
0.0
 10
116.59820550558142
 20
87.732238537193481
 30
0.0
 10
116.25298798075966
 20
87.734370682737577
 30
0.0
 10
115.79978882340416
 20
87.735435451096805
 30
0.0
 10
115.34658966604866
 20
87.736500219456033
 30
0.0
 10
114.72306482759107
 20
87.73599615189471
 30
0.0
 10
114.09953998913349
 20
87.735492084333387
 30
0.0
 10
113.66421242913682
 20
87.735172495360302
 30
0.0
 10
113.22888486914017
 20
87.734852906387204
 30
0.0
 10
113.01440249278909
 20
87.734789732618481
 30
0.0
 10
112.799920116438
 20
87.734726558849758
 30
0.0
 10
112.71004667996819
 20
87.734704481957962
 30
0.0
 10
112.70705349485689
 20
87.734703735036831
 30
0.0
 10
112.70406030974561
 20
87.734702988115686
 30
0.0
  0
ARC
  5
251
100
AcDbEntity
  8
0
370
              25
  6
Continuous
 62
               7
100
AcDbCircle
 10
106.10977605541902
 20
82.58061782339999
 30
0.0
 40
1.9999999999999971
100
AcDbArc
 50
270.50000000000006
 51
286.60600531320011
  0
LINE
  5
252
100
AcDbEntity
  8
0
370
              25
  6
Continuous
 62
               7
100
AcDbLine
 10
82.650096425019015
 20
166.89941660925001
 30
0.0
 11
82.65009642516398
 21
166.89941661018042
 31
0.0
  0
SPLINE
  5
253
100
AcDbEntity
  8
0
370
              25
  6
Continuous
 62
               7
100
AcDbSpline
210
0.0
220
0.0
230
1.0
 70
               8
 71
               2
 72
              26
 73
              23
 74
               0
 42
0.000001
 43
0.000001
 40
0.0
 40
0.0
 40
0.0
 40
0.0019643377739258
 40
0.0019643377739258
 40
0.0960865954893136
 40
0.0960865954893136
 40
0.1934894725846921
 40
0.1934894725846921
 40
0.3214777124068798
 40
0.3214777124068798
 40
0.4566354235093387
 40
0.4566354235093387
 40
0.5668477712038668
 40
0.5668477712038668
 40
0.6727932825464716
 40
0.6727932825464716
 40
0.7891303267967971
 40
0.7891303267967971
 40
0.8921961837363196
 40
0.8921961837363196
 40
0.9980354612521988
 40
0.9980354612521988
 40
1.0
 40
1.0
 40
1.0
 10
82.891564154245202
 20
167.08466784521715
 30
0.0
 10
82.891244342516771
 20
167.08463748352261
 30
0.0
 10
82.89092453078834
 20
167.08460712182807
 30
0.0
 10
82.873626165041088
 20
167.08307030336942
 30
0.0
 10
82.860312422462627
 20
167.08136906430934
 30
0.0
 10
82.84699867988418
 20
167.07966782524926
 30
0.0
 10
82.828858717097162
 20
167.07634132509239
 30
0.0
 10
82.810718754310145
 20
167.07301482493551
 30
0.0
 10
82.789286194680344
 20
167.06305205641411
 30
0.0
 10
82.767853635050557
 20
167.0530892878927
 30
0.0
 10
82.750832669425648
 20
167.04136147373271
 30
0.0
 10
82.73381170380074
 20
167.02963365957274
 30
0.0
 10
82.722556656070793
 20
167.01906216157039
 30
0.0
 10
82.711301608340861
 20
167.00849066356801
 30
0.0
 10
82.698479854998226
 20
166.99416211277139
 30
0.0
 10
82.685658101655591
 20
166.97983356197477
 30
0.0
 10
82.677112977227949
 20
166.9628211776371
 30
0.0
 10
82.668567852800308
 20
166.94580879329942
 30
0.0
 10
82.662870691979009
 20
166.93227677240014
 30
0.0
 10
82.657173531157724
 20
166.9187447515009
 30
0.0
 10
82.650320754835988
 20
166.90001874388327
 30
0.0
 10
82.650208589935175
 20
166.89971767656925
 30
0.0
 10
82.650096425034349
 20
166.89941660925524
 30
0.0
  0
LINE
  5
254
100
AcDbEntity
  8
0
370
              25
  6
Continuous
 62
               7
100
AcDbLine
 10
82.89156415426902
 20
167.08466784519999
 30
0.0
 11
82.891564154416386
 21
167.08466784613228
 31
0.0
  0
LINE
  5
255
100
AcDbEntity
  8
0
370
              25
  6
Continuous
 62
               7
100
AcDbLine
 10
102.10977428516901
 20
79.511437578649989
 30
0.0
 11
102.10977428516901
 21
79.584661884749991
 31
0.0
  0
LINE
  5
256
100
AcDbEntity
  8
0
370
              25
  6
Continuous
 62
               7
100
AcDbLine
 10
102.10977428516901
 20
79.511437578649989
 30
0.0
 11
87.111053326369017
 21
79.511437578649989
 31
0.0
  0
POLYLINE
  5
257
100
AcDbEntity
  8
0
370
              25
  6
Continuous
 62
               7
100
AcDb2dPolyline
 66
               1
 10
0.0
 20
0.0
 30
0.0
 75
               5
  0
VERTEX
  5
258
100
AcDbEntity
  8
0
370
              25
  6
Continuous
 62
               7
100
AcDbVertex
100
AcDb2dVertex
 10
87.111053326369017
 20
79.511437578649989
 30
0.0
  0
VERTEX
  5
259
100
AcDbEntity
  8
0
370
              25
  6
Continuous
 62
               7
100
AcDbVertex
100
AcDb2dVertex
 10
87.110511296619023
 20
79.5425214009
 30
0.0
  0
VERTEX
  5
25A
100
AcDbEntity
  8
0
370
              25
  6
Continuous
 62
               7
100
AcDbVertex
100
AcDb2dVertex
 10
87.110108965269021
 20
79.565648003049986
 30
0.0
  0
VERTEX
  5
25B
100
AcDbEntity
  8
0
370
              25
  6
Continuous
 62
               7
100
AcDbVertex
100
AcDb2dVertex
 10
87.109859370819009
 20
79.579863710849992
 30
0.0
  0
VERTEX
  5
25C
100
AcDbEntity
  8
0
370
              25
  6
Continuous
 62
               7
100
AcDbVertex
100
AcDb2dVertex
 10
87.109775551769019
 20
79.584661884749991
 30
0.0
  0
SEQEND
  5
25D
100
AcDbEntity
  8
0
370
              25
  6
Continuous
 62
               7
  0
LINE
  5
25E
100
AcDbEntity
  8
0
370
              25
  6
Continuous
 62
               7
100
AcDbLine
 10
87.121588447319013
 20
78.907880945649993
 30
0.0
 11
102.10977428516901
 21
78.907880945649993
 31
0.0
  0
LINE
  5
25F
100
AcDbEntity
  8
0
370
              25
  6
Continuous
 62
               7
100
AcDbLine
 10
102.10977428516901
 20
79.511437578649989
 30
0.0
 11
102.10977428516901
 21
78.907880945649993
 31
0.0
  0
LINE
  5
260
100
AcDbEntity
  8
0
370
              25
  6
Continuous
 62
               7
100
AcDbLine
 10
87.121588447319013
 20
78.907880945649993
 30
0.0
 11
87.111053326369017
 21
79.511437578649989
 31
0.0
  0
LINE
  5
261
100
AcDbEntity
  8
0
370
              25
  6
Continuous
 62
               7
100
AcDbLine
 10
102.10977428516901
 20
78.834656639549991
 30
0.0
 11
87.122868084519013
 21
78.834656639549991
 31
0.0
  0
LINE
  5
262
100
AcDbEntity
  8
0
370
              25
  6
Continuous
 62
               7
100
AcDbLine
 10
102.10977428516901
 20
78.834656639549991
 30
0.0
 11
102.10977428516901
 21
78.907880945649993
 31
0.0
  0
POLYLINE
  5
263
100
AcDbEntity
  8
0
370
              25
  6
Continuous
 62
               7
100
AcDb2dPolyline
 66
               1
 10
0.0
 20
0.0
 30
0.0
 75
               5
  0
VERTEX
  5
264
100
AcDbEntity
  8
0
370
              25
  6
Continuous
 62
               7
100
AcDbVertex
100
AcDb2dVertex
 10
87.122868084519013
 20
78.834656639549991
 30
0.0
  0
VERTEX
  5
265
100
AcDbEntity
  8
0
370
              25
  6
Continuous
 62
               7
100
AcDbVertex
100
AcDb2dVertex
 10
87.122784265519016
 20
78.839484615749996
 30
0.0
  0
VERTEX
  5
266
100
AcDbEntity
  8
0
370
              25
  6
Continuous
 62
               7
100
AcDbVertex
100
AcDb2dVertex
 10
87.122534671069019
 20
78.853700323549987
 30
0.0
  0
VERTEX
  5
267
100
AcDbEntity
  8
0
370
              25
  6
Continuous
 62
               7
100
AcDbVertex
100
AcDb2dVertex
 10
87.122132339669008
 20
78.876797123399996
 30
0.0
  0
VERTEX
  5
268
100
AcDbEntity
  8
0
370
              25
  6
Continuous
 62
               7
100
AcDbVertex
100
AcDb2dVertex
 10
87.121588447319013
 20
78.907880945649993
 30
0.0
  0
SEQEND
  5
269
100
AcDbEntity
  8
0
370
              25
  6
Continuous
 62
               7
  0
LINE
  5
26A
100
AcDbEntity
  8
0
370
              25
  6
Continuous
 62
               7
100
AcDbLine
 10
104.48122330866902
 20
78.834656639549991
 30
0.0
 11
102.10977428516901
 21
78.834656639549991
 31
0.0
  0
SPLINE
  5
26B
100
AcDbEntity
  8
0
370
              25
  6
Continuous
 62
               7
100
AcDbSpline
210
0.0
220
0.0
230
1.0
 70
               8
 71
               2
 72
              28
 73
              25
 74
               0
 42
0.000001
 43
0.000001
 40
0.0
 40
0.0
 40
0.0
 40
0.0020978621252203
 40
0.0020978621252203
 40
0.1151397736805033
 40
0.1151397736805033
 40
0.1961290918914996
 40
0.1961290918914996
 40
0.2806352799259996
 40
0.2806352799259996
 40
0.4002891021586817
 40
0.4002891021586817
 40
0.5384809749596125
 40
0.5384809749596125
 40
0.6782668096778763
 40
0.6782668096778763
 40
0.7998627413970274
 40
0.7998627413970274
 40
0.8842043901843443
 40
0.8842043901843443
 40
0.9441997394532122
 40
0.9441997394532122
 40
0.999112974157772
 40
0.999112974157772
 40
1.0
 40
1.0
 40
1.0
 10
100.22806310019666
 20
80.529216690508278
 30
0.0
 10
100.228318211779
 20
80.52924445591816
 30
0.0
 10
100.22857332336135
 20
80.529272221328043
 30
0.0
 10
100.24442622924309
 20
80.530880538263887
 30
0.0
 10
100.25602668539575
 20
80.532581143918605
 30
0.0
 10
100.2676271415484
 20
80.534281749573324
 30
0.0
 10
100.2755547241313
 20
80.535911014398721
 30
0.0
 10
100.28348230671418
 20
80.537540279224118
 30
0.0
 10
100.2955686901027
 20
80.541061875307946
 30
0.0
 10
100.30765507349119
 20
80.544583471391789
 30
0.0
 10
100.32251264206116
 20
80.552367691848758
 30
0.0
 10
100.33737021063112
 20
80.560151912305727
 30
0.0
 10
100.35118584129911
 20
80.570215116666247
 30
0.0
 10
100.36500147196709
 20
80.580278321026753
 30
0.0
 10
100.37725707337984
 20
80.592293839648974
 30
0.0
 10
100.3895126747926
 20
80.604309358271195
 30
0.0
 10
100.3964137353266
 20
80.614966239720999
 30
0.0
 10
100.40331479586061
 20
80.625623121170804
 30
0.0
 10
100.40647801451784
 20
80.632950290561297
 30
0.0
 10
100.40964123317508
 20
80.64027745995179
 30
0.0
 10
100.4117429887294
 20
80.646643526644183
 30
0.0
 10
100.41384474428371
 20
80.653009593336577
 30
0.0
 10
100.415787927168
 20
80.659453894164045
 30
0.0
 10
100.41581959300991
 20
80.659557674881654
 30
0.0
 10
100.41585125885183
 20
80.659661455599263
 30
0.0
  0
LINE
  5
26C
100
AcDbEntity
  8
0
370
              25
  6
Continuous
 62
               7
100
AcDbLine
 10
82.059775748469008
 20
149.55968038604999
 30
0.0
 11
81.659776427969007
 21
149.55968038604999
 31
0.0
  0
LINE
  5
26D
100
AcDbEntity
  8
0
370
              25
  6
Continuous
 62
               7
100
AcDbLine
 10
81.659776427969007
 20
97.109679146249988
 30
0.0
 11
82.059775748469008
 21
97.109679146249988
 31
0.0
  0
LINE
  5
26E
100
AcDbEntity
  8
0
370
              25
  6
Continuous
 62
               7
100
AcDbLine
 10
81.659776427969007
 20
149.55968038604999
 30
0.0
 11
81.659776427969007
 21
97.109679146249988
 31
0.0
  0
ARC
  5
26F
100
AcDbEntity
  8
0
370
              25
  6
Continuous
 62
               7
100
AcDbCircle
 10
106.51075591016902
 20
83.958679777499995
 30
0.0
 40
3.2990184826958235
100
AcDbArc
 50
270.01788868700004
 51
0.0172431038999434
  0
LINE
  5
270
100
AcDbEntity
  8
0
370
              25
  6
Continuous
 62
               7
100
AcDbLine
 10
89.276208811619014
 20
80.659661455599988
 30
0.0
 11
106.51178591811902
 21
80.659661455599988
 31
0.0
  0
LINE
  5
271
100
AcDbEntity
  8
0
370
              25
  6
Continuous
 62
               7
100
AcDbLine
 10
89.298031562169015
 20
81.909660263499987
 30
0.0
 11
89.276208811619014
 21
80.659661455599988
 31
0.0
  0
LINE
  5
272
100
AcDbEntity
  8
0
370
              25
  6
Continuous
 62
               7
100
AcDbLine
 10
89.298031562169015
 20
164.75966946644999
 30
0.0
 11
89.298031562169015
 21
81.909660263499987
 31
0.0
  0
LINE
  5
273
100
AcDbEntity
  8
0
370
              25
  6
Continuous
 62
               7
100
AcDbLine
 10
106.55977510771902
 20
164.75966946644999
 30
0.0
 11
89.298031562169015
 21
164.75966946644999
 31
0.0
  0
LINE
  5
274
100
AcDbEntity
  8
0
370
              25
  6
Continuous
 62
               7
100
AcDbLine
 10
109.80977424346901
 20
161.50966660544998
 30
0.0
 11
109.80977424346901
 21
83.959672613599992
 31
0.0
  0
ARC
  5
275
100
AcDbEntity
  8
0
370
              25
  6
Continuous
 62
               7
100
AcDbCircle
 10
106.55977605541901
 20
161.5096678452
 30
0.0
 40
3.2500000000000071
100
AcDbArc
 50
0.0
 51
90.0
  0
LINE
  5
276
100
AcDbEntity
  8
0
370
              25
  6
Continuous
 62
               7
100
AcDbLine
 10
82.059775748469008
 20
80.659661455599988
 30
0.0
 11
82.059775748469008
 21
164.75966946644999
 31
0.0
  0
LINE
  5
277
100
AcDbEntity
  8
0
370
              25
  6
Continuous
 62
               7
100
AcDbLine
 10
89.276208811619014
 20
80.659661455599988
 30
0.0
 11
82.059775748469008
 21
80.659661455599988
 31
0.0
  0
LINE
  5
278
100
AcDbEntity
  8
0
370
              25
  6
Continuous
 62
               7
100
AcDbLine
 10
82.059775748469008
 20
164.75966946644999
 30
0.0
 11
89.298031562169015
 21
164.75966946644999
 31
0.0
  0
ARC
  5
279
100
AcDbEntity
  8
0
370
              25
  6
Continuous
 62
               7
100
AcDbCircle
 10
106.05977605541901
 20
85.159667845199991
 30
0.0
 40
4.5000000000000115
100
AcDbArc
 50
307.66988696430002
 51
309.29898610880008
  0
SPLINE
  5
27A
100
AcDbEntity
  8
0
370
              25
  6
Continuous
 62
               8
100
AcDbSpline
210
0.0
220
0.0
230
1.0
 70
               8
 71
               2
 72
              20
 73
              17
 74
               0
 42
0.000001
 43
0.000001
 40
0.0
 40
0.0
 40
0.0
 40
0.0011755216756875
 40
0.0011755216756875
 40
0.1536891575286687
 40
0.1536891575286687
 40
0.3097074439058887
 40
0.3097074439058887
 40
0.4556943949121656
 40
0.4556943949121656
 40
0.5930726680737635
 40
0.5930726680737635
 40
0.7625364184045078
 40
0.7625364184045078
 40
0.9978610522704303
 40
0.9978610522704303
 40
1.0
 40
1.0
 40
1.0
 10
113.84577610454733
 20
127.4846531586327
 30
0.0
 10
113.84575050525473
 20
127.48459896480227
 30
0.0
 10
113.84572490596213
 20
127.48454477097184
 30
0.0
 10
113.84243568235287
 20
127.47777574962008
 30
0.0
 10
113.83936093103623
 20
127.47035792058031
 30
0.0
 10
113.83628617971958
 20
127.46294009154053
 30
0.0
 10
113.83436592263526
 20
127.45526986736159
 30
0.0
 10
113.83244566555094
 20
127.44759964318264
 30
0.0
 10
113.83129497098116
 20
127.44070936692576
 30
0.0
 10
113.8301442764114
 20
127.43381909066888
 30
0.0
 10
113.82937270594604
 20
127.42683571489046
 30
0.0
 10
113.8286011354807
 20
127.41985233911204
 30
0.0
 10
113.82788501042242
 20
127.40962082607045
 30
0.0
 10
113.82716888536416
 20
127.39938931302886
 30
0.0
 10
113.82661173007926
 20
127.38565912683998
 30
0.0
 10
113.8266068827302
 20
127.38555017712201
 30
0.0
 10
113.82660203538114
 20
127.38544122740404
 30
0.0
  0
LINE
  5
27B
100
AcDbEntity
  8
0
370
              25
  6
Continuous
 62
               8
100
AcDbLine
 10
116.70187794526902
 20
87.731901569799987
 30
0.0
 11
116.39141597711901
 21
87.784145040949994
 31
0.0
  0
LINE
  5
27C
100
AcDbEntity
  8
0
370
              25
  6
Continuous
 62
               8
100
AcDbLine
 10
101.40976988636902
 20
78.734073801499989
 30
0.0
 11
103.44098069631902
 21
78.734073801499989
 31
0.0
  0
LINE
  5
27D
100
AcDbEntity
  8
0
370
              25
  6
Continuous
 62
               8
100
AcDbLine
 10
100.77857159931901
 20
78.734073801499989
 30
0.0
 11
101.40976988636902
 21
78.734073801499989
 31
0.0
  0
LINE
  5
27E
100
AcDbEntity
  8
0
370
              25
  6
Continuous
 62
               8
100
AcDbLine
 10
103.08173605166903
 20
78.297320766899986
 30
0.0
 11
101.13781624396901
 21
78.297320766899986
 31
0.0
  0
LINE
  5
27F
100
AcDbEntity
  8
0
370
              25
  6
Continuous
 62
               8
100
AcDbLine
 10
112.22321846446901
 20
161.58467905089998
 30
0.0
 11
118.35977741441901
 21
161.58467905089998
 31
0.0
  0
LINE
  5
280
100
AcDbEntity
  8
0
370
              25
  6
Continuous
 62
               8
100
AcDbLine
 10
112.22321846446901
 20
85.0846804814
 30
0.0
 11
118.35977741441901
 21
85.0846804814
 31
0.0
  0
SPLINE
  5
281
100
AcDbEntity
  8
0
370
              25
  6
Continuous
 62
               8
100
AcDbSpline
210
0.0
220
0.0
230
1.0
 70
               8
 71
               2
 72
              22
 73
              19
 74
               0
 42
0.000001
 43
0.000001
 40
0.0
 40
0.0
 40
0.0
 40
0.0001325044023387
 40
0.0001325044023387
 40
0.0071410404833206
 40
0.0071410404833206
 40
0.0511414931721712
 40
0.0511414931721712
 40
0.2539535436836048
 40
0.2539535436836048
 40
0.5151924899860909
 40
0.5151924899860909
 40
0.706532239541291
 40
0.706532239541291
 40
0.8703311926682659
 40
0.8703311926682659
 40
0.996258620763637
 40
0.996258620763637
 40
1.0
 40
1.0
 40
1.0
 10
118.35977741441901
 20
86.157862110582727
 30
0.0
 10
118.35942830243117
 20
86.157897652539219
 30
0.0
 10
118.35907919044332
 20
86.157933194495712
 30
0.0
 10
118.34922346824675
 20
86.159054059577215
 30
0.0
 10
118.32210298733891
 20
86.161195043186439
 30
0.0
 10
118.29498250643107
 20
86.163336026795662
 30
0.0
 10
118.08947939181452
 20
86.175347412000377
 30
0.0
 10
117.88397627719797
 20
86.187358797205093
 30
0.0
 10
117.01570935721207
 20
86.159384615796782
 30
0.0
 10
116.14744243722618
 20
86.131410434388471
 30
0.0
 10
115.63270816892799
 20
86.115468625027347
 30
0.0
 10
115.11797390062982
 20
86.099526815666223
 30
0.0
 10
114.61969874294287
 20
86.085095891189013
 30
0.0
 10
114.12142358525591
 20
86.070664966711789
 30
0.0
 10
113.75245842677748
 20
86.060462086743698
 30
0.0
 10
113.38349326829905
 20
86.050259206775593
 30
0.0
 10
113.08571461621254
 20
86.042087685524947
 30
0.0
 10
113.07580991161419
 20
86.041815665914257
 30
0.0
 10
113.06590520701582
 20
86.041543646303552
 30
0.0
  0
LINE
  5
282
100
AcDbEntity
  8
0
370
              25
  6
Continuous
 62
               8
100
AcDbLine
 10
89.37253736816902
 20
164.75966946644999
 30
0.0
 11
89.372459137069015
 21
164.88466040654998
 31
0.0
  0
LINE
  5
283
100
AcDbEntity
  8
0
370
              25
  6
Continuous
 62
               8
100
AcDbLine
 10
112.89953001701902
 20
86.285147829499991
 30
0.0
 11
112.85618998966902
 21
86.292419596149983
 31
0.0
  0
LINE
  5
284
100
AcDbEntity
  8
0
370
              25
  6
Continuous
 62
               8
100
AcDbLine
 10
112.66337268911902
 20
86.788836880199995
 30
0.0
 11
112.70402678211902
 21
86.788836880199995
 31
0.0
  0
LINE
  5
285
100
AcDbEntity
  8
0
370
              25
  6
Continuous
 62
               8
100
AcDbLine
 10
112.89953001701902
 20
86.285147829499991
 30
0.0
 11
112.85500162206901
 21
86.298678083849993
 31
0.0
  0
SPLINE
  5
286
100
AcDbEntity
  8
0
370
              25
  6
Continuous
 62
               8
100
AcDbSpline
210
0.0
220
0.0
230
1.0
 70
               8
 71
               2
 72
              30
 73
              27
 74
               0
 42
0.000001
 43
0.000001
 40
0.0
 40
0.0
 40
0.0
 40
0.0034178941587809
 40
0.0034178941587809
 40
0.1523390818004463
 40
0.1523390818004463
 40
0.2967877874147268
 40
0.2967877874147268
 40
0.4582798468115795
 40
0.4582798468115795
 40
0.6182193044974391
 40
0.6182193044974391
 40
0.7460106077032442
 40
0.7460106077032442
 40
0.8480324821516799
 40
0.8480324821516799
 40
0.9209401497997627
 40
0.9209401497997627
 40
0.9595153715352256
 40
0.9595153715352256
 40
0.9805755108284566
 40
0.9805755108284566
 40
0.9937882703333616
 40
0.9937882703333616
 40
0.9999999395862054
 40
0.9999999395862054
 40
1.0
 40
1.0
 40
1.0
 10
115.26115172467405
 20
86.342010660616296
 30
0.0
 10
115.26641987687299
 20
86.342128223317232
 30
0.0
 10
115.27168802907191
 20
86.342245786018168
 30
0.0
 10
115.51630579249272
 20
86.347800242514182
 30
0.0
 10
115.73077256058272
 20
86.352172141291518
 30
0.0
 10
115.94523932867271
 20
86.356544040068854
 30
0.0
 10
116.17610496477928
 20
86.359955101167998
 30
0.0
 10
116.40697060088584
 20
86.363366162267141
 30
0.0
 10
116.67403103710723
 20
86.36497197214662
 30
0.0
 10
116.9410914733286
 20
86.366577782026084
 30
0.0
 10
117.16719252279482
 20
86.36509376929628
 30
0.0
 10
117.39329357226104
 20
86.363609756566476
 30
0.0
 10
117.56117935242534
 20
86.359265826979865
 30
0.0
 10
117.72906513258965
 20
86.35492189739324
 30
0.0
 10
117.87548417255114
 20
86.346571485871408
 30
0.0
 10
118.02190321251263
 20
86.338221074349576
 30
0.0
 10
118.09950923789769
 20
86.328534261467809
 30
0.0
 10
118.17711526328276
 20
86.318847448586041
 30
0.0
 10
118.21742797020016
 20
86.312964905710956
 30
0.0
 10
118.25774067711755
 20
86.307082362835871
 30
0.0
 10
118.28174793556245
 20
86.304036512042373
 30
0.0
 10
118.30575519400733
 20
86.300990661248875
 30
0.0
 10
118.32214484628206
 20
86.2987546199235
 30
0.0
 10
118.33853449855678
 20
86.296518578598139
 30
0.0
 10
118.31782710665132
 20
86.296472712006789
 30
0.0
 10
118.31782701350966
 20
86.296472712007358
 30
0.0
 10
118.31782692036802
 20
86.296472712007898
 30
0.0
  0
LINE
  5
287
100
AcDbEntity
  8
0
370
              25
  6
Continuous
 62
               8
100
AcDbLine
 10
105.26155241691902
 20
79.511437578649989
 30
0.0
 11
102.10977428516901
 21
79.511437578649989
 31
0.0
  0
LINE
  5
288
100
AcDbEntity
  8
0
370
              25
  6
Continuous
 62
               8
100
AcDbLine
 10
102.10977428516901
 20
78.907880945649993
 30
0.0
 11
104.65799950916902
 21
78.907880945649993
 31
0.0
  0
ARC
  5
289
100
AcDbEntity
  8
0
370
              25
  6
Continuous
 62
               8
100
AcDbCircle
 10
97.78744123701901
 20
80.604942624149999
 30
0.0
 40
2.9179236995358178
100
AcDbArc
 50
358.59426110709984
 51
1.0745112645998915
  0
LINE
  5
28A
100
AcDbEntity
  8
0
370
              25
  6
Continuous
 62
               7
100
AcDbLine
 10
149.45326710826902
 20
195.71157214344998
 30
0.0
 11
149.952962647719
 21
195.69411915839999
 31
0.0
  0
LINE
  5
28B
100
AcDbEntity
  8
0
370
              25
  6
Continuous
 62
               7
100
AcDbLine
 10
150.04896896666901
 20
199.69320711795001
 30
0.0
 11
149.59286491161902
 21
199.70913273395001
 31
0.0
  0
LINE
  5
28C
100
AcDbEntity
  8
0
370
              25
  6
Continuous
 62
               7
100
AcDbLine
 10
190.36391342766902
 20
199.70913273395001
 30
0.0
 11
189.907809372619
 21
199.69320711795001
 31
0.0
  0
LINE
  5
28D
100
AcDbEntity
  8
0
370
              25
  6
Continuous
 62
               7
100
AcDbLine
 10
190.00381569151901
 20
195.69411915839999
 30
0.0
 11
190.50351123101902
 21
195.71157214344998
 31
0.0
  0
LINE
  5
28E
100
AcDbEntity
  8
0
370
              25
  6
Continuous
 62
               7
100
AcDbLine
 10
190.653420637919
 20
195.7168061763
 30
0.0
 11
190.94276766066901
 21
196.02709305585
 31
0.0
  0
LINE
  5
28F
100
AcDbEntity
  8
0
370
              25
  6
Continuous
 62
               7
100
AcDbLine
 10
190.824109714119
 20
199.42501974404999
 30
0.0
 11
190.513822834569
 21
199.71437049209999
 31
0.0
  0
LINE
  5
290
100
AcDbEntity
  8
0
370
              25
  6
Continuous
 62
               7
100
AcDbLine
 10
190.50351123101902
 20
195.71157214344998
 30
0.0
 11
190.653420637919
 21
195.7168061763
 31
0.0
  0
LINE
  5
291
100
AcDbEntity
  8
0
370
              25
  6
Continuous
 62
               7
100
AcDbLine
 10
190.513822834569
 20
199.71437049209999
 30
0.0
 11
190.36391342766902
 21
199.70913273395001
 31
0.0
  0
LINE
  5
292
100
AcDbEntity
  8
0
370
              25
  6
Continuous
 62
               7
100
AcDbLine
 10
149.44295550471901
 20
199.71437049209999
 30
0.0
 11
149.132668625169
 21
199.42501974404999
 31
0.0
  0
LINE
  5
293
100
AcDbEntity
  8
0
370
              25
  6
Continuous
 62
               7
100
AcDbLine
 10
149.014010678619
 20
196.02709305585
 30
0.0
 11
149.30335770136901
 21
195.7168061763
 31
0.0
  0
LINE
  5
294
100
AcDbEntity
  8
0
370
              25
  6
Continuous
 62
               7
100
AcDbLine
 10
149.59286491161902
 20
199.70913273395001
 30
0.0
 11
149.44295550471901
 21
199.71437049209999
 31
0.0
  0
LINE
  5
295
100
AcDbEntity
  8
0
370
              25
  6
Continuous
 62
               7
100
AcDbLine
 10
149.30335770136901
 20
195.7168061763
 30
0.0
 11
149.45326710826902
 21
195.71157214344998
 31
0.0
  0
LINE
  5
296
100
AcDbEntity
  8
0
370
              25
  6
Continuous
 62
               7
100
AcDbLine
 10
149.45370669251901
 20
195.7241785258
 30
0.0
 11
149.45326710826902
 21
195.71157214344998
 31
0.0
  0
POLYLINE
  5
297
100
AcDbEntity
  8
0
370
              25
  6
Continuous
 62
               7
100
AcDb2dPolyline
 66
               1
 10
0.0
 20
0.0
 30
0.0
 75
               5
  0
VERTEX
  5
298
100
AcDbEntity
  8
0
370
              25
  6
Continuous
 62
               7
100
AcDbVertex
100
AcDb2dVertex
 10
149.59286491161902
 20
199.70913273395001
 30
0.0
  0
VERTEX
  5
299
100
AcDbEntity
  8
0
370
              25
  6
Continuous
 62
               7
100
AcDbVertex
100
AcDb2dVertex
 10
149.59261904246901
 20
199.70209193529999
 30
0.0
  0
VERTEX
  5
29A
100
AcDbEntity
  8
0
370
              25
  6
Continuous
 62
               7
100
AcDbVertex
100
AcDb2dVertex
 10
149.59013986176902
 20
199.63111397924999
 30
0.0
  0
VERTEX
  5
29B
100
AcDbEntity
  8
0
370
              25
  6
Continuous
 62
               7
100
AcDbVertex
100
AcDb2dVertex
 10
149.58508464281903
 20
199.48632684649999
 30
0.0
  0
VERTEX
  5
29C
100
AcDbEntity
  8
0
370
              25
  6
Continuous
 62
               7
100
AcDbVertex
100
AcDb2dVertex
 10
149.57764523811903
 20
199.27328867019997
 30
0.0
  0
VERTEX
  5
29D
100
AcDbEntity
  8
0
370
              25
  6
Continuous
 62
               7
100
AcDbVertex
100
AcDb2dVertex
 10
149.56810849496901
 20
199.00018391315001
 30
0.0
  0
VERTEX
  5
29E
100
AcDbEntity
  8
0
370
              25
  6
Continuous
 62
               7
100
AcDbVertex
100
AcDb2dVertex
 10
149.55683949176901
 20
198.67751416864999
 30
0.0
  0
VERTEX
  5
29F
100
AcDbEntity
  8
0
370
              25
  6
Continuous
 62
               7
100
AcDbVertex
100
AcDb2dVertex
 10
149.54427408761902
 20
198.31767720285001
 30
0.0
  0
VERTEX
  5
2A0
100
AcDbEntity
  8
0
370
              25
  6
Continuous
 62
               7
100
AcDbVertex
100
AcDb2dVertex
 10
149.53089284486902
 20
197.9345012933
 30
0.0
  0
VERTEX
  5
2A1
100
AcDbEntity
  8
0
370
              25
  6
Continuous
 62
               7
100
AcDbVertex
100
AcDb2dVertex
 10
149.51721171621901
 20
197.54271251264998
 30
0.0
  0
VERTEX
  5
2A2
100
AcDbEntity
  8
0
370
              25
  6
Continuous
 62
               7
100
AcDbVertex
100
AcDb2dVertex
 10
149.50375410501903
 20
197.15736475885001
 30
0.0
  0
VERTEX
  5
2A3
100
AcDbEntity
  8
0
370
              25
  6
Continuous
 62
               7
100
AcDbVertex
100
AcDb2dVertex
 10
149.49103968926903
 20
196.79326606094997
 30
0.0
  0
VERTEX
  5
2A4
100
AcDbEntity
  8
0
370
              25
  6
Continuous
 62
               7
100
AcDbVertex
100
AcDb2dVertex
 10
149.47955648191902
 20
196.46441233454999
 30
0.0
  0
VERTEX
  5
2A5
100
AcDbEntity
  8
0
370
              25
  6
Continuous
 62
               7
100
AcDbVertex
100
AcDb2dVertex
 10
149.469744067269
 20
196.18343976439999
 30
0.0
  0
VERTEX
  5
2A6
100
AcDbEntity
  8
0
370
              25
  6
Continuous
 62
               7
100
AcDbVertex
100
AcDb2dVertex
 10
149.46198242491903
 20
195.9611442417
 30
0.0
  0
VERTEX
  5
2A7
100
AcDbEntity
  8
0
370
              25
  6
Continuous
 62
               7
100
AcDbVertex
100
AcDb2dVertex
 10
149.45656771546902
 20
195.80607158244999
 30
0.0
  0
VERTEX
  5
2A8
100
AcDbEntity
  8
0
370
              25
  6
Continuous
 62
               7
100
AcDbVertex
100
AcDb2dVertex
 10
149.45370669251901
 20
195.7241785258
 30
0.0
  0
SEQEND
  5
2A9
100
AcDbEntity
  8
0
370
              25
  6
Continuous
 62
               7
  0
POLYLINE
  5
2AA
100
AcDbEntity
  8
0
370
              25
  6
Continuous
 62
               7
100
AcDb2dPolyline
 66
               1
 10
0.0
 20
0.0
 30
0.0
 75
               5
  0
VERTEX
  5
2AB
100
AcDbEntity
  8
0
370
              25
  6
Continuous
 62
               7
100
AcDbVertex
100
AcDb2dVertex
 10
190.50351123101902
 20
195.71157214344998
 30
0.0
  0
VERTEX
  5
2AC
100
AcDbEntity
  8
0
370
              25
  6
Continuous
 62
               7
100
AcDbVertex
100
AcDb2dVertex
 10
190.50260412281904
 20
195.73756349384999
 30
0.0
  0
VERTEX
  5
2AD
100
AcDbEntity
  8
0
370
              25
  6
Continuous
 62
               7
100
AcDbVertex
100
AcDb2dVertex
 10
190.49909117406901
 20
195.83815005719998
 30
0.0
  0
VERTEX
  5
2AE
100
AcDbEntity
  8
0
370
              25
  6
Continuous
 62
               7
100
AcDbVertex
100
AcDb2dVertex
 10
190.49306551701903
 20
196.0106831521
 30
0.0
  0
VERTEX
  5
2AF
100
AcDbEntity
  8
0
370
              25
  6
Continuous
 62
               7
100
AcDbVertex
100
AcDb2dVertex
 10
190.48475998231902
 20
196.24853548704999
 30
0.0
  0
VERTEX
  5
2B0
100
AcDbEntity
  8
0
370
              25
  6
Continuous
 62
               7
100
AcDbVertex
100
AcDb2dVertex
 10
190.474493082219
 20
196.54256519974999
 30
0.0
  0
VERTEX
  5
2B1
100
AcDbEntity
  8
0
370
              25
  6
Continuous
 62
               7
100
AcDbVertex
100
AcDb2dVertex
 10
190.46265783496904
 20
196.88146975935001
 30
0.0
  0
VERTEX
  5
2B2
100
AcDbEntity
  8
0
370
              25
  6
Continuous
 62
               7
100
AcDbVertex
100
AcDb2dVertex
 10
190.449710588519
 20
197.2522292763
 30
0.0
  0
VERTEX
  5
2B3
100
AcDbEntity
  8
0
370
              25
  6
Continuous
 62
               7
100
AcDbVertex
100
AcDb2dVertex
 10
190.43614866916903
 20
197.64059451520001
 30
0.0
  0
VERTEX
  5
2B4
100
AcDbEntity
  8
0
370
              25
  6
Continuous
 62
               7
100
AcDbVertex
100
AcDb2dVertex
 10
190.42249361761901
 20
198.03164196314998
 30
0.0
  0
VERTEX
  5
2B5
100
AcDbEntity
  8
0
370
              25
  6
Continuous
 62
               7
100
AcDbVertex
100
AcDb2dVertex
 10
190.409268837019
 20
198.41034007370001
 30
0.0
  0
VERTEX
  5
2B6
100
AcDbEntity
  8
0
370
              25
  6
Continuous
 62
               7
100
AcDbVertex
100
AcDb2dVertex
 10
190.39698282961902
 20
198.76213786304999
 30
0.0
  0
VERTEX
  5
2B7
100
AcDbEntity
  8
0
370
              25
  6
Continuous
 62
               7
100
AcDbVertex
100
AcDb2dVertex
 10
190.38611056991903
 20
199.07351625264999
 30
0.0
  0
VERTEX
  5
2B8
100
AcDbEntity
  8
0
370
              25
  6
Continuous
 62
               7
100
AcDbVertex
100
AcDb2dVertex
 10
190.37706556506902
 20
199.33250961005001
 30
0.0
  0
VERTEX
  5
2B9
100
AcDbEntity
  8
0
370
              25
  6
Continuous
 62
               7
100
AcDbVertex
100
AcDb2dVertex
 10
190.37019799236901
 20
199.52916768494998
 30
0.0
  0
VERTEX
  5
2BA
100
AcDbEntity
  8
0
370
              25
  6
Continuous
 62
               7
100
AcDbVertex
100
AcDb2dVertex
 10
190.365772347519
 20
199.65592441259997
 30
0.0
  0
VERTEX
  5
2BB
100
AcDbEntity
  8
0
370
              25
  6
Continuous
 62
               7
100
AcDbVertex
100
AcDb2dVertex
 10
190.36395626851902
 20
199.70791456404999
 30
0.0
  0
VERTEX
  5
2BC
100
AcDbEntity
  8
0
370
              25
  6
Continuous
 62
               7
100
AcDbVertex
100
AcDb2dVertex
 10
190.36391342766902
 20
199.70913273395001
 30
0.0
  0
SEQEND
  5
2BD
100
AcDbEntity
  8
0
370
              25
  6
Continuous
 62
               7
  0
POLYLINE
  5
2BE
100
AcDbEntity
  8
0
370
              25
  6
Continuous
 62
               7
100
AcDb2dPolyline
 66
               1
 10
0.0
 20
0.0
 30
0.0
 75
               5
  0
VERTEX
  5
2BF
100
AcDbEntity
  8
0
370
              25
  6
Continuous
 62
               7
100
AcDbVertex
100
AcDb2dVertex
 10
190.939169030269
 20
196.13014948665
 30
0.0
  0
VERTEX
  5
2C0
100
AcDbEntity
  8
0
370
              25
  6
Continuous
 62
               7
100
AcDbVertex
100
AcDb2dVertex
 10
190.93372079321901
 20
196.28617954555
 30
0.0
  0
VERTEX
  5
2C1
100
AcDbEntity
  8
0
370
              25
  6
Continuous
 62
               7
100
AcDbVertex
100
AcDb2dVertex
 10
190.926074634869
 20
196.5051372081
 30
0.0
  0
VERTEX
  5
2C2
100
AcDbEntity
  8
0
370
              25
  6
Continuous
 62
               7
100
AcDbVertex
100
AcDb2dVertex
 10
190.916563968719
 20
196.77745592894999
 30
0.0
  0
VERTEX
  5
2C3
100
AcDbEntity
  8
0
370
              25
  6
Continuous
 62
               7
100
AcDbVertex
100
AcDb2dVertex
 10
190.90560788996902
 20
197.0912296802
 30
0.0
  0
VERTEX
  5
2C4
100
AcDbEntity
  8
0
370
              25
  6
Continuous
 62
               7
100
AcDbVertex
100
AcDb2dVertex
 10
190.893681373069
 20
197.4327531189
 30
0.0
  0
VERTEX
  5
2C5
100
AcDbEntity
  8
0
370
              25
  6
Continuous
 62
               7
100
AcDbVertex
100
AcDb2dVertex
 10
190.88130782131901
 20
197.78709155619998
 30
0.0
  0
VERTEX
  5
2C6
100
AcDbEntity
  8
0
370
              25
  6
Continuous
 62
               7
100
AcDbVertex
100
AcDb2dVertex
 10
190.86902553921902
 20
198.13876641094998
 30
0.0
  0
VERTEX
  5
2C7
100
AcDbEntity
  8
0
370
              25
  6
Continuous
 62
               7
100
AcDbVertex
100
AcDb2dVertex
 10
190.857374693819
 20
198.4723996848
 30
0.0
  0
VERTEX
  5
2C8
100
AcDbEntity
  8
0
370
              25
  6
Continuous
 62
               7
100
AcDbVertex
100
AcDb2dVertex
 10
190.84686378721904
 20
198.77341804209999
 30
0.0
  0
VERTEX
  5
2C9
100
AcDbEntity
  8
0
370
              25
  6
Continuous
 62
               7
100
AcDbVertex
100
AcDb2dVertex
 10
190.83795103021902
 20
199.02866003214999
 30
0.0
  0
VERTEX
  5
2CA
100
AcDbEntity
  8
0
370
              25
  6
Continuous
 62
               7
100
AcDbVertex
100
AcDb2dVertex
 10
190.83102571551902
 20
199.22697213589998
 30
0.0
  0
VERTEX
  5
2CB
100
AcDbEntity
  8
0
370
              25
  6
Continuous
 62
               7
100
AcDbVertex
100
AcDb2dVertex
 10
190.82639145441902
 20
199.3596856028
 30
0.0
  0
VERTEX
  5
2CC
100
AcDbEntity
  8
0
370
              25
  6
Continuous
 62
               7
100
AcDbVertex
100
AcDb2dVertex
 10
190.82424941246902
 20
199.42100388109998
 30
0.0
  0
VERTEX
  5
2CD
100
AcDbEntity
  8
0
370
              25
  6
Continuous
 62
               7
100
AcDbVertex
100
AcDb2dVertex
 10
190.824109714119
 20
199.42501974404999
 30
0.0
  0
SEQEND
  5
2CE
100
AcDbEntity
  8
0
370
              25
  6
Continuous
 62
               7
  0
POLYLINE
  5
2CF
100
AcDbEntity
  8
0
370
              25
  6
Continuous
 62
               7
100
AcDb2dPolyline
 66
               1
 10
0.0
 20
0.0
 30
0.0
 75
               5
  0
VERTEX
  5
2D0
100
AcDbEntity
  8
0
370
              25
  6
Continuous
 62
               7
100
AcDbVertex
100
AcDb2dVertex
 10
190.94276766066901
 20
196.02709305585
 30
0.0
  0
VERTEX
  5
2D1
100
AcDbEntity
  8
0
370
              25
  6
Continuous
 62
               7
100
AcDbVertex
100
AcDb2dVertex
 10
190.942180927469
 20
196.04387176335001
 30
0.0
  0
VERTEX
  5
2D2
100
AcDbEntity
  8
0
370
              25
  6
Continuous
 62
               7
100
AcDbVertex
100
AcDb2dVertex
 10
190.939169030269
 20
196.13014948665
 30
0.0
  0
SEQEND
  5
2D3
100
AcDbEntity
  8
0
370
              25
  6
Continuous
 62
               7
  0
POLYLINE
  5
2D4
100
AcDbEntity
  8
0
370
              25
  6
Continuous
 62
               7
100
AcDb2dPolyline
 66
               1
 10
0.0
 20
0.0
 30
0.0
 75
               5
  0
VERTEX
  5
2D5
100
AcDbEntity
  8
0
370
              25
  6
Continuous
 62
               7
100
AcDbVertex
100
AcDb2dVertex
 10
190.64918684546902
 20
195.83804947434999
 30
0.0
  0
VERTEX
  5
2D6
100
AcDbEntity
  8
0
370
              25
  6
Continuous
 62
               7
100
AcDbVertex
100
AcDb2dVertex
 10
190.64325618331901
 20
196.00787055789999
 30
0.0
  0
VERTEX
  5
2D7
100
AcDbEntity
  8
0
370
              25
  6
Continuous
 62
               7
100
AcDbVertex
100
AcDb2dVertex
 10
190.63503446766902
 20
196.24331635534998
 30
0.0
  0
VERTEX
  5
2D8
100
AcDbEntity
  8
0
370
              25
  6
Continuous
 62
               7
100
AcDbVertex
100
AcDb2dVertex
 10
190.62483648546902
 20
196.53534186184999
 30
0.0
  0
VERTEX
  5
2D9
100
AcDbEntity
  8
0
370
              25
  6
Continuous
 62
               7
100
AcDbVertex
100
AcDb2dVertex
 10
190.61305525486901
 20
196.87272650304999
 30
0.0
  0
VERTEX
  5
2DA
100
AcDbEntity
  8
0
370
              25
  6
Continuous
 62
               7
100
AcDbVertex
100
AcDb2dVertex
 10
190.60014153606903
 20
197.24249881805
 30
0.0
  0
VERTEX
  5
2DB
100
AcDbEntity
  8
0
370
              25
  6
Continuous
 62
               7
100
AcDbVertex
100
AcDb2dVertex
 10
190.586594517869
 20
197.63045054974998
 30
0.0
  0
VERTEX
  5
2DC
100
AcDbEntity
  8
0
370
              25
  6
Continuous
 62
               7
100
AcDbVertex
100
AcDb2dVertex
 10
190.572932015719
 20
198.0216768116
 30
0.0
  0
VERTEX
  5
2DD
100
AcDbEntity
  8
0
370
              25
  6
Continuous
 62
               7
100
AcDbVertex
100
AcDb2dVertex
 10
190.55968115811902
 20
198.40113860669999
 30
0.0
  0
VERTEX
  5
2DE
100
AcDbEntity
  8
0
370
              25
  6
Continuous
 62
               7
100
AcDbVertex
100
AcDb2dVertex
 10
190.54735044726903
 20
198.75425514879998
 30
0.0
  0
VERTEX
  5
2DF
100
AcDbEntity
  8
0
370
              25
  6
Continuous
 62
               7
100
AcDbVertex
100
AcDb2dVertex
 10
190.53641299491903
 20
199.06745520534997
 30
0.0
  0
VERTEX
  5
2E0
100
AcDbEntity
  8
0
370
              25
  6
Continuous
 62
               7
100
AcDbVertex
100
AcDb2dVertex
 10
190.527289758969
 20
199.32870608869999
 30
0.0
  0
VERTEX
  5
2E1
100
AcDbEntity
  8
0
370
              25
  6
Continuous
 62
               7
100
AcDbVertex
100
AcDb2dVertex
 10
190.52033091671902
 20
199.52796441614998
 30
0.0
  0
VERTEX
  5
2E2
100
AcDbEntity
  8
0
370
              25
  6
Continuous
 62
               7
100
AcDbVertex
100
AcDb2dVertex
 10
190.51580468901903
 20
199.65757471619997
 30
0.0
  0
VERTEX
  5
2E3
100
AcDbEntity
  8
0
370
              25
  6
Continuous
 62
               7
100
AcDbVertex
100
AcDb2dVertex
 10
190.513886164469
 20
199.71255627574999
 30
0.0
  0
VERTEX
  5
2E4
100
AcDbEntity
  8
0
370
              25
  6
Continuous
 62
               7
100
AcDbVertex
100
AcDb2dVertex
 10
190.513822834569
 20
199.71437049209999
 30
0.0
  0
SEQEND
  5
2E5
100
AcDbEntity
  8
0
370
              25
  6
Continuous
 62
               7
  0
POLYLINE
  5
2E6
100
AcDbEntity
  8
0
370
              25
  6
Continuous
 62
               7
100
AcDb2dPolyline
 66
               1
 10
0.0
 20
0.0
 30
0.0
 75
               5
  0
VERTEX
  5
2E7
100
AcDbEntity
  8
0
370
              25
  6
Continuous
 62
               7
100
AcDbVertex
100
AcDb2dVertex
 10
190.653420637919
 20
195.7168061763
 30
0.0
  0
VERTEX
  5
2E8
100
AcDbEntity
  8
0
370
              25
  6
Continuous
 62
               7
100
AcDbVertex
100
AcDb2dVertex
 10
190.65259734876901
 20
195.74037981334999
 30
0.0
  0
VERTEX
  5
2E9
100
AcDbEntity
  8
0
370
              25
  6
Continuous
 62
               7
100
AcDbVertex
100
AcDb2dVertex
 10
190.64918684546902
 20
195.83804947434999
 30
0.0
  0
SEQEND
  5
2EA
100
AcDbEntity
  8
0
370
              25
  6
Continuous
 62
               7
  0
POLYLINE
  5
2EB
100
AcDbEntity
  8
0
370
              25
  6
Continuous
 62
               7
100
AcDb2dPolyline
 66
               1
 10
0.0
 20
0.0
 30
0.0
 75
               5
  0
VERTEX
  5
2EC
100
AcDbEntity
  8
0
370
              25
  6
Continuous
 62
               7
100
AcDbVertex
100
AcDb2dVertex
 10
190.49927743856901
 20
195.83281544149997
 30
0.0
  0
VERTEX
  5
2ED
100
AcDbEntity
  8
0
370
              25
  6
Continuous
 62
               7
100
AcDbVertex
100
AcDb2dVertex
 10
190.493346776419
 20
196.00263652504998
 30
0.0
  0
VERTEX
  5
2EE
100
AcDbEntity
  8
0
370
              25
  6
Continuous
 62
               7
100
AcDbVertex
100
AcDb2dVertex
 10
190.48512506076901
 20
196.23808232249999
 30
0.0
  0
VERTEX
  5
2EF
100
AcDbEntity
  8
0
370
              25
  6
Continuous
 62
               7
100
AcDbVertex
100
AcDb2dVertex
 10
190.47492707856901
 20
196.53010782899997
 30
0.0
  0
VERTEX
  5
2F0
100
AcDbEntity
  8
0
370
              25
  6
Continuous
 62
               7
100
AcDbVertex
100
AcDb2dVertex
 10
190.46314584796903
 20
196.86749247015001
 30
0.0
  0
VERTEX
  5
2F1
100
AcDbEntity
  8
0
370
              25
  6
Continuous
 62
               7
100
AcDbVertex
100
AcDb2dVertex
 10
190.450233991819
 20
197.23726478520001
 30
0.0
  0
VERTEX
  5
2F2
100
AcDbEntity
  8
0
370
              25
  6
Continuous
 62
               7
100
AcDbVertex
100
AcDb2dVertex
 10
190.43668511096899
 20
197.62521651685
 30
0.0
  0
VERTEX
  5
2F3
100
AcDbEntity
  8
0
370
              25
  6
Continuous
 62
               7
100
AcDbVertex
100
AcDb2dVertex
 10
190.42302447146903
 20
198.0164427787
 30
0.0
  0
VERTEX
  5
2F4
100
AcDbEntity
  8
0
370
              25
  6
Continuous
 62
               7
100
AcDbVertex
100
AcDb2dVertex
 10
190.40977175121901
 20
198.39590457380001
 30
0.0
  0
VERTEX
  5
2F5
100
AcDbEntity
  8
0
370
              25
  6
Continuous
 62
               7
100
AcDbVertex
100
AcDb2dVertex
 10
190.39744104036902
 20
198.74902111590001
 30
0.0
  0
VERTEX
  5
2F6
100
AcDbEntity
  8
0
370
              25
  6
Continuous
 62
               7
100
AcDbVertex
100
AcDb2dVertex
 10
190.38650358801902
 20
199.06222117244999
 30
0.0
  0
VERTEX
  5
2F7
100
AcDbEntity
  8
0
370
              25
  6
Continuous
 62
               7
100
AcDbVertex
100
AcDb2dVertex
 10
190.377380352069
 20
199.32347205579998
 30
0.0
  0
VERTEX
  5
2F8
100
AcDbEntity
  8
0
370
              25
  6
Continuous
 62
               7
100
AcDbVertex
100
AcDb2dVertex
 10
190.37042337246902
 20
199.52273038329997
 30
0.0
  0
VERTEX
  5
2F9
100
AcDbEntity
  8
0
370
              25
  6
Continuous
 62
               7
100
AcDbVertex
100
AcDb2dVertex
 10
190.36589714471901
 20
199.65234068334999
 30
0.0
  0
VERTEX
  5
2FA
100
AcDbEntity
  8
0
370
              25
  6
Continuous
 62
               7
100
AcDbVertex
100
AcDb2dVertex
 10
190.36397675756902
 20
199.70731851759999
 30
0.0
  0
VERTEX
  5
2FB
100
AcDbEntity
  8
0
370
              25
  6
Continuous
 62
               7
100
AcDbVertex
100
AcDb2dVertex
 10
190.36391342766902
 20
199.70913273395001
 30
0.0
  0
SEQEND
  5
2FC
100
AcDbEntity
  8
0
370
              25
  6
Continuous
 62
               7
  0
POLYLINE
  5
2FD
100
AcDbEntity
  8
0
370
              25
  6
Continuous
 62
               7
100
AcDb2dPolyline
 66
               1
 10
0.0
 20
0.0
 30
0.0
 75
               5
  0
VERTEX
  5
2FE
100
AcDbEntity
  8
0
370
              25
  6
Continuous
 62
               7
100
AcDbVertex
100
AcDb2dVertex
 10
190.50351123101902
 20
195.71157214344998
 30
0.0
  0
VERTEX
  5
2FF
100
AcDbEntity
  8
0
370
              25
  6
Continuous
 62
               7
100
AcDbVertex
100
AcDb2dVertex
 10
190.502687941869
 20
195.73514578045001
 30
0.0
  0
VERTEX
  5
300
100
AcDbEntity
  8
0
370
              25
  6
Continuous
 62
               7
100
AcDbVertex
100
AcDb2dVertex
 10
190.49927743856901
 20
195.83281544149997
 30
0.0
  0
SEQEND
  5
301
100
AcDbEntity
  8
0
370
              25
  6
Continuous
 62
               7
  0
POLYLINE
  5
302
100
AcDbEntity
  8
0
370
              25
  6
Continuous
 62
               7
100
AcDb2dPolyline
 66
               1
 10
0.0
 20
0.0
 30
0.0
 75
               5
  0
VERTEX
  5
303
100
AcDbEntity
  8
0
370
              25
  6
Continuous
 62
               7
100
AcDbVertex
100
AcDb2dVertex
 10
149.132668625169
 20
199.42501974404999
 30
0.0
  0
VERTEX
  5
304
100
AcDbEntity
  8
0
370
              25
  6
Continuous
 62
               7
100
AcDbVertex
100
AcDb2dVertex
 10
149.13266676251902
 20
199.42497876585
 30
0.0
  0
VERTEX
  5
305
100
AcDbEntity
  8
0
370
              25
  6
Continuous
 62
               7
100
AcDbVertex
100
AcDb2dVertex
 10
149.13128467981903
 20
199.38537147939999
 30
0.0
  0
VERTEX
  5
306
100
AcDbEntity
  8
0
370
              25
  6
Continuous
 62
               7
100
AcDbVertex
100
AcDb2dVertex
 10
149.12736939971902
 20
199.2732402414
 30
0.0
  0
VERTEX
  5
307
100
AcDbEntity
  8
0
370
              25
  6
Continuous
 62
               7
100
AcDbVertex
100
AcDb2dVertex
 10
149.12109228556903
 20
199.09349498450001
 30
0.0
  0
VERTEX
  5
308
100
AcDbEntity
  8
0
370
              25
  6
Continuous
 62
               7
100
AcDbVertex
100
AcDb2dVertex
 10
149.11272714621902
 20
198.85398117004999
 30
0.0
  0
VERTEX
  5
309
100
AcDbEntity
  8
0
370
              25
  6
Continuous
 62
               7
100
AcDbVertex
100
AcDb2dVertex
 10
149.10264278536903
 20
198.5651743144
 30
0.0
  0
VERTEX
  5
30A
100
AcDbEntity
  8
0
370
              25
  6
Continuous
 62
               7
100
AcDbVertex
100
AcDb2dVertex
 10
149.09127692466902
 20
198.23969197574999
 30
0.0
  0
VERTEX
  5
30B
100
AcDbEntity
  8
0
370
              25
  6
Continuous
 62
               7
100
AcDbVertex
100
AcDb2dVertex
 10
149.07912689036903
 20
197.891764763
 30
0.0
  0
VERTEX
  5
30C
100
AcDbEntity
  8
0
370
              25
  6
Continuous
 62
               7
100
AcDbVertex
100
AcDb2dVertex
 10
149.06672353631902
 20
197.53659186064999
 30
0.0
  0
VERTEX
  5
30D
100
AcDbEntity
  8
0
370
              25
  6
Continuous
 62
               7
100
AcDbVertex
100
AcDb2dVertex
 10
149.054610754919
 20
197.18970027864998
 30
0.0
  0
VERTEX
  5
30E
100
AcDbEntity
  8
0
370
              25
  6
Continuous
 62
               7
100
AcDbVertex
100
AcDb2dVertex
 10
149.043315674719
 20
196.86625194850001
 30
0.0
  0
VERTEX
  5
30F
100
AcDbEntity
  8
0
370
              25
  6
Continuous
 62
               7
100
AcDbVertex
100
AcDb2dVertex
 10
149.03333189671901
 20
196.58038062154998
 30
0.0
  0
VERTEX
  5
310
100
AcDbEntity
  8
0
370
              25
  6
Continuous
 62
               7
100
AcDbVertex
100
AcDb2dVertex
 10
149.02509714251903
 20
196.34458092155
 30
0.0
  0
VERTEX
  5
311
100
AcDbEntity
  8
0
370
              25
  6
Continuous
 62
               7
100
AcDbVertex
100
AcDb2dVertex
 10
149.018970902619
 20
196.16915700139998
 30
0.0
  0
VERTEX
  5
312
100
AcDbEntity
  8
0
370
              25
  6
Continuous
 62
               7
100
AcDbVertex
100
AcDb2dVertex
 10
149.01522139791902
 20
196.06177550855
 30
0.0
  0
VERTEX
  5
313
100
AcDbEntity
  8
0
370
              25
  6
Continuous
 62
               7
100
AcDbVertex
100
AcDb2dVertex
 10
149.014010678619
 20
196.02709305585
 30
0.0
  0
SEQEND
  5
314
100
AcDbEntity
  8
0
370
              25
  6
Continuous
 62
               7
  0
POLYLINE
  5
315
100
AcDbEntity
  8
0
370
              25
  6
Continuous
 62
               7
100
AcDb2dPolyline
 66
               1
 10
0.0
 20
0.0
 30
0.0
 75
               5
  0
VERTEX
  5
316
100
AcDbEntity
  8
0
370
              25
  6
Continuous
 62
               7
100
AcDbVertex
100
AcDb2dVertex
 10
149.44295550471901
 20
199.71437049209999
 30
0.0
  0
VERTEX
  5
317
100
AcDbEntity
  8
0
370
              25
  6
Continuous
 62
               7
100
AcDbVertex
100
AcDb2dVertex
 10
149.44288099891901
 20
199.71222845019997
 30
0.0
  0
VERTEX
  5
318
100
AcDbEntity
  8
0
370
              25
  6
Continuous
 62
               7
100
AcDbVertex
100
AcDb2dVertex
 10
149.44091218296902
 20
199.6558126539
 30
0.0
  0
VERTEX
  5
319
100
AcDbEntity
  8
0
370
              25
  6
Continuous
 62
               7
100
AcDbVertex
100
AcDb2dVertex
 10
149.43633752651903
 20
199.52483889759998
 30
0.0
  0
VERTEX
  5
31A
100
AcDbEntity
  8
0
370
              25
  6
Continuous
 62
               7
100
AcDbVertex
100
AcDb2dVertex
 10
149.42933584336902
 20
199.32433632314999
 30
0.0
  0
VERTEX
  5
31B
100
AcDbEntity
  8
0
370
              25
  6
Continuous
 62
               7
100
AcDbVertex
100
AcDb2dVertex
 10
149.42017535456901
 20
199.0620088309
 30
0.0
  0
VERTEX
  5
31C
100
AcDbEntity
  8
0
370
              25
  6
Continuous
 62
               7
100
AcDbVertex
100
AcDb2dVertex
 10
149.409208099919
 20
198.74794078175
 30
0.0
  0
VERTEX
  5
31D
100
AcDbEntity
  8
0
370
              25
  6
Continuous
 62
               7
100
AcDbVertex
100
AcDb2dVertex
 10
149.39685503726901
 20
198.39419839084999
 30
0.0
  0
VERTEX
  5
31E
100
AcDbEntity
  8
0
370
              25
  6
Continuous
 62
               7
100
AcDbVertex
100
AcDb2dVertex
 10
149.38359114116901
 20
198.01437896789997
 30
0.0
  0
VERTEX
  5
31F
100
AcDbEntity
  8
0
370
              25
  6
Continuous
 62
               7
100
AcDbVertex
100
AcDb2dVertex
 10
149.36992677636903
 20
197.62307447494999
 30
0.0
  0
VERTEX
  5
320
100
AcDbEntity
  8
0
370
              25
  6
Continuous
 62
               7
100
AcDbVertex
100
AcDb2dVertex
 10
149.356385346119
 20
197.23532763424998
 30
0.0
  0
VERTEX
  5
321
100
AcDbEntity
  8
0
370
              25
  6
Continuous
 62
               7
100
AcDbVertex
100
AcDb2dVertex
 10
149.343490253769
 20
196.86603588164999
 30
0.0
  0
VERTEX
  5
322
100
AcDbEntity
  8
0
370
              25
  6
Continuous
 62
               7
100
AcDbVertex
100
AcDb2dVertex
 10
149.33173510021902
 20
196.52939257324999
 30
0.0
  0
VERTEX
  5
323
100
AcDbEntity
  8
0
370
              25
  6
Continuous
 62
               7
100
AcDbVertex
100
AcDb2dVertex
 10
149.32157064561903
 20
196.23833564224998
 30
0.0
  0
VERTEX
  5
324
100
AcDbEntity
  8
0
370
              25
  6
Continuous
 62
               7
100
AcDbVertex
100
AcDb2dVertex
 10
149.31338804551902
 20
196.00404468479999
 30
0.0
  0
VERTEX
  5
325
100
AcDbEntity
  8
0
370
              25
  6
Continuous
 62
               7
100
AcDbVertex
100
AcDb2dVertex
 10
149.30750394946901
 20
195.83553117815001
 30
0.0
  0
VERTEX
  5
326
100
AcDbEntity
  8
0
370
              25
  6
Continuous
 62
               7
100
AcDbVertex
100
AcDb2dVertex
 10
149.30414187496902
 20
195.73926595155001
 30
0.0
  0
VERTEX
  5
327
100
AcDbEntity
  8
0
370
              25
  6
Continuous
 62
               7
100
AcDbVertex
100
AcDb2dVertex
 10
149.30335770136901
 20
195.7168061763
 30
0.0
  0
SEQEND
  5
328
100
AcDbEntity
  8
0
370
              25
  6
Continuous
 62
               7
  0
POLYLINE
  5
329
100
AcDbEntity
  8
0
370
              25
  6
Continuous
 62
               7
100
AcDb2dPolyline
 66
               1
 10
0.0
 20
0.0
 30
0.0
 75
               5
  0
VERTEX
  5
32A
100
AcDbEntity
  8
0
370
              25
  6
Continuous
 62
               7
100
AcDbVertex
100
AcDb2dVertex
 10
149.59286491161902
 20
199.70913273395001
 30
0.0
  0
VERTEX
  5
32B
100
AcDbEntity
  8
0
370
              25
  6
Continuous
 62
               7
100
AcDbVertex
100
AcDb2dVertex
 10
149.59279040581902
 20
199.70699069205
 30
0.0
  0
VERTEX
  5
32C
100
AcDbEntity
  8
0
370
              25
  6
Continuous
 62
               7
100
AcDbVertex
100
AcDb2dVertex
 10
149.59081972726904
 20
199.65057862104999
 30
0.0
  0
VERTEX
  5
32D
100
AcDbEntity
  8
0
370
              25
  6
Continuous
 62
               7
100
AcDbVertex
100
AcDb2dVertex
 10
149.58624693341903
 20
199.51960486474999
 30
0.0
  0
VERTEX
  5
32E
100
AcDbEntity
  8
0
370
              25
  6
Continuous
 62
               7
100
AcDbVertex
100
AcDb2dVertex
 10
149.57924525026903
 20
199.31910229030001
 30
0.0
  0
VERTEX
  5
32F
100
AcDbEntity
  8
0
370
              25
  6
Continuous
 62
               7
100
AcDbVertex
100
AcDb2dVertex
 10
149.57008476146902
 20
199.05677479804999
 30
0.0
  0
VERTEX
  5
330
100
AcDbEntity
  8
0
370
              25
  6
Continuous
 62
               7
100
AcDbVertex
100
AcDb2dVertex
 10
149.55911564416903
 20
198.74270674885
 30
0.0
  0
VERTEX
  5
331
100
AcDbEntity
  8
0
370
              25
  6
Continuous
 62
               7
100
AcDbVertex
100
AcDb2dVertex
 10
149.54676258151903
 20
198.38896435800001
 30
0.0
  0
VERTEX
  5
332
100
AcDbEntity
  8
0
370
              25
  6
Continuous
 62
               7
100
AcDbVertex
100
AcDb2dVertex
 10
149.53350054806901
 20
198.00914493504999
 30
0.0
  0
VERTEX
  5
333
100
AcDbEntity
  8
0
370
              25
  6
Continuous
 62
               7
100
AcDbVertex
100
AcDb2dVertex
 10
149.519834320619
 20
197.61784044205001
 30
0.0
  0
VERTEX
  5
334
100
AcDbEntity
  8
0
370
              25
  6
Continuous
 62
               7
100
AcDbVertex
100
AcDb2dVertex
 10
149.50629475301901
 20
197.23009360135001
 30
0.0
  0
VERTEX
  5
335
100
AcDbEntity
  8
0
370
              25
  6
Continuous
 62
               7
100
AcDbVertex
100
AcDb2dVertex
 10
149.49339966066901
 20
196.86080184880001
 30
0.0
  0
VERTEX
  5
336
100
AcDbEntity
  8
0
370
              25
  6
Continuous
 62
               7
100
AcDbVertex
100
AcDb2dVertex
 10
149.48164264446902
 20
196.52415854039998
 30
0.0
  0
VERTEX
  5
337
100
AcDbEntity
  8
0
370
              25
  6
Continuous
 62
               7
100
AcDbVertex
100
AcDb2dVertex
 10
149.471478189869
 20
196.23309788404998
 30
0.0
  0
VERTEX
  5
338
100
AcDbEntity
  8
0
370
              25
  6
Continuous
 62
               7
100
AcDbVertex
100
AcDb2dVertex
 10
149.463297452419
 20
195.99881065189999
 30
0.0
  0
VERTEX
  5
339
100
AcDbEntity
  8
0
370
              25
  6
Continuous
 62
               7
100
AcDbVertex
100
AcDb2dVertex
 10
149.45741335636902
 20
195.83029341995001
 30
0.0
  0
VERTEX
  5
33A
100
AcDbEntity
  8
0
370
              25
  6
Continuous
 62
               7
100
AcDbVertex
100
AcDb2dVertex
 10
149.454051281869
 20
195.73402819335001
 30
0.0
  0
VERTEX
  5
33B
100
AcDbEntity
  8
0
370
              25
  6
Continuous
 62
               7
100
AcDbVertex
100
AcDb2dVertex
 10
149.45326710826902
 20
195.71157214344998
 30
0.0
  0
SEQEND
  5
33C
100
AcDbEntity
  8
0
370
              25
  6
Continuous
 62
               7
  0
SPLINE
  5
33D
100
AcDbEntity
  8
0
370
              25
  6
Continuous
 62
               7
100
AcDbSpline
210
0.0
220
0.0
230
1.0
 70
               8
 71
               2
 72
              24
 73
              21
 74
               0
 42
0.000001
 43
0.000001
 40
0.0
 40
0.0
 40
0.0
 40
0.000169821459593
 40
0.000169821459593
 40
0.010965712026048
 40
0.010965712026048
 40
0.0542547930817471
 40
0.0542547930817471
 40
0.1601211692771929
 40
0.1601211692771929
 40
0.3148139231939824
 40
0.3148139231939824
 40
0.4726890866659154
 40
0.4726890866659154
 40
0.6251819585892922
 40
0.6251819585892922
 40
0.8041748590525035
 40
0.8041748590525035
 40
0.9976571849843142
 40
0.9976571849843142
 40
1.0
 40
1.0
 40
1.0
 10
189.77489660269717
 20
192.031439813985
 30
0.0
 10
189.77489806586757
 20
192.031894700647
 30
0.0
 10
189.77489952903798
 20
192.032349587309
 30
0.0
 10
189.77494382264518
 20
192.04449341473293
 30
0.0
 10
189.77506992356882
 20
192.09018574731243
 30
0.0
 10
189.77519602449249
 20
192.13587807989194
 30
0.0
 10
189.77572007749507
 20
192.32209577932099
 30
0.0
 10
189.77624413049762
 20
192.50831347875004
 30
0.0
 10
189.77633420061557
 20
192.88924913968904
 30
0.0
 10
189.77642427073346
 20
193.27018480062804
 30
0.0
 10
189.77495871195774
 20
193.71797695679254
 30
0.0
 10
189.77349315318202
 20
194.16576911295704
 30
0.0
 10
189.77004688532176
 20
194.5637397592609
 30
0.0
 10
189.76660061746151
 20
194.96171040556476
 30
0.0
 10
189.76163045733131
 20
195.38064012825643
 30
0.0
 10
189.75666029720111
 20
195.7995698509481
 30
0.0
 10
189.74615113928706
 20
196.3394236151135
 30
0.0
 10
189.73564198137302
 20
196.87927737927896
 30
0.0
 10
189.72369267240992
 20
197.37571440231483
 30
0.0
 10
189.72354449968799
 20
197.38198818958321
 30
0.0
 10
189.72339632696605
 20
197.3882619768516
 30
0.0
  0
POLYLINE
  5
33E
100
AcDbEntity
  8
0
370
              25
  6
Continuous
 62
               7
100
AcDb2dPolyline
 66
               1
 10
0.0
 20
0.0
 30
0.0
 75
               5
  0
VERTEX
  5
33F
100
AcDbEntity
  8
0
370
              25
  6
Continuous
 62
               7
100
AcDbVertex
100
AcDb2dVertex
 10
189.72339632696901
 20
197.38826197685
 30
0.0
  0
VERTEX
  5
340
100
AcDbEntity
  8
0
370
              25
  6
Continuous
 62
               7
100
AcDbVertex
100
AcDb2dVertex
 10
189.77216223961904
 20
197.38741261064999
 30
0.0
  0
VERTEX
  5
341
100
AcDbEntity
  8
0
370
              25
  6
Continuous
 62
               7
100
AcDbVertex
100
AcDb2dVertex
 10
189.819054331269
 20
197.38659304679999
 30
0.0
  0
VERTEX
  5
342
100
AcDbEntity
  8
0
370
              25
  6
Continuous
 62
               7
100
AcDbVertex
100
AcDb2dVertex
 10
189.86226956136903
 20
197.38584053814998
 30
0.0
  0
VERTEX
  5
343
100
AcDbEntity
  8
0
370
              25
  6
Continuous
 62
               7
100
AcDbVertex
100
AcDb2dVertex
 10
189.90014645046901
 20
197.38517743649999
 30
0.0
  0
VERTEX
  5
344
100
AcDbEntity
  8
0
370
              25
  6
Continuous
 62
               7
100
AcDbVertex
100
AcDb2dVertex
 10
189.93123213536902
 20
197.38463354409998
 30
0.0
  0
VERTEX
  5
345
100
AcDbEntity
  8
0
370
              25
  6
Continuous
 62
               7
100
AcDbVertex
100
AcDb2dVertex
 10
189.95433266051901
 20
197.38423121275
 30
0.0
  0
VERTEX
  5
346
100
AcDbEntity
  8
0
370
              25
  6
Continuous
 62
               7
100
AcDbVertex
100
AcDb2dVertex
 10
189.96855581886902
 20
197.38398534359999
 30
0.0
  0
VERTEX
  5
347
100
AcDbEntity
  8
0
370
              25
  6
Continuous
 62
               7
100
AcDbVertex
100
AcDb2dVertex
 10
189.97335958071903
 20
197.38389966189999
 30
0.0
  0
SEQEND
  5
348
100
AcDbEntity
  8
0
370
              25
  6
Continuous
 62
               7
  0
LINE
  5
349
100
AcDbEntity
  8
0
370
              25
  6
Continuous
 62
               7
100
AcDbLine
 10
189.97335958070255
 20
197.3838996619121
 30
0.0
 11
189.88345342463947
 21
192.23324251474298
 31
0.0
  0
ARC
  5
34A
100
AcDbEntity
  8
0
370
              25
  6
Continuous
 62
               7
100
AcDbCircle
 10
189.633492200219
 20
192.23760697124999
 30
0.0
 40
0.2500000000000103
100
AcDbArc
 50
304.44497248470083
 51
359.00000000000148
  0
LINE
  5
34B
100
AcDbEntity
  8
0
370
              25
  6
Continuous
 62
               7
100
AcDbLine
 10
150.07332491464115
 20
192.23324251474298
 30
0.0
 11
149.98341875857807
 21
197.3838996619121
 31
0.0
  0
POLYLINE
  5
34C
100
AcDbEntity
  8
0
370
              25
  6
Continuous
 62
               7
100
AcDb2dPolyline
 66
               1
 10
0.0
 20
0.0
 30
0.0
 75
               5
  0
VERTEX
  5
34D
100
AcDbEntity
  8
0
370
              25
  6
Continuous
 62
               7
100
AcDbVertex
100
AcDb2dVertex
 10
149.98341875856903
 20
197.38389966189999
 30
0.0
  0
VERTEX
  5
34E
100
AcDbEntity
  8
0
370
              25
  6
Continuous
 62
               7
100
AcDbVertex
100
AcDb2dVertex
 10
149.98822252041901
 20
197.38398534359999
 30
0.0
  0
VERTEX
  5
34F
100
AcDbEntity
  8
0
370
              25
  6
Continuous
 62
               7
100
AcDbVertex
100
AcDb2dVertex
 10
150.00244567876902
 20
197.38423121275
 30
0.0
  0
VERTEX
  5
350
100
AcDbEntity
  8
0
370
              25
  6
Continuous
 62
               7
100
AcDbVertex
100
AcDb2dVertex
 10
150.02554620391902
 20
197.38463354409998
 30
0.0
  0
VERTEX
  5
351
100
AcDbEntity
  8
0
370
              25
  6
Continuous
 62
               7
100
AcDbVertex
100
AcDb2dVertex
 10
150.05663188881903
 20
197.38517743649999
 30
0.0
  0
VERTEX
  5
352
100
AcDbEntity
  8
0
370
              25
  6
Continuous
 62
               7
100
AcDbVertex
100
AcDb2dVertex
 10
150.09450877791903
 20
197.38584053814998
 30
0.0
  0
VERTEX
  5
353
100
AcDbEntity
  8
0
370
              25
  6
Continuous
 62
               7
100
AcDbVertex
100
AcDb2dVertex
 10
150.13772400801901
 20
197.38659304679999
 30
0.0
  0
VERTEX
  5
354
100
AcDbEntity
  8
0
370
              25
  6
Continuous
 62
               7
100
AcDbVertex
100
AcDb2dVertex
 10
150.18461609966903
 20
197.38741261064999
 30
0.0
  0
VERTEX
  5
355
100
AcDbEntity
  8
0
370
              25
  6
Continuous
 62
               7
100
AcDbVertex
100
AcDb2dVertex
 10
150.233382012319
 20
197.38826197685
 30
0.0
  0
SEQEND
  5
356
100
AcDbEntity
  8
0
370
              25
  6
Continuous
 62
               7
  0
SPLINE
  5
357
100
AcDbEntity
  8
0
370
              25
  6
Continuous
 62
               7
100
AcDbSpline
210
0.0
220
0.0
230
1.0
 70
               8
 71
               2
 72
              26
 73
              23
 74
               0
 42
0.000001
 43
0.000001
 40
0.0
 40
0.0
 40
0.0
 40
0.0042518544176087
 40
0.0042518544176087
 40
0.2161745098495304
 40
0.2161745098495304
 40
0.4258689237301393
 40
0.4258689237301393
 40
0.6082510889821473
 40
0.6082510889821473
 40
0.7345212525750416
 40
0.7345212525750416
 40
0.8466983906564318
 40
0.8466983906564318
 40
0.9444114513987348
 40
0.9444114513987348
 40
0.9854250261437165
 40
0.9854250261437165
 40
0.9956439495380838
 40
0.9956439495380838
 40
0.9997603027207179
 40
0.9997603027207179
 40
1.0
 40
1.0
 40
1.0
 10
150.23338201231456
 20
197.3882619768516
 30
0.0
 10
150.2331200947944
 20
197.37687584507813
 30
0.0
 10
150.23285817727421
 20
197.36548971330467
 30
0.0
 10
150.21929721597306
 20
196.79749360320739
 30
0.0
 10
150.20873225591049
 20
196.23042336317059
 30
0.0
 10
150.1981672958479
 20
195.66335312313379
 30
0.0
 10
150.19203144626246
 20
195.10716416177169
 30
0.0
 10
150.18589559667703
 20
194.5509752004096
 30
0.0
 10
150.18375001033689
 20
194.13013276994147
 30
0.0
 10
150.18160442399676
 20
193.70929033947334
 30
0.0
 10
150.18108712866936
 20
193.45367634692656
 30
0.0
 10
150.18056983334196
 20
193.19806235437983
 30
0.0
 10
150.18055958190004
 20
192.85271467999209
 30
0.0
 10
150.18054933045812
 20
192.50736700560435
 30
0.0
 10
150.1810365318531
 20
192.32924089383283
 30
0.0
 10
150.1815237332481
 20
192.15111478206126
 30
0.0
 10
150.18164340074136
 20
192.10952136702758
 30
0.0
 10
150.18176306823466
 20
192.06792795199391
 30
0.0
 10
150.1818053569537
 20
192.05477618191017
 30
0.0
 10
150.18184764567278
 20
192.04162441182643
 30
0.0
 10
150.18187744823163
 20
192.03272392736346
 30
0.0
 10
150.18187959240757
 20
192.03208187067423
 30
0.0
 10
150.18188173658353
 20
192.031439813985
 30
0.0
  0
ARC
  5
358
100
AcDbEntity
  8
0
370
              25
  6
Continuous
 62
               7
100
AcDbCircle
 10
150.32328613901902
 20
192.23760697124999
 30
0.0
 40
0.2500000000000032
100
AcDbArc
 50
180.99999999999849
 51
235.55502751529914
  0
SPLINE
  5
359
100
AcDbEntity
  8
0
370
              25
  6
Continuous
 62
               7
100
AcDbSpline
210
0.0
220
0.0
230
1.0
 70
               8
 71
               2
 72
              24
 73
              21
 74
               0
 42
0.000001
 43
0.000001
 40
0.0
 40
0.0
 40
0.0
 40
0.0024651721509727
 40
0.0024651721509727
 40
0.0837876948978465
 40
0.0837876948978465
 40
0.2040316241761123
 40
0.2040316241761123
 40
0.3563001481115881
 40
0.3563001481115881
 40
0.4886833007301427
 40
0.4886833007301427
 40
0.610669397270448
 40
0.610669397270448
 40
0.7478852601130276
 40
0.7478852601130276
 40
0.8784166053633171
 40
0.8784166053633171
 40
0.9961290521906639
 40
0.9961290521906639
 40
1.0
 40
1.0
 40
1.0
 10
185.04540215022067
 20
221.44488287271412
 30
0.0
 10
185.05446818932128
 20
221.44026734523334
 30
0.0
 10
185.06353422842187
 20
221.43565181775256
 30
0.0
 10
185.33637481932209
 20
221.29880033179791
 30
0.0
 10
185.65710870513607
 20
221.12243214613397
 30
0.0
 10
185.97784259095008
 20
220.94606396047004
 30
0.0
 10
186.48145702651425
 20
220.57123625542351
 30
0.0
 10
186.98507146207839
 20
220.19640855037699
 30
0.0
 10
187.40350864339825
 20
219.72106324237535
 30
0.0
 10
187.82194582471809
 20
219.24571793437366
 30
0.0
 10
188.08094013668227
 20
218.86508343684045
 30
0.0
 10
188.33993444864649
 20
218.48444893930724
 30
0.0
 10
188.59001190528224
 20
217.99753233029949
 30
0.0
 10
188.84008936191799
 20
217.51061572129174
 30
0.0
 10
189.01918278336751
 20
216.95102787578193
 30
0.0
 10
189.19827620481698
 20
216.39144003027212
 30
0.0
 10
189.26595593744599
 20
215.9038338444808
 30
0.0
 10
189.33363567007495
 20
215.41622765868948
 30
0.0
 10
189.37371386913475
 20
214.93845320688746
 30
0.0
 10
189.37512979614095
 20
214.92254140103071
 30
0.0
 10
189.37654572314716
 20
214.90662959517397
 30
0.0
  0
POLYLINE
  5
35A
100
AcDbEntity
  8
0
370
              25
  6
Continuous
 62
               7
100
AcDb2dPolyline
 66
               1
 10
0.0
 20
0.0
 30
0.0
 75
               5
  0
VERTEX
  5
35B
100
AcDbEntity
  8
0
370
              25
  6
Continuous
 62
               7
100
AcDbVertex
100
AcDb2dVertex
 10
189.37654572316902
 20
214.90662959514998
 30
0.0
  0
VERTEX
  5
35C
100
AcDbEntity
  8
0
370
              25
  6
Continuous
 62
               7
100
AcDbVertex
100
AcDb2dVertex
 10
189.38888947256902
 20
214.55310699644997
 30
0.0
  0
VERTEX
  5
35D
100
AcDbEntity
  8
0
370
              25
  6
Continuous
 62
               7
100
AcDbVertex
100
AcDb2dVertex
 10
189.39480709616902
 20
214.38367334309999
 30
0.0
  0
SEQEND
  5
35E
100
AcDbEntity
  8
0
370
              25
  6
Continuous
 62
               7
  0
LINE
  5
35F
100
AcDbEntity
  8
0
370
              25
  6
Continuous
 62
               7
100
AcDbLine
 10
189.39480709616902
 20
214.38365099135001
 30
0.0
 11
189.39480709616902
 21
214.38367334309999
 31
0.0
  0
SPLINE
  5
360
100
AcDbEntity
  8
0
370
              25
  6
Continuous
 62
               7
100
AcDbSpline
210
0.0
220
0.0
230
1.0
 70
               8
 71
               2
 72
              23
 73
              20
 74
               0
 42
0.000001
 43
0.000001
 40
0.0
 40
0.0
 40
0.0
 40
0.0000000666921389
 40
0.1085847332983284
 40
0.1085847332983284
 40
0.2257086922677656
 40
0.2257086922677656
 40
0.3796730515780866
 40
0.3796730515780866
 40
0.5557737869619729
 40
0.5557737869619729
 40
0.7276550702620327
 40
0.7276550702620327
 40
0.864254773907458
 40
0.864254773907458
 40
0.9432997280954751
 40
0.9432997280954751
 40
0.9980947300783182
 40
0.9980947300783182
 40
1.0
 40
1.0
 40
1.0
 10
181.88111356235243
 20
221.6045618534223
 30
0.0
 10
181.88111394652296
 20
221.60456185342255
 30
0.0
 10
182.54774553422988
 20
221.60364012707919
 30
0.0
 10
183.12598811858342
 20
221.50080705488094
 30
0.0
 10
183.70423070293697
 20
221.39797398268269
 30
0.0
 10
184.43139962484608
 20
221.16379322576796
 30
0.0
 10
185.15856854675519
 20
220.92961246885329
 30
0.0
 10
186.01150579517363
 20
220.37020900862589
 30
0.0
 10
186.86444304359208
 20
219.81080554839849
 30
0.0
 10
187.53813997200075
 20
219.04412466311459
 30
0.0
 10
188.21183690040942
 20
218.27744377783063
 30
0.0
 10
188.63278075258896
 20
217.40199206869892
 30
0.0
 10
189.05372460476849
 20
216.52654035956721
 30
0.0
 10
189.1795385994771
 20
215.93055636999998
 30
0.0
 10
189.30535259418571
 20
215.33457238043275
 30
0.0
 10
189.33839551269176
 20
215.03436122121468
 30
0.0
 10
189.37143843119782
 20
214.73415006199667
 30
0.0
 10
189.39326110964038
 20
214.40554655154773
 30
0.0
 10
189.3940341029153
 20
214.39459877144091
 30
0.0
 10
189.39480709619022
 20
214.38365099133409
 30
0.0
  0
LINE
  5
361
100
AcDbEntity
  8
0
370
              25
  6
Continuous
 62
               7
100
AcDbLine
 10
181.88111356236902
 20
221.60456185340001
 30
0.0
 11
181.88111356236902
 21
222.0826320827
 31
0.0
  0
SPLINE
  5
362
100
AcDbEntity
  8
0
370
              25
  6
Continuous
 62
               7
100
AcDbSpline
210
0.0
220
0.0
230
1.0
 70
               8
 71
               2
 72
              18
 73
              15
 74
               0
 42
0.000001
 43
0.000001
 40
0.0
 40
0.0
 40
0.0
 40
0.0065562963251117
 40
0.0065562963251117
 40
0.1900270697720499
 40
0.1900270697720499
 40
0.3882149138226958
 40
0.3882149138226958
 40
0.6202972122338614
 40
0.6202972122338614
 40
0.8256184580037514
 40
0.8256184580037514
 40
0.9966037345109245
 40
0.9966037345109245
 40
1.0
 40
1.0
 40
1.0
 10
181.88111356235243
 20
222.08263208271421
 30
0.0
 10
181.89175461429781
 20
222.08213853449666
 30
0.0
 10
181.90239566624319
 20
222.08164498627912
 30
0.0
 10
182.22177955397029
 20
222.0679245336932
 30
0.0
 10
182.49770653796062
 20
222.04953946736669
 30
0.0
 10
182.77363352195096
 20
222.03115440104023
 30
0.0
 10
183.13846977921676
 20
221.98610756082516
 30
0.0
 10
183.50330603648257
 20
221.9410607206101
 30
0.0
 10
183.8777973111151
 20
221.84075614879657
 30
0.0
 10
184.25228858574764
 20
221.74045157698305
 30
0.0
 10
184.51550675710467
 20
221.64556765247556
 30
0.0
 10
184.77872492846171
 20
221.55068372796802
 30
0.0
 10
185.03513129916416
 20
221.44892143181801
 30
0.0
 10
185.04026672469243
 20
221.44690215226606
 30
0.0
 10
185.04540215022067
 20
221.44488287271412
 30
0.0
  0
SPLINE
  5
363
100
AcDbEntity
  8
0
370
              25
  6
Continuous
 62
               7
100
AcDbSpline
210
0.0
220
0.0
230
1.0
 70
               8
 71
               2
 72
              28
 73
              25
 74
               0
 42
0.000001
 43
0.000001
 40
0.0
 40
0.0
 40
0.0
 40
0.0027538419746994
 40
0.0027538419746994
 40
0.088050803060565
 40
0.088050803060565
 40
0.1787431139164079
 40
0.1787431139164079
 40
0.2779217528001355
 40
0.2779217528001355
 40
0.4018676078193152
 40
0.4018676078193152
 40
0.5365829548481188
 40
0.5365829548481188
 40
0.6605539029011055
 40
0.6605539029011055
 40
0.7876194355018069
 40
0.7876194355018069
 40
0.8942136735150877
 40
0.8942136735150877
 40
0.9551222695742831
 40
0.9551222695742831
 40
0.9970067539665055
 40
0.9970067539665055
 40
1.0
 40
1.0
 40
1.0
 10
158.07566477692822
 20
221.36309412421144
 30
0.0
 10
158.06034180174453
 20
221.36232962795196
 30
0.0
 10
158.04501882656083
 20
221.36156513169254
 30
0.0
 10
157.58492396665901
 20
221.34340693733009
 30
0.0
 10
157.09745777452528
 20
221.29160195823556
 30
0.0
 10
156.60999158239156
 20
221.23979697914103
 30
0.0
 10
156.10795343475382
 20
221.09401943579422
 30
0.0
 10
155.60591528711609
 20
220.94824189244741
 30
0.0
 10
155.07126554417169
 20
220.71385492721049
 30
0.0
 10
154.53661580122724
 20
220.47946796197363
 30
0.0
 10
153.87497368728492
 20
220.02815558778101
 30
0.0
 10
153.2133315733426
 20
219.5768432135884
 30
0.0
 10
152.74681893415774
 20
219.04481828039766
 30
0.0
 10
152.28030629497289
 20
218.51279334720692
 30
0.0
 10
151.90929075607778
 20
217.94793887483291
 30
0.0
 10
151.53827521718267
 20
217.38308440245891
 30
0.0
 10
151.27935342081463
 20
216.68380801027274
 30
0.0
 10
151.02043162444659
 20
215.98453161808658
 30
0.0
 10
150.95186080759152
 20
215.5442910146192
 30
0.0
 10
150.88328999073642
 20
215.10405041115183
 30
0.0
 10
150.859487451614
 20
214.87205206946007
 30
0.0
 10
150.83568491249162
 20
214.6400537277683
 30
0.0
 10
150.81480200253537
 20
214.4075125110304
 30
0.0
 10
150.81329840048804
 20
214.39090464921253
 30
0.0
 10
150.8117947984407
 20
214.37429678739466
 30
0.0
  0
SPLINE
  5
364
100
AcDbEntity
  8
0
370
              25
  6
Continuous
 62
               7
100
AcDbSpline
210
0.0
220
0.0
230
1.0
 70
               8
 71
               2
 72
              28
 73
              25
 74
               0
 42
0.000001
 43
0.000001
 40
0.0
 40
0.0
 40
0.0
 40
0.0028892830501328
 40
0.0028892830501328
 40
0.1640375497445118
 40
0.1640375497445118
 40
0.3341456445321862
 40
0.3341456445321862
 40
0.5010842341428798
 40
0.5010842341428798
 40
0.6403905129050557
 40
0.6403905129050557
 40
0.753169633551443
 40
0.753169633551443
 40
0.8551455512917663
 40
0.8551455512917663
 40
0.925902457929256
 40
0.925902457929256
 40
0.9584211300115084
 40
0.9584211300115084
 40
0.9793717440859456
 40
0.9793717440859456
 40
0.9996666351139183
 40
0.9996666351139183
 40
1.0
 40
1.0
 40
1.0
 10
150.8117947984407
 20
214.37429678739466
 30
0.0
 10
150.81143387819915
 20
214.37430995817317
 30
0.0
 10
150.81107295795761
 20
214.37432312895174
 30
0.0
 10
150.79154324385445
 20
214.37503576399706
 30
0.0
 10
150.77081268593238
 20
214.37579251601068
 30
0.0
 10
150.75008212801032
 20
214.37654926802429
 30
0.0
 10
150.72831400424963
 20
214.37734517762647
 30
0.0
 10
150.70654588048893
 20
214.37814108722864
 30
0.0
 10
150.68660730561641
 20
214.37887259481846
 30
0.0
 10
150.66666873074388
 20
214.37960410240828
 30
0.0
 10
150.65180427639851
 20
214.38015312122423
 30
0.0
 10
150.63693982205314
 20
214.38070214004017
 30
0.0
 10
150.62362883511659
 20
214.38119741579482
 30
0.0
 10
150.61031784818007
 20
214.38169269154946
 30
0.0
 10
150.59815279755327
 20
214.38215386880103
 30
0.0
 10
150.58598774692649
 20
214.38261504605259
 30
0.0
 10
150.58047666311776
 20
214.38283435274622
 30
0.0
 10
150.57496557930904
 20
214.38305365943984
 30
0.0
 10
150.57235362406269
 20
214.38316260162387
 30
0.0
 10
150.56974166881633
 20
214.38327154380789
 30
0.0
 10
150.56712084041209
 20
214.38338838035759
 30
0.0
 10
150.56450001200784
 20
214.38350521690722
 30
0.0
 10
150.56205262550026
 20
214.38362463663003
 30
0.0
 10
150.56201100297275
 20
214.38362663811114
 30
0.0
 10
150.56196938044525
 20
214.3836286395923
 30
0.0
  0
SPLINE
  5
365
100
AcDbEntity
  8
0
370
              25
  6
Continuous
 62
               7
100
AcDbSpline
210
0.0
220
0.0
230
1.0
 70
               8
 71
               2
 72
              28
 73
              25
 74
               0
 42
0.000001
 43
0.000001
 40
0.0
 40
0.0
 40
0.0
 40
0.0029947888185415
 40
0.0029947888185415
 40
0.096918416907604
 40
0.096918416907604
 40
0.1931413281324687
 40
0.1931413281324687
 40
0.2929692946628384
 40
0.2929692946628384
 40
0.400157044615295
 40
0.400157044615295
 40
0.521517182023323
 40
0.521517182023323
 40
0.6534023497025981
 40
0.6534023497025981
 40
0.7697259835946292
 40
0.7697259835946292
 40
0.8656674700145491
 40
0.8656674700145491
 40
0.9415998274639813
 40
0.9415998274639813
 40
0.9982294350238115
 40
0.9982294350238115
 40
1.0
 40
1.0
 40
1.0
 10
150.56196938044525
 20
214.3836286395923
 30
0.0
 10
150.56352698374786
 20
214.40080865279816
 30
0.0
 10
150.56508458705042
 20
214.41798866600402
 30
0.0
 10
150.60550440095858
 20
214.9341917873283
 30
0.0
 10
150.69260273593176
 20
215.49207924861574
 30
0.0
 10
150.77970107090493
 20
216.04996670990317
 30
0.0
 10
150.96991801188858
 20
216.56319717044215
 30
0.0
 10
151.1601349528722
 20
217.07642763098107
 30
0.0
 10
151.43090914618693
 20
217.61585973529836
 30
0.0
 10
151.70168333950164
 20
218.15529183961564
 30
0.0
 10
152.096639448292
 20
218.65296008067051
 30
0.0
 10
152.49159555708232
 20
219.15062832172538
 30
0.0
 10
153.04284566612228
 20
219.6806439451417
 30
0.0
 10
153.59409577516226
 20
220.21065956855796
 30
0.0
 10
154.26531909646579
 20
220.5744779988307
 30
0.0
 10
154.93654241776932
 20
220.93829642910345
 30
0.0
 10
155.47797770804587
 20
221.14212145572463
 30
0.0
 10
156.01941299832242
 20
221.34594648234582
 30
0.0
 10
156.5387276755045
 20
221.4475077994588
 30
0.0
 10
157.05804235268658
 20
221.54906911657179
 30
0.0
 10
157.40371839133542
 20
221.57219056922463
 30
0.0
 10
157.74939442998425
 20
221.59531202187748
 30
0.0
 10
158.05527756175118
 20
221.60391442006511
 30
0.0
 10
158.0654711693397
 20
221.60423813674367
 30
0.0
 10
158.07566477692822
 20
221.6045618534223
 30
0.0
  0
LINE
  5
366
100
AcDbEntity
  8
0
370
              25
  6
Continuous
 62
               7
100
AcDbLine
 10
158.07566477692822
 20
221.36309412421144
 30
0.0
 11
158.07566477692822
 21
221.6045618534223
 31
0.0
  0
LINE
  5
367
100
AcDbEntity
  8
0
370
              25
  6
Continuous
 62
               7
100
AcDbLine
 10
158.07566477691901
 20
221.60456185340001
 30
0.0
 11
158.07566477691901
 21
222.0826320827
 31
0.0
  0
POLYLINE
  5
368
100
AcDbEntity
  8
0
370
              25
  6
Continuous
 62
               7
100
AcDb2dPolyline
 66
               1
 10
0.0
 20
0.0
 30
0.0
 75
               5
  0
VERTEX
  5
369
100
AcDbEntity
  8
0
370
              25
  6
Continuous
 62
               7
100
AcDbVertex
100
AcDb2dVertex
 10
150.58023261611902
 20
214.90662959514998
 30
0.0
  0
VERTEX
  5
36A
100
AcDbEntity
  8
0
370
              25
  6
Continuous
 62
               7
100
AcDbVertex
100
AcDb2dVertex
 10
150.56788886671902
 20
214.55310699644997
 30
0.0
  0
VERTEX
  5
36B
100
AcDbEntity
  8
0
370
              25
  6
Continuous
 62
               7
100
AcDbVertex
100
AcDb2dVertex
 10
150.56197124306902
 20
214.38365099135001
 30
0.0
  0
SEQEND
  5
36C
100
AcDbEntity
  8
0
370
              25
  6
Continuous
 62
               7
  0
SPLINE
  5
36D
100
AcDbEntity
  8
0
370
              25
  6
Continuous
 62
               7
100
AcDbSpline
210
0.0
220
0.0
230
1.0
 70
               8
 71
               2
 72
              24
 73
              21
 74
               0
 42
0.000001
 43
0.000001
 40
0.0
 40
0.0
 40
0.0
 40
0.0024651721509727
 40
0.0024651721509727
 40
0.0837876948978516
 40
0.0837876948978516
 40
0.2040316241761137
 40
0.2040316241761137
 40
0.3563001481115893
 40
0.3563001481115893
 40
0.4886833007301462
 40
0.4886833007301462
 40
0.6106693972704492
 40
0.6106693972704492
 40
0.7478852601130284
 40
0.7478852601130284
 40
0.8784166053633166
 40
0.8784166053633166
 40
0.9961290521906641
 40
0.9961290521906641
 40
1.0
 40
1.0
 40
1.0
 10
154.91137618906004
 20
221.44488287271412
 30
0.0
 10
154.90231014995942
 20
221.44026734523334
 30
0.0
 10
154.8932441108588
 20
221.43565181775256
 30
0.0
 10
154.62040351995861
 20
221.29880033179791
 30
0.0
 10
154.29966963414455
 20
221.12243214613397
 30
0.0
 10
153.97893574833051
 20
220.94606396047004
 30
0.0
 10
153.47532131276643
 20
220.57123625542351
 30
0.0
 10
152.97170687720234
 20
220.19640855037699
 30
0.0
 10
152.55326969588242
 20
219.72106324237535
 30
0.0
 10
152.1348325145625
 20
219.24571793437366
 30
0.0
 10
151.87583820259835
 20
218.86508343684045
 30
0.0
 10
151.61684389063424
 20
218.48444893930724
 30
0.0
 10
151.36676643399844
 20
217.99753233029949
 30
0.0
 10
151.11668897736263
 20
217.51061572129174
 30
0.0
 10
150.93759555591316
 20
216.95102787578193
 30
0.0
 10
150.75850213446373
 20
216.39144003027212
 30
0.0
 10
150.69082240183474
 20
215.9038338444808
 30
0.0
 10
150.62314266920572
 20
215.41622765868948
 30
0.0
 10
150.58306447014587
 20
214.93845320688746
 30
0.0
 10
150.58164854313966
 20
214.92254140103071
 30
0.0
 10
150.58023261613346
 20
214.90662959517397
 30
0.0
  0
SPLINE
  5
36E
100
AcDbEntity
  8
0
370
              25
  6
Continuous
 62
               7
100
AcDbSpline
210
0.0
220
0.0
230
1.0
 70
               8
 71
               2
 72
              18
 73
              15
 74
               0
 42
0.000001
 43
0.000001
 40
0.0
 40
0.0
 40
0.0
 40
0.0065048530795329
 40
0.0065048530795329
 40
0.1886001988321527
 40
0.1886001988321527
 40
0.3857547128737161
 40
0.3857547128737161
 40
0.6178042797351766
 40
0.6178042797351766
 40
0.8241917734182872
 40
0.8241917734182872
 40
0.9965742614956918
 40
0.9965742614956918
 40
1.0
 40
1.0
 40
1.0
 10
154.91137618906004
 20
221.44488287271412
 30
0.0
 10
154.92129217536396
 20
221.44853965831766
 30
0.0
 10
154.93120816166788
 20
221.4521964439212
 30
0.0
 10
155.22835057409526
 20
221.56296059521361
 30
0.0
 10
155.48792613747491
 20
221.65262419261347
 30
0.0
 10
155.74750170085457
 20
221.74228779001334
 30
0.0
 10
156.09993594337129
 20
221.84160325741499
 30
0.0
 10
156.45237018588796
 20
221.94091872481658
 30
0.0
 10
156.83784831120965
 20
221.99337317817083
 30
0.0
 10
157.22332643653135
 20
222.04582763152501
 30
0.0
 10
157.50482269966031
 20
222.06089501635745
 30
0.0
 10
157.78631896278927
 20
222.07596240118983
 30
0.0
 10
158.06453658484648
 20
222.08234300796573
 30
0.0
 10
158.07010068088735
 20
222.08248754533997
 30
0.0
 10
158.07566477692822
 20
222.08263208271421
 30
0.0
  0
SPLINE
  5
36F
100
AcDbEntity
  8
0
370
              25
  6
Continuous
 62
               7
100
AcDbSpline
210
0.0
220
0.0
230
1.0
 70
               8
 71
               2
 72
              26
 73
              23
 74
               0
 42
0.000001
 43
0.000001
 40
0.0
 40
0.0
 40
0.0
 40
0.0029926585889289
 40
0.0029926585889289
 40
0.0968490355366674
 40
0.0968490355366674
 40
0.2013083806589958
 40
0.2013083806589958
 40
0.3064364771812813
 40
0.3064364771812813
 40
0.4221989811966602
 40
0.4221989811966602
 40
0.5762751889337451
 40
0.5762751889337451
 40
0.7330606000085187
 40
0.7330606000085187
 40
0.8432775832618102
 40
0.8432775832618102
 40
0.9202310514740141
 40
0.9202310514740141
 40
0.9972460255409933
 40
0.9972460255409933
 40
1.0
 40
1.0
 40
1.0
 10
189.14497050232387
 20
214.37462088765056
 30
0.0
 10
189.14346673819247
 20
214.3912246433282
 30
0.0
 10
189.14196297406107
 20
214.40782839900578
 30
0.0
 10
189.10296344969038
 20
214.90675499307707
 30
0.0
 10
189.01880127068597
 20
215.44588563220145
 30
0.0
 10
188.93463909168153
 20
215.98501627132589
 30
0.0
 10
188.71950693510087
 20
216.56838577005385
 30
0.0
 10
188.50437477852017
 20
217.15175526878181
 30
0.0
 10
188.23280690411286
 20
217.63222822541007
 30
0.0
 10
187.96123902970555
 20
218.11270118203834
 30
0.0
 10
187.51224982071972
 20
218.70063204970563
 30
0.0
 10
187.06326061173388
 20
219.28856291737299
 30
0.0
 10
186.27619431041211
 20
219.883989328761
 30
0.0
 10
185.48912800909034
 20
220.47941574014902
 30
0.0
 10
184.77483879280572
 20
220.76635953666346
 30
0.0
 10
184.06054957652111
 20
221.05330333317789
 30
0.0
 10
183.61188530781277
 20
221.156737882936
 30
0.0
 10
183.16322103910449
 20
221.26017243269411
 30
0.0
 10
182.76749951501142
 20
221.30068818593935
 30
0.0
 10
182.37177799091836
 20
221.3412039391846
 30
0.0
 10
181.9117595127218
 20
221.36156513169203
 30
0.0
 10
181.89643653753711
 20
221.36232962795174
 30
0.0
 10
181.88111356235243
 20
221.36309412421144
 30
0.0
  0
LINE
  5
370
100
AcDbEntity
  8
0
370
              25
  6
Continuous
 62
               7
100
AcDbLine
 10
181.88111356235243
 20
221.36309412421144
 30
0.0
 11
181.88111356235243
 21
221.6045618534223
 31
0.0
  0
LINE
  5
371
100
AcDbEntity
  8
0
370
              25
  6
Continuous
 62
               7
100
AcDbLine
 10
189.14497050232387
 20
214.37462088765056
 30
0.0
 11
189.39480709619022
 21
214.38365099133409
 31
0.0
  0
LINE
  5
372
100
AcDbEntity
  8
0
370
              25
  6
Continuous
 62
               7
100
AcDbLine
 10
181.88111356236902
 20
221.36309412420002
 30
0.0
 11
158.07566477691901
 21
221.36309412420002
 31
0.0
  0
LINE
  5
373
100
AcDbEntity
  8
0
370
              25
  6
Continuous
 62
               7
100
AcDbLine
 10
158.07566477691901
 20
221.60456185340001
 30
0.0
 11
181.88111356236902
 21
221.60456185340001
 31
0.0
  0
LINE
  5
374
100
AcDbEntity
  8
0
370
              25
  6
Continuous
 62
               7
100
AcDbLine
 10
189.728313710169
 20
197.66988647285001
 30
0.0
 11
189.14497050231901
 21
214.37462088765
 31
0.0
  0
LINE
  5
375
100
AcDbEntity
  8
0
370
              25
  6
Continuous
 62
               7
100
AcDbLine
 10
189.72339632696901
 20
197.38826197685
 30
0.0
 11
189.728313710169
 21
197.66988647285001
 31
0.0
  0
ARC
  5
376
100
AcDbEntity
  8
0
370
              25
  6
Continuous
 62
               7
100
AcDbCircle
 10
169.97838916961902
 20
220.89488222299997
 30
0.0
 40
30.698965782946324
100
AcDbArc
 50
229.97052994990003
 51
310.02947005009997
  0
LINE
  5
377
100
AcDbEntity
  8
0
370
              25
  6
Continuous
 62
               7
100
AcDbLine
 10
150.228464629119
 20
197.66988647285001
 30
0.0
 11
150.233382012319
 21
197.38826197685
 31
0.0
  0
LINE
  5
378
100
AcDbEntity
  8
0
370
              25
  6
Continuous
 62
               7
100
AcDbLine
 10
150.81179666106902
 20
214.3742967874
 30
0.0
 11
150.228464629119
 21
197.66988647285001
 31
0.0
  0
POLYLINE
  5
379
100
AcDbEntity
  8
0
370
              25
  6
Continuous
 62
               7
100
AcDb2dPolyline
 66
               1
 10
0.0
 20
0.0
 30
0.0
 75
               5
  0
VERTEX
  5
37A
100
AcDbEntity
  8
0
370
              25
  6
Continuous
 62
               7
100
AcDbVertex
100
AcDb2dVertex
 10
189.728313710169
 20
197.66988647285001
 30
0.0
  0
VERTEX
  5
37B
100
AcDbEntity
  8
0
370
              25
  6
Continuous
 62
               7
100
AcDbVertex
100
AcDb2dVertex
 10
189.77710011191903
 20
197.67031115595
 30
0.0
  0
VERTEX
  5
37C
100
AcDbEntity
  8
0
370
              25
  6
Continuous
 62
               7
100
AcDbVertex
100
AcDb2dVertex
 10
189.82401269261902
 20
197.67072093784998
 30
0.0
  0
VERTEX
  5
37D
100
AcDbEntity
  8
0
370
              25
  6
Continuous
 62
               7
100
AcDbVertex
100
AcDb2dVertex
 10
189.86724841181902
 20
197.67110091744999
 30
0.0
  0
VERTEX
  5
37E
100
AcDbEntity
  8
0
370
              25
  6
Continuous
 62
               7
100
AcDbVertex
100
AcDb2dVertex
 10
189.90514392741903
 20
197.67142874299998
 30
0.0
  0
VERTEX
  5
37F
100
AcDbEntity
  8
0
370
              25
  6
Continuous
 62
               7
100
AcDbVertex
100
AcDb2dVertex
 10
189.93624451346903
 20
197.67170068920001
 30
0.0
  0
VERTEX
  5
380
100
AcDbEntity
  8
0
370
              25
  6
Continuous
 62
               7
100
AcDbVertex
100
AcDb2dVertex
 10
189.95935248916902
 20
197.6719018549
 30
0.0
  0
VERTEX
  5
381
100
AcDbEntity
  8
0
370
              25
  6
Continuous
 62
               7
100
AcDbVertex
100
AcDb2dVertex
 10
189.97358309811904
 20
197.67202851475
 30
0.0
  0
VERTEX
  5
382
100
AcDbEntity
  8
0
370
              25
  6
Continuous
 62
               7
100
AcDbVertex
100
AcDb2dVertex
 10
189.978388722619
 20
197.67206949294999
 30
0.0
  0
SEQEND
  5
383
100
AcDbEntity
  8
0
370
              25
  6
Continuous
 62
               7
  0
LINE
  5
384
100
AcDbEntity
  8
0
370
              25
  6
Continuous
 62
               7
100
AcDbLine
 10
189.39480709616902
 20
214.38367334309999
 30
0.0
 11
189.978388722619
 21
197.67206949294999
 31
0.0
  0
LINE
  5
385
100
AcDbEntity
  8
0
370
              25
  6
Continuous
 62
               7
100
AcDbLine
 10
149.97838961666901
 20
197.67206949294999
 30
0.0
 11
150.56197124306902
 21
214.38365099135001
 31
0.0
  0
POLYLINE
  5
386
100
AcDbEntity
  8
0
370
              25
  6
Continuous
 62
               7
100
AcDb2dPolyline
 66
               1
 10
0.0
 20
0.0
 30
0.0
 75
               5
  0
VERTEX
  5
387
100
AcDbEntity
  8
0
370
              25
  6
Continuous
 62
               7
100
AcDbVertex
100
AcDb2dVertex
 10
149.97838961666901
 20
197.67206949294999
 30
0.0
  0
VERTEX
  5
388
100
AcDbEntity
  8
0
370
              25
  6
Continuous
 62
               7
100
AcDbVertex
100
AcDb2dVertex
 10
149.98218755011902
 20
197.67203596535001
 30
0.0
  0
VERTEX
  5
389
100
AcDbEntity
  8
0
370
              25
  6
Continuous
 62
               7
100
AcDbVertex
100
AcDb2dVertex
 10
149.99347145446902
 20
197.67193910779997
 30
0.0
  0
VERTEX
  5
38A
100
AcDbEntity
  8
0
370
              25
  6
Continuous
 62
               7
100
AcDbVertex
100
AcDb2dVertex
 10
150.01189301496902
 20
197.67177519500001
 30
0.0
  0
VERTEX
  5
38B
100
AcDbEntity
  8
0
370
              25
  6
Continuous
 62
               7
100
AcDbVertex
100
AcDb2dVertex
 10
150.03689530081903
 20
197.67155912819999
 30
0.0
  0
VERTEX
  5
38C
100
AcDbEntity
  8
0
370
              25
  6
Continuous
 62
               7
100
AcDbVertex
100
AcDb2dVertex
 10
150.06772021536904
 20
197.67129090729998
 30
0.0
  0
VERTEX
  5
38D
100
AcDbEntity
  8
0
370
              25
  6
Continuous
 62
               7
100
AcDbVertex
100
AcDb2dVertex
 10
150.10342712291902
 20
197.67097798290001
 30
0.0
  0
VERTEX
  5
38E
100
AcDbEntity
  8
0
370
              25
  6
Continuous
 62
               7
100
AcDbVertex
100
AcDb2dVertex
 10
150.14293382651903
 20
197.67063153089998
 30
0.0
  0
VERTEX
  5
38F
100
AcDbEntity
  8
0
370
              25
  6
Continuous
 62
               7
100
AcDbVertex
100
AcDb2dVertex
 10
150.18504078276902
 20
197.67026645244999
 30
0.0
  0
VERTEX
  5
390
100
AcDbEntity
  8
0
370
              25
  6
Continuous
 62
               7
100
AcDbVertex
100
AcDb2dVertex
 10
150.228464629119
 20
197.66988647285001
 30
0.0
  0
SEQEND
  5
391
100
AcDbEntity
  8
0
370
              25
  6
Continuous
 62
               7
  0
LINE
  5
392
100
AcDbEntity
  8
0
370
              25
  6
Continuous
 62
               7
100
AcDbLine
 10
189.978388722619
 20
197.67206949294999
 30
0.0
 11
189.97335958071903
 21
197.38389966189999
 31
0.0
  0
LINE
  5
393
100
AcDbEntity
  8
0
370
              25
  6
Continuous
 62
               7
100
AcDbLine
 10
149.98341875856903
 20
197.38389966189999
 30
0.0
 11
149.97838961666901
 21
197.67206949294999
 31
0.0
  0
ARC
  5
394
100
AcDbEntity
  8
0
370
              25
  6
Continuous
 62
               7
100
AcDbCircle
 10
169.97838916961902
 20
220.89488222299997
 30
0.0
 40
35.000000000000014
100
AcDbArc
 50
235.5550275153
 51
304.44497248469997
  0
LINE
  5
395
100
AcDbEntity
  8
0
370
              25
  6
Continuous
 62
               7
100
AcDbLine
 10
158.07566477691901
 20
222.0826320827
 30
0.0
 11
181.88111356236902
 21
222.0826320827
 31
0.0
  0
LINE
  5
396
100
AcDbEntity
  8
0
370
              25
  6
Continuous
 62
               7
100
AcDbLine
 10
150.56197124306902
 20
214.38365099135001
 30
0.0
 11
150.58023261611902
 21
214.90662959514998
 31
0.0
  0
LINE
  5
397
100
AcDbEntity
  8
0
370
              25
  6
Continuous
 62
               7
100
AcDbLine
 10
181.77838961371901
 20
222.59488185049997
 30
0.0
 11
158.17838872556902
 21
222.59488185049997
 31
0.0
  0
LINE
  5
398
100
AcDbEntity
  8
0
370
              25
  6
Continuous
 62
               7
100
AcDbLine
 10
181.77838961371901
 20
222.59488185049997
 30
0.0
 11
181.77838961371901
 21
222.19488252999997
 31
0.0
  0
LINE
  5
399
100
AcDbEntity
  8
0
370
              25
  6
Continuous
 62
               7
100
AcDbLine
 10
158.17838872556902
 20
222.19488252999997
 30
0.0
 11
158.17838872556902
 21
222.59488185049997
 31
0.0
  0
POLYLINE
  5
39A
100
AcDbEntity
  8
0
370
              25
  6
Continuous
 62
               7
100
AcDb2dPolyline
 66
               1
 10
0.0
 20
0.0
 30
0.0
 75
               5
  0
VERTEX
  5
39B
100
AcDbEntity
  8
0
370
              25
  6
Continuous
 62
               7
100
AcDbVertex
100
AcDb2dVertex
 10
189.933947871969
 20
197.69488317074999
 30
0.0
  0
VERTEX
  5
39C
100
AcDbEntity
  8
0
370
              25
  6
Continuous
 62
               7
100
AcDbVertex
100
AcDb2dVertex
 10
189.95170260556901
 20
197.18647045194999
 30
0.0
  0
VERTEX
  5
39D
100
AcDbEntity
  8
0
370
              25
  6
Continuous
 62
               7
100
AcDbVertex
100
AcDb2dVertex
 10
189.969019617519
 20
196.69057843389999
 30
0.0
  0
VERTEX
  5
39E
100
AcDbEntity
  8
0
370
              25
  6
Continuous
 62
               7
100
AcDbVertex
100
AcDb2dVertex
 10
189.98547236211903
 20
196.21941489279999
 30
0.0
  0
VERTEX
  5
39F
100
AcDbEntity
  8
0
370
              25
  6
Continuous
 62
               7
100
AcDbVertex
100
AcDb2dVertex
 10
190.00065664536902
 20
195.7845803827
 30
0.0
  0
VERTEX
  5
3A0
100
AcDbEntity
  8
0
370
              25
  6
Continuous
 62
               7
100
AcDbVertex
100
AcDb2dVertex
 10
190.01419993826903
 20
195.39678511324999
 30
0.0
  0
VERTEX
  5
3A1
100
AcDbEntity
  8
0
370
              25
  6
Continuous
 62
               7
100
AcDbVertex
100
AcDb2dVertex
 10
190.025765101969
 20
195.06557700334997
 30
0.0
  0
VERTEX
  5
3A2
100
AcDbEntity
  8
0
370
              25
  6
Continuous
 62
               7
100
AcDbVertex
100
AcDb2dVertex
 10
190.03507087711901
 20
194.79911071359999
 30
0.0
  0
VERTEX
  5
3A3
100
AcDbEntity
  8
0
370
              25
  6
Continuous
 62
               7
100
AcDbVertex
100
AcDb2dVertex
 10
190.041886295719
 20
194.60395020544999
 30
0.0
  0
VERTEX
  5
3A4
100
AcDbEntity
  8
0
370
              25
  6
Continuous
 62
               7
100
AcDbVertex
100
AcDb2dVertex
 10
190.04604371971902
 20
194.4848936528
 30
0.0
  0
VERTEX
  5
3A5
100
AcDbEntity
  8
0
370
              25
  6
Continuous
 62
               7
100
AcDbVertex
100
AcDb2dVertex
 10
190.04744070356901
 20
194.44488403499997
 30
0.0
  0
SEQEND
  5
3A6
100
AcDbEntity
  8
0
370
              25
  6
Continuous
 62
               7
  0
LINE
  5
3A7
100
AcDbEntity
  8
0
370
              25
  6
Continuous
 62
               7
100
AcDbLine
 10
190.04744070356901
 20
194.44488403499997
 30
0.0
 11
189.92205860801903
 21
194.44488403499997
 31
0.0
  0
POLYLINE
  5
3A8
100
AcDbEntity
  8
0
370
              25
  6
Continuous
 62
               7
100
AcDb2dPolyline
 66
               1
 10
0.0
 20
0.0
 30
0.0
 75
               5
  0
VERTEX
  5
3A9
100
AcDbEntity
  8
0
370
              25
  6
Continuous
 62
               7
100
AcDbVertex
100
AcDb2dVertex
 10
149.909337635719
 20
194.44488403499997
 30
0.0
  0
VERTEX
  5
3AA
100
AcDbEntity
  8
0
370
              25
  6
Continuous
 62
               7
100
AcDbVertex
100
AcDb2dVertex
 10
149.91073461956901
 20
194.4848936528
 30
0.0
  0
VERTEX
  5
3AB
100
AcDbEntity
  8
0
370
              25
  6
Continuous
 62
               7
100
AcDbVertex
100
AcDb2dVertex
 10
149.91489204351902
 20
194.60395020544999
 30
0.0
  0
VERTEX
  5
3AC
100
AcDbEntity
  8
0
370
              25
  6
Continuous
 62
               7
100
AcDbVertex
100
AcDb2dVertex
 10
149.921707462119
 20
194.79911071359999
 30
0.0
  0
VERTEX
  5
3AD
100
AcDbEntity
  8
0
370
              25
  6
Continuous
 62
               7
100
AcDbVertex
100
AcDb2dVertex
 10
149.93101323731901
 20
195.06557700334997
 30
0.0
  0
VERTEX
  5
3AE
100
AcDbEntity
  8
0
370
              25
  6
Continuous
 62
               7
100
AcDbVertex
100
AcDb2dVertex
 10
149.94257840101903
 20
195.39678511324999
 30
0.0
  0
VERTEX
  5
3AF
100
AcDbEntity
  8
0
370
              25
  6
Continuous
 62
               7
100
AcDbVertex
100
AcDb2dVertex
 10
149.95612169391902
 20
195.7845803827
 30
0.0
  0
VERTEX
  5
3B0
100
AcDbEntity
  8
0
370
              25
  6
Continuous
 62
               7
100
AcDbVertex
100
AcDb2dVertex
 10
149.97130597716901
 20
196.21941489279999
 30
0.0
  0
VERTEX
  5
3B1
100
AcDbEntity
  8
0
370
              25
  6
Continuous
 62
               7
100
AcDbVertex
100
AcDb2dVertex
 10
149.98775872176901
 20
196.69057843389999
 30
0.0
  0
VERTEX
  5
3B2
100
AcDbEntity
  8
0
370
              25
  6
Continuous
 62
               7
100
AcDbVertex
100
AcDb2dVertex
 10
150.00507573371902
 20
197.18647045194999
 30
0.0
  0
VERTEX
  5
3B3
100
AcDbEntity
  8
0
370
              25
  6
Continuous
 62
               7
100
AcDbVertex
100
AcDb2dVertex
 10
150.02283046726902
 20
197.69488317074999
 30
0.0
  0
SEQEND
  5
3B4
100
AcDbEntity
  8
0
370
              25
  6
Continuous
 62
               7
  0
LINE
  5
3B5
100
AcDbEntity
  8
0
370
              25
  6
Continuous
 62
               7
100
AcDbLine
 10
150.03471973126904
 20
194.44488403499997
 30
0.0
 11
149.909337635719
 21
194.44488403499997
 31
0.0
  0
LINE
  5
3B6
100
AcDbEntity
  8
0
370
              25
  6
Continuous
 62
               7
100
AcDbLine
 10
181.83572369401901
 20
222.19488252999997
 30
0.0
 11
158.121054645269
 21
222.19488252999997
 31
0.0
  0
ARC
  5
3B7
100
AcDbEntity
  8
0
370
              25
  6
Continuous
 62
               7
100
AcDbCircle
 10
158.12105498066902
 20
214.69488222299998
 30
0.0
 40
7.5
100
AcDbArc
 50
90.0
 51
178.00000000000006
  0
ARC
  5
3B8
100
AcDbEntity
  8
0
370
              25
  6
Continuous
 62
               7
100
AcDbCircle
 10
181.835723358569
 20
214.69488222299998
 30
0.0
 40
7.4999999999999991
100
AcDbArc
 50
1.9999999999999576
 51
90.0
  0
INSERT
  5
3B9
100
AcDbEntity
  8
寸法
100
AcDbBlockReference
  2
_D_2
 10
68.154545342169015
 20
73.857765184299993
 30
0.0
 41
0.5
 42
0.5
 43
0.5
  0
ENDSEC
  0
SECTION
  2
OBJECTS
  0
DICTIONARY
  5
19
100
AcDbDictionary
280
               0
281
               1
  3
ACAD_GROUP
350
1A
  3
ACAD_MLINESTYLE
350
1B
  3
ACAD_LAYOUT
350
1E
  3
ACAD_PLOTSETTINGS
350
22
  3
ACAD_PLOTSTYLENAME
350
1F
  0
DICTIONARY
  5
1A
102
{ACAD_REACTORS
330
19
102
}
100
AcDbDictionary
280
               0
281
               1
  0
DICTIONARY
  5
1B
102
{ACAD_REACTORS
330
19
102
}
100
AcDbDictionary
280
               0
281
               1
  3
Standard
350
1C
  0
MLINESTYLE
  5
1C
102
{ACAD_REACTORS
330
1B
102
}
100
AcDbMlineStyle
  2
Standard
 70
               0
  3

 62
               0
 51
90.0
 52
90.0
 71
               2
 49
0.5
 62
             256
  6
BYLAYER
 49
-0.5
 62
             256
  6
BYLAYER
  0
ACDBDICTIONARYWDFLT
  5
1F
102
{ACAD_REACTORS
330
19
102
}
100
AcDbDictionary
281
               1
  3
Normal
350
1D
100
AcDbDictionaryWithDefault
340
1D
  0
ACDBPLACEHOLDER
  5
1D
102
{ACAD_REACTORS
330
1F
102
}
  0
LAYOUT
  5
20
102
{ACAD_REACTORS
330
1E
102
}
100
AcDbPlotSettings
  1

  2

  4

  6

 40
0.0
 41
0.0
 42
0.0
 43
0.0
 44
0.0
 45
0.0
 46
0.0
 47
0.0
 48
0.0
 49
0.0
140
0.0
141
0.0
142
1.0
143
1.0
 70
            1024
 72
               0
 73
               0
 74
               0
  7

 75
               0
147
1.0
148
0.0
149
0.0
100
AcDbLayout
  1
Model
 70
               0
 71
               0
 10
0.0
 20
0.0
 11
0.0
 21
0.0
 12
0.0
 22
0.0
 32
0.0
 14
0.0
 24
0.0
 34
0.0
 15
0.0
 25
0.0
 35
0.0
146
0.0
 13
0.0
 23
0.0
 33
0.0
 16
0.0
 26
0.0
 36
0.0
 17
0.0
 27
0.0
 37
0.0
 76
               0
330
A
331
0
345
0
346
0
  0
LAYOUT
  5
21
102
{ACAD_REACTORS
330
1E
102
}
100
AcDbPlotSettings
  1

  2

  4

  6

 40
0.0
 41
0.0
 42
0.0
 43
0.0
 44
0.0
 45
0.0
 46
0.0
 47
0.0
 48
0.0
 49
0.0
140
0.0
141
0.0
142
1.0
143
1.0
 70
               0
 72
               0
 73
               0
 74
               0
  7

 75
               0
147
1.0
148
0.0
149
0.0
100
AcDbLayout
  1
Layout1
 70
               0
 71
               0
 10
0.0
 20
0.0
 11
0.0
 21
0.0
 12
0.0
 22
0.0
 32
0.0
 14
0.0
 24
0.0
 34
0.0
 15
0.0
 25
0.0
 35
0.0
146
0.0
 13
0.0
 23
0.0
 33
0.0
 16
0.0
 26
0.0
 36
0.0
 17
0.0
 27
0.0
 37
0.0
 76
               0
330
B
331
0
345
0
346
0
  0
DICTIONARY
  5
1E
102
{ACAD_REACTORS
330
19
102
}
100
AcDbDictionary
280
               0
281
               1
  3
Layout1
350
21
  3
Model
350
20
  0
DICTIONARY
  5
22
102
{ACAD_REACTORS
330
19
102
}
100
AcDbDictionary
280
               0
281
               1
  0
ENDSEC
  0
EOF
