  0
SECTION
  2
HEADER
  9
$ACADVER
  1
AC1018
  9
$ACADMAINTVER
 70
     0
  9
$DWGCODEPAGE
  3
ANSI_932
  9
$INSBASE
 10
0.0
 20
0.0
 30
0.0
  9
$EXTMIN
 10
1.000000000000000E+20
 20
1.000000000000000E+20
 30
1.000000000000000E+20
  9
$EXTMAX
 10
-1.000000000000000E+20
 20
-1.000000000000000E+20
 30
-1.000000000000000E+20
  9
$LIMMIN
 10
0.0
 20
0.0
  9
$LIMMAX
 10
12.0
 20
9.0
  9
$ORTHOMODE
 70
     0
  9
$REGENMODE
 70
     1
  9
$FILLMODE
 70
     1
  9
$QTEXTMODE
 70
     0
  9
$MIRRTEXT
 70
     1
  9
$LTSCALE
 40
1.0
  9
$ATTMODE
 70
     1
  9
$TEXTSIZE
 40
0.2
  9
$TRACEWID
 40
0.05
  9
$TEXTSTYLE
  7
Standard
  9
$CLAYER
  8
0
  9
$CELTYPE
  6
ByLayer
  9
$CECOLOR
 62
   256
  9
$CELTSCALE
 40
1.0
  9
$DISPSILH
 70
     0
  9
$DIMSCALE
 40
1.0
  9
$DIMASZ
 40
0.18
  9
$DIMEXO
 40
0.0625
  9
$DIMDLI
 40
0.38
  9
$DIMRND
 40
0.0
  9
$DIMDLE
 40
0.0
  9
$DIMEXE
 40
0.18
  9
$DIMTP
 40
0.0
  9
$DIMTM
 40
0.0
  9
$DIMTXT
 40
0.18
  9
$DIMCEN
 40
0.09
  9
$DIMTSZ
 40
0.0
  9
$DIMTOL
 70
     0
  9
$DIMLIM
 70
     0
  9
$DIMTIH
 70
     1
  9
$DIMTOH
 70
     1
  9
$DIMSE1
 70
     0
  9
$DIMSE2
 70
     0
  9
$DIMTAD
 70
     0
  9
$DIMZIN
 70
     0
  9
$DIMBLK
  1

  9
$DIMASO
 70
     1
  9
$DIMSHO
 70
     1
  9
$DIMPOST
  1

  9
$DIMAPOST
  1

  9
$DIMALT
 70
     0
  9
$DIMALTD
 70
     2
  9
$DIMALTF
 40
25.4
  9
$DIMLFAC
 40
1.0
  9
$DIMTOFL
 70
     0
  9
$DIMTVP
 40
0.0
  9
$DIMTIX
 70
     0
  9
$DIMSOXD
 70
     0
  9
$DIMSAH
 70
     0
  9
$DIMBLK1
  1

  9
$DIMBLK2
  1

  9
$DIMSTYLE
  2
Standard
  9
$DIMCLRD
 70
     0
  9
$DIMCLRE
 70
     0
  9
$DIMCLRT
 70
     0
  9
$DIMTFAC
 40
1.0
  9
$DIMGAP
 40
0.09
  9
$DIMJUST
 70
     0
  9
$DIMSD1
 70
     0
  9
$DIMSD2
 70
     0
  9
$DIMTOLJ
 70
     1
  9
$DIMTZIN
 70
     0
  9
$DIMALTZ
 70
     0
  9
$DIMALTTZ
 70
     0
  9
$DIMUPT
 70
     0
  9
$DIMDEC
 70
     4
  9
$DIMTDEC
 70
     4
  9
$DIMALTU
 70
     2
  9
$DIMALTTD
 70
     2
  9
$DIMTXSTY
  7
Standard
  9
$DIMAUNIT
 70
     0
  9
$DIMADEC
 70
     0
  9
$DIMALTRND
 40
0.0
  9
$DIMAZIN
 70
     0
  9
$DIMDSEP
 70
    46
  9
$DIMATFIT
 70
     3
  9
$DIMFRAC
 70
     0
  9
$DIMLDRBLK
  1

  9
$DIMLUNIT
 70
     2
  9
$DIMLWD
 70
    -2
  9
$DIMLWE
 70
    -2
  9
$DIMTMOVE
 70
     0
  9
$LUNITS
 70
     2
  9
$LUPREC
 70
     4
  9
$SKETCHINC
 40
0.1
  9
$FILLETRAD
 40
0.5
  9
$AUNITS
 70
     0
  9
$AUPREC
 70
     0
  9
$MENU
  1
.
  9
$ELEVATION
 40
0.0
  9
$PELEVATION
 40
0.0
  9
$THICKNESS
 40
0.0
  9
$LIMCHECK
 70
     0
  9
$CHAMFERA
 40
0.5
  9
$CHAMFERB
 40
0.5
  9
$CHAMFERC
 40
1.0
  9
$CHAMFERD
 40
0.0
  9
$SKPOLY
 70
     0
  9
$TDCREATE
 40
2457970.581616227
  9
$TDUCREATE
 40
2457970.206616227
  9
$TDUPDATE
 40
2457970.581616238
  9
$TDUUPDATE
 40
2457970.206616238
  9
$TDINDWG
 40
0.0000000116
  9
$TDUSRTIMER
 40
0.0000000116
  9
$USRTIMER
 70
     1
  9
$ANGBASE
 50
0.0
  9
$ANGDIR
 70
     0
  9
$PDMODE
 70
     0
  9
$PDSIZE
 40
0.0
  9
$PLINEWID
 40
0.0
  9
$SPLFRAME
 70
     0
  9
$SPLINETYPE
 70
     6
  9
$SPLINESEGS
 70
     8
  9
$HANDSEED
  5
125
  9
$SURFTAB1
 70
     6
  9
$SURFTAB2
 70
     6
  9
$SURFTYPE
 70
     6
  9
$SURFU
 70
     6
  9
$SURFV
 70
     6
  9
$UCSBASE
  2

  9
$UCSNAME
  2

  9
$UCSORG
 10
0.0
 20
0.0
 30
0.0
  9
$UCSXDIR
 10
1.0
 20
0.0
 30
0.0
  9
$UCSYDIR
 10
0.0
 20
1.0
 30
0.0
  9
$UCSORTHOREF
  2

  9
$UCSORTHOVIEW
 70
     0
  9
$UCSORGTOP
 10
0.0
 20
0.0
 30
0.0
  9
$UCSORGBOTTOM
 10
0.0
 20
0.0
 30
0.0
  9
$UCSORGLEFT
 10
0.0
 20
0.0
 30
0.0
  9
$UCSORGRIGHT
 10
0.0
 20
0.0
 30
0.0
  9
$UCSORGFRONT
 10
0.0
 20
0.0
 30
0.0
  9
$UCSORGBACK
 10
0.0
 20
0.0
 30
0.0
  9
$PUCSBASE
  2

  9
$PUCSNAME
  2

  9
$PUCSORG
 10
0.0
 20
0.0
 30
0.0
  9
$PUCSXDIR
 10
1.0
 20
0.0
 30
0.0
  9
$PUCSYDIR
 10
0.0
 20
1.0
 30
0.0
  9
$PUCSORTHOREF
  2

  9
$PUCSORTHOVIEW
 70
     0
  9
$PUCSORGTOP
 10
0.0
 20
0.0
 30
0.0
  9
$PUCSORGBOTTOM
 10
0.0
 20
0.0
 30
0.0
  9
$PUCSORGLEFT
 10
0.0
 20
0.0
 30
0.0
  9
$PUCSORGRIGHT
 10
0.0
 20
0.0
 30
0.0
  9
$PUCSORGFRONT
 10
0.0
 20
0.0
 30
0.0
  9
$PUCSORGBACK
 10
0.0
 20
0.0
 30
0.0
  9
$USERI1
 70
     0
  9
$USERI2
 70
     0
  9
$USERI3
 70
     0
  9
$USERI4
 70
     0
  9
$USERI5
 70
     0
  9
$USERR1
 40
0.0
  9
$USERR2
 40
0.0
  9
$USERR3
 40
0.0
  9
$USERR4
 40
0.0
  9
$USERR5
 40
0.0
  9
$WORLDVIEW
 70
     1
  9
$SHADEDGE
 70
     3
  9
$SHADEDIF
 70
    70
  9
$TILEMODE
 70
     1
  9
$MAXACTVP
 70
    64
  9
$PINSBASE
 10
0.0
 20
0.0
 30
0.0
  9
$PLIMCHECK
 70
     0
  9
$PEXTMIN
 10
1.000000000000000E+20
 20
1.000000000000000E+20
 30
1.000000000000000E+20
  9
$PEXTMAX
 10
-1.000000000000000E+20
 20
-1.000000000000000E+20
 30
-1.000000000000000E+20
  9
$PLIMMIN
 10
0.0
 20
0.0
  9
$PLIMMAX
 10
12.0
 20
9.0
  9
$UNITMODE
 70
     0
  9
$VISRETAIN
 70
     1
  9
$PLINEGEN
 70
     0
  9
$PSLTSCALE
 70
     1
  9
$TREEDEPTH
 70
  3020
  9
$CMLSTYLE
  2
Standard
  9
$CMLJUST
 70
     0
  9
$CMLSCALE
 40
1.0
  9
$PROXYGRAPHICS
 70
     1
  9
$MEASUREMENT
 70
     0
  9
$CELWEIGHT
370
    -1
  9
$ENDCAPS
280
     0
  9
$JOINSTYLE
280
     0
  9
$LWDISPLAY
290
     1
  9
$INSUNITS
 70
     1
  9
$HYPERLINKBASE
  1

  9
$STYLESHEET
  1

  9
$XEDIT
290
     1
  9
$CEPSNTYPE
380
     0
  9
$PSTYLEMODE
290
     1
  9
$FINGERPRINTGUID
  2
{B4E6F62F-1873-4F71-B36C-F80FA4B8770E}
  9
$VERSIONGUID
  2
{FAEB1C32-E019-11D5-929B-00C0DF256EC4}
  9
$EXTNAMES
290
     1
  9
$PSVPSCALE
 40
0.0
  9
$OLESTARTUP
290
     0
  9
$SORTENTS
280
   127
  9
$INDEXCTL
280
     0
  9
$HIDETEXT
280
     1
  9
$XCLIPFRAME
290
     0
  9
$HALOGAP
280
     0
  9
$OBSCOLOR
 70
   257
  9
$OBSLTYPE
280
     0
  9
$INTERSECTIONDISPLAY
280
     0
  9
$INTERSECTIONCOLOR
 70
   257
  9
$DIMASSOC
280
     2
  9
$PROJECTNAME
  1

  0
ENDSEC
  0
SECTION
  2
CLASSES
  0
CLASS
  1
ACDBDICTIONARYWDFLT
  2
AcDbDictionaryWithDefault
  3
ObjectDBX Classes
 90
        0
 91
        3
280
     0
281
     0
  0
CLASS
  1
VISUALSTYLE
  2
AcDbVisualStyle
  3
ObjectDBX Classes
 90
     4095
 91
        3
280
     0
281
     0
  0
ENDSEC
  0
SECTION
  2
TABLES
  0
TABLE
  2
VPORT
  5
8
330
0
100
AcDbSymbolTable
 70
     1
  0
VPORT
  5
29
330
8
100
AcDbSymbolTableRecord
100
AcDbViewportTableRecord
  2
*Active
 70
     0
 10
0.0
 20
0.0
 11
1.0
 21
1.0
 12
0.0
 22
0.0
 13
0.0
 23
0.0
 14
0.5
 24
0.5
 15
0.5
 25
0.5
 16
0.0
 26
0.0
 36
1.0
 17
128.4993055234307
 27
-91.00081920468035
 37
0.0
 40
182.0016384093607
 41
1.412067568693071
 42
50.0
 43
0.0
 44
0.0
 50
0.0
 51
0.0
 71
     0
 72
   100
 73
     1
 74
     3
 75
     0
 76
     0
 77
     0
 78
     0
281
     0
 65
     1
110
0.0
120
0.0
130
0.0
111
1.0
121
0.0
131
0.0
112
0.0
122
1.0
132
0.0
 79
     0
146
0.0
  0
ENDTAB
  0
TABLE
  2
LTYPE
  5
5
330
0
100
AcDbSymbolTable
 70
     1
  0
LTYPE
  5
14
330
5
100
AcDbSymbolTableRecord
100
AcDbLinetypeTableRecord
  2
ByBlock
 70
     0
  3

 72
    65
 73
     0
 40
0.0
  0
LTYPE
  5
15
330
5
100
AcDbSymbolTableRecord
100
AcDbLinetypeTableRecord
  2
ByLayer
 70
     0
  3

 72
    65
 73
     0
 40
0.0
  0
LTYPE
  5
16
330
5
100
AcDbSymbolTableRecord
100
AcDbLinetypeTableRecord
  2
Continuous
 70
     0
  3
Solid line
 72
    65
 73
     0
 40
0.0
  0
ENDTAB
  0
TABLE
  2
LAYER
  5
2
330
0
100
AcDbSymbolTable
 70
     2
  0
LAYER
  5
10
330
2
100
AcDbSymbolTableRecord
100
AcDbLayerTableRecord
  2
0
 70
     0
 62
     7
  6
Continuous
370
    -3
390
F
  0
LAYER
  5
3B
330
2
100
AcDbSymbolTableRecord
100
AcDbLayerTableRecord
  2
\U+30EC\U+30A4\U+30E4\U+30FC 1
 70
     0
 62
     7
  6
Continuous
370
    -3
390
F
  0
ENDTAB
  0
TABLE
  2
STYLE
  5
3
330
0
100
AcDbSymbolTable
 70
     1
  0
STYLE
  5
11
330
3
100
AcDbSymbolTableRecord
100
AcDbTextStyleTableRecord
  2
Standard
 70
     0
 40
0.0
 41
1.0
 50
0.0
 71
     0
 42
0.2
  3
txt
  4

  0
ENDTAB
  0
TABLE
  2
VIEW
  5
6
330
0
100
AcDbSymbolTable
 70
     0
  0
ENDTAB
  0
TABLE
  2
UCS
  5
7
330
0
100
AcDbSymbolTable
 70
     0
  0
ENDTAB
  0
TABLE
  2
APPID
  5
9
330
0
100
AcDbSymbolTable
 70
     1
  0
APPID
  5
12
330
9
100
AcDbSymbolTableRecord
100
AcDbRegAppTableRecord
  2
ACAD
 70
     0
  0
ENDTAB
  0
TABLE
  2
DIMSTYLE
  5
A
330
0
100
AcDbSymbolTable
 70
     1
100
AcDbDimStyleTable
  0
DIMSTYLE
105
27
330
A
100
AcDbSymbolTableRecord
100
AcDbDimStyleTableRecord
  2
Standard
 70
     0
340
11
  0
ENDTAB
  0
TABLE
  2
BLOCK_RECORD
  5
1
330
0
100
AcDbSymbolTable
 70
     8
  0
BLOCK_RECORD
  5
1F
330
1
100
AcDbSymbolTableRecord
100
AcDbBlockTableRecord
  2
*Model_Space
340
22
  0
BLOCK_RECORD
  5
1B
330
1
100
AcDbSymbolTableRecord
100
AcDbBlockTableRecord
  2
*Paper_Space
340
1E
  0
BLOCK_RECORD
  5
23
330
1
100
AcDbSymbolTableRecord
100
AcDbBlockTableRecord
  2
*Paper_Space0
340
26
  0
BLOCK_RECORD
  5
3C
330
1
100
AcDbSymbolTableRecord
100
AcDbBlockTableRecord
  2
block 2
340
0
102
{BLKREFS
331
3D
102
}
  0
BLOCK_RECORD
  5
41
330
1
100
AcDbSymbolTableRecord
100
AcDbBlockTableRecord
  2
block 3
340
0
102
{BLKREFS
331
42
102
}
  0
BLOCK_RECORD
  5
45
330
1
100
AcDbSymbolTableRecord
100
AcDbBlockTableRecord
  2
block 4
340
0
102
{BLKREFS
331
46
102
}
  0
BLOCK_RECORD
  5
49
330
1
100
AcDbSymbolTableRecord
100
AcDbBlockTableRecord
  2
block 5
340
0
102
{BLKREFS
331
4A
102
}
  0
BLOCK_RECORD
  5
5F
330
1
100
AcDbSymbolTableRecord
100
AcDbBlockTableRecord
  2
block 6
340
0
102
{BLKREFS
331
60
102
}
  0
BLOCK_RECORD
  5
BB
330
1
100
AcDbSymbolTableRecord
100
AcDbBlockTableRecord
  2
block 7
340
0
102
{BLKREFS
331
BC
102
}
  0
BLOCK_RECORD
  5
BF
330
1
100
AcDbSymbolTableRecord
100
AcDbBlockTableRecord
  2
block 8
340
0
102
{BLKREFS
331
C0
102
}
  0
ENDTAB
  0
ENDSEC
  0
SECTION
  2
BLOCKS
  0
BLOCK
  5
20
330
1F
100
AcDbEntity
  8
0
100
AcDbBlockBegin
  2
*Model_Space
 70
     0
 71
     0
 10
0.0
 20
0.0
 30
0.0
  3
*Model_Space
  1

  0
ENDBLK
  5
21
330
1F
100
AcDbEntity
  8
0
100
AcDbBlockEnd
  0
BLOCK
  5
1C
330
1B
100
AcDbEntity
 67
     1
  8
0
100
AcDbBlockBegin
  2
*Paper_Space
 70
     0
 71
     0
 10
0.0
 20
0.0
 30
0.0
  3
*Paper_Space
  1

  0
ENDBLK
  5
1D
330
1B
100
AcDbEntity
 67
     1
  8
0
100
AcDbBlockEnd
  0
BLOCK
  5
24
330
23
100
AcDbEntity
  8
0
100
AcDbBlockBegin
  2
*Paper_Space0
 70
     0
 71
     0
 10
0.0
 20
0.0
 30
0.0
  3
*Paper_Space0
  1

  0
ENDBLK
  5
25
330
23
100
AcDbEntity
  8
0
100
AcDbBlockEnd
  0
BLOCK
  5
3E
330
3C
100
AcDbEntity
  8
0
100
AcDbBlockBegin
  2
block 2
 70
     0
 71
     0
 10
0.0
 20
0.0
 30
0.0
  3
block 2
  1

  0
MTEXT
  5
40
330
3C
100
AcDbEntity
  8
\U+30EC\U+30A4\U+30E4\U+30FC 1
 62
     7
420
 16777215
100
AcDbMText
 10
151.9841769368304
 20
-109.0741346298495
 30
0.0
 40
1.4393333329735
 41
0.0
 71
     7
 72
     1
  1
\fGGothicBBBPro Medium-83pv-RKSJ-H|b0|i0|c0|p34;\W1;Unit:mm(inch)
 73
     1
 44
1.0
  0
ENDBLK
  5
3F
330
3C
100
AcDbEntity
  8
0
100
AcDbBlockEnd
  0
BLOCK
  5
43
330
41
100
AcDbEntity
  8
0
100
AcDbBlockBegin
  2
block 3
 70
     0
 71
     0
 10
0.0
 20
0.0
 30
0.0
  3
block 3
  1

  0
INSERT
  5
46
330
41
100
AcDbEntity
  8
\U+30EC\U+30A4\U+30E4\U+30FC 1
100
AcDbBlockReference
  2
block 4
 10
0.0
 20
0.0
 30
0.0
  0
ENDBLK
  5
44
330
41
100
AcDbEntity
  8
0
100
AcDbBlockEnd
  0
BLOCK
  5
47
330
45
100
AcDbEntity
  8
0
100
AcDbBlockBegin
  2
block 4
 70
     0
 71
     0
 10
0.0
 20
0.0
 30
0.0
  3
block 4
  1

  0
INSERT
  5
4A
330
45
100
AcDbEntity
  8
\U+30EC\U+30A4\U+30E4\U+30FC 1
100
AcDbBlockReference
  2
block 5
 10
0.0
 20
0.0
 30
0.0
  0
INSERT
  5
60
330
45
100
AcDbEntity
  8
\U+30EC\U+30A4\U+30E4\U+30FC 1
100
AcDbBlockReference
  2
block 6
 10
0.0
 20
0.0
 30
0.0
  0
POLYLINE
  5
75
330
45
100
AcDbEntity
  8
\U+30EC\U+30A4\U+30E4\U+30FC 1
 62
     7
420
 16777215
370
     9
100
AcDb2dPolyline
 66
     1
 10
0.0
 20
0.0
 30
0.0
  0
VERTEX
  5
76
330
75
100
AcDbEntity
  8
\U+30EC\U+30A4\U+30E4\U+30FC 1
 62
     7
420
 16777215
370
     9
100
AcDbVertex
100
AcDb2dVertex
 10
92.4412136270633
 20
-100.1079291199383
 30
0.0
  0
VERTEX
  5
77
330
75
100
AcDbEntity
  8
\U+30EC\U+30A4\U+30E4\U+30FC 1
 62
     7
420
 16777215
370
     9
100
AcDbVertex
100
AcDb2dVertex
 10
92.4412136270633
 20
-101.1914116500494
 30
0.0
  0
SEQEND
  5
78
330
75
100
AcDbEntity
  8
\U+30EC\U+30A4\U+30E4\U+30FC 1
370
     9
  0
POLYLINE
  5
79
330
45
100
AcDbEntity
  8
\U+30EC\U+30A4\U+30E4\U+30FC 1
 62
     7
420
 16777215
370
     9
100
AcDb2dPolyline
 66
     1
 10
0.0
 20
0.0
 30
0.0
  0
VERTEX
  5
7A
330
79
100
AcDbEntity
  8
\U+30EC\U+30A4\U+30E4\U+30FC 1
 62
     7
420
 16777215
370
     9
100
AcDbVertex
100
AcDb2dVertex
 10
104.985495307955
 20
-100.2732937032303
 30
0.0
  0
VERTEX
  5
7B
330
79
100
AcDbEntity
  8
\U+30EC\U+30A4\U+30E4\U+30FC 1
 62
     7
420
 16777215
370
     9
100
AcDbVertex
100
AcDb2dVertex
 10
104.985495307955
 20
-101.3319715458476
 30
0.0
  0
SEQEND
  5
7C
330
79
100
AcDbEntity
  8
\U+30EC\U+30A4\U+30E4\U+30FC 1
370
     9
  0
SPLINE
  5
7D
330
45
100
AcDbEntity
  8
\U+30EC\U+30A4\U+30E4\U+30FC 1
 62
     7
420
 16777215
370
     9
100
AcDbSpline
210
0.0
220
0.0
230
1.0
 70
    11
 71
     3
 72
    47
 73
    43
 74
     0
 42
0.0000000001
 43
0.0000000001
 40
0.0
 40
0.0
 40
0.0
 40
0.0
 40
1.0
 40
1.0
 40
1.0
 40
2.0
 40
2.0
 40
2.0
 40
3.0
 40
3.0
 40
3.0
 40
4.0
 40
4.0
 40
4.0
 40
5.0
 40
5.0
 40
5.0
 40
6.0
 40
6.0
 40
6.0
 40
7.0
 40
7.0
 40
7.0
 40
8.0
 40
8.0
 40
8.0
 40
9.0
 40
9.0
 40
9.0
 40
10.0
 40
10.0
 40
10.0
 40
11.0
 40
11.0
 40
11.0
 40
12.0
 40
12.0
 40
12.0
 40
13.0
 40
13.0
 40
13.0
 40
14.0
 40
14.0
 40
14.0
 40
14.0
 10
97.773532419133
 20
-105.1219210891709
 30
0.0
 10
97.773532419133
 20
-105.1219210891709
 30
0.0
 10
98.26755911171783
 20
-105.1219210891709
 30
0.0
 10
98.26755911171783
 20
-105.1219210891709
 30
0.0
 10
98.26755911171783
 20
-105.1219210891709
 30
0.0
 10
98.26755911171783
 20
-104.7291802038524
 30
0.0
 10
98.26755911171783
 20
-104.7291802038524
 30
0.0
 10
98.26755911171783
 20
-104.4728650997498
 30
0.0
 10
97.9774820718598
 20
-104.4459933549649
 30
0.0
 10
97.9774820718598
 20
-104.4459933549649
 30
0.0
 10
97.9774820718598
 20
-104.4459933549649
 30
0.0
 10
97.37734643832928
 20
-104.4459933549649
 30
0.0
 10
97.37734643832928
 20
-104.4459933549649
 30
0.0
 10
97.37734643832928
 20
-104.4459933549649
 30
0.0
 10
97.37734643832928
 20
-105.2566243226442
 30
0.0
 10
97.37734643832928
 20
-105.2566243226442
 30
0.0
 10
97.37734643832928
 20
-105.2566243226442
 30
0.0
 10
97.37459036194107
 20
-105.3324164233197
 30
0.0
 10
97.44142521435492
 20
-105.3324164233197
 30
0.0
 10
97.44142521435492
 20
-105.3324164233197
 30
0.0
 10
97.61815861274825
 20
-105.3324164233197
 30
0.0
 10
97.61815861274825
 20
-105.3324164233197
 30
0.0
 10
97.61815861274825
 20
-105.3324164233197
 30
0.0
 10
97.61815861274825
 20
-104.7029974781645
 30
0.0
 10
97.61815861274825
 20
-104.7029974781645
 30
0.0
 10
97.61815861274825
 20
-104.7029974781645
 30
0.0
 10
97.9761040336657
 20
-104.7029974781645
 30
0.0
 10
97.9761040336657
 20
-104.7029974781645
 30
0.0
 10
97.9761040336657
 20
-104.7029974781645
 30
0.0
 10
98.03053654233265
 20
-104.7002414017763
 30
0.0
 10
98.03053654233265
 20
-104.7653537064476
 30
0.0
 10
98.03053654233265
 20
-104.7653537064476
 30
0.0
 10
98.03053654233265
 20
-104.8959228253385
 30
0.0
 10
98.03053654233265
 20
-104.8959228253385
 30
0.0
 10
98.03053654233265
 20
-104.8959228253385
 30
0.0
 10
97.67155759276962
 20
-104.8959228253385
 30
0.0
 10
97.67155759276962
 20
-104.8959228253385
 30
0.0
 10
97.67155759276962
 20
-104.8959228253385
 30
0.0
 10
97.67155759276962
 20
-105.0357937020397
 30
0.0
 10
97.67155759276962
 20
-105.0357937020397
 30
0.0
 10
97.67155759276962
 20
-105.0357937020397
 30
0.0
 10
97.67500268825486
 20
-105.1219210891709
 30
0.0
 10
97.773532419133
 20
-105.1219210891709
 30
0.0
  0
SPLINE
  5
7E
330
45
100
AcDbEntity
  8
\U+30EC\U+30A4\U+30E4\U+30FC 1
 62
     7
420
 16777215
370
     9
100
AcDbSpline
210
0.0
220
0.0
230
1.0
 70
    11
 71
     3
 72
    41
 73
    37
 74
     0
 42
0.0000000001
 43
0.0000000001
 40
0.0
 40
0.0
 40
0.0
 40
0.0
 40
1.0
 40
1.0
 40
1.0
 40
2.0
 40
2.0
 40
2.0
 40
3.0
 40
3.0
 40
3.0
 40
4.0
 40
4.0
 40
4.0
 40
5.0
 40
5.0
 40
5.0
 40
6.0
 40
6.0
 40
6.0
 40
7.0
 40
7.0
 40
7.0
 40
8.0
 40
8.0
 40
8.0
 40
9.0
 40
9.0
 40
9.0
 40
10.0
 40
10.0
 40
10.0
 40
11.0
 40
11.0
 40
11.0
 40
12.0
 40
12.0
 40
12.0
 40
12.0
 10
100.0293809428746
 20
-105.3310383851256
 30
0.0
 10
100.0293809428746
 20
-105.3310383851256
 30
0.0
 10
100.0293809428746
 20
-105.1611951777028
 30
0.0
 10
100.0293809428746
 20
-105.1611951777028
 30
0.0
 10
100.0293809428746
 20
-105.0888481725125
 30
0.0
 10
99.93739689341844
 20
-105.0854030770273
 30
0.0
 10
99.93739689341844
 20
-105.0854030770273
 30
0.0
 10
99.93739689341844
 20
-105.0854030770273
 30
0.0
 10
99.45094941090116
 20
-105.0854030770273
 30
0.0
 10
99.45094941090116
 20
-105.0854030770273
 30
0.0
 10
99.37756887706533
 20
-105.0854030770273
 30
0.0
 10
99.38755965397256
 20
-105.0223578296472
 30
0.0
 10
99.38755965397256
 20
-105.0223578296472
 30
0.0
 10
99.38755965397256
 20
-105.0223578296472
 30
0.0
 10
99.38755965397256
 20
-104.6830159243501
 30
0.0
 10
99.38755965397256
 20
-104.6830159243501
 30
0.0
 10
99.38755965397256
 20
-104.6830159243501
 30
0.0
 10
100.0221462423556
 20
-104.6830159243501
 30
0.0
 10
100.0221462423556
 20
-104.6830159243501
 30
0.0
 10
100.0221462423556
 20
-104.6830159243501
 30
0.0
 10
100.0221462423556
 20
-104.5241970224801
 30
0.0
 10
100.0221462423556
 20
-104.5241970224801
 30
0.0
 10
100.0221462423556
 20
-104.4542615841295
 30
0.0
 10
99.94911021806828
 20
-104.4456488454164
 30
0.0
 10
99.94911021806828
 20
-104.4456488454164
 30
0.0
 10
99.94911021806828
 20
-104.4456488454164
 30
0.0
 10
99.16293942833427
 20
-104.4456488454164
 30
0.0
 10
99.16293942833427
 20
-104.4456488454164
 30
0.0
 10
99.16293942833427
 20
-104.4456488454164
 30
0.0
 10
99.16293942833427
 20
-105.108829726327
 30
0.0
 10
99.16293942833427
 20
-105.108829726327
 30
0.0
 10
99.16293942833427
 20
-105.108829726327
 30
0.0
 10
99.18429902034282
 20
-105.3310383851256
 30
0.0
 10
99.42752276160145
 20
-105.3310383851256
 30
0.0
 10
99.42752276160145
 20
-105.3310383851256
 30
0.0
 10
100.0293809428746
 20
-105.3310383851256
 30
0.0
 10
100.0293809428746
 20
-105.3310383851256
 30
0.0
  0
SPLINE
  5
7F
330
45
100
AcDbEntity
  8
\U+30EC\U+30A4\U+30E4\U+30FC 1
 62
     7
420
 16777215
370
     9
100
AcDbSpline
210
0.0
220
0.0
230
1.0
 70
     8
 71
     3
 72
    41
 73
    37
 74
     0
 42
0.0000000001
 43
0.0000000001
 40
0.0
 40
0.0
 40
0.0
 40
0.0
 40
1.0
 40
1.0
 40
1.0
 40
2.0
 40
2.0
 40
2.0
 40
3.0
 40
3.0
 40
3.0
 40
4.0
 40
4.0
 40
4.0
 40
5.0
 40
5.0
 40
5.0
 40
6.0
 40
6.0
 40
6.0
 40
7.0
 40
7.0
 40
7.0
 40
8.0
 40
8.0
 40
8.0
 40
9.0
 40
9.0
 40
9.0
 40
10.0
 40
10.0
 40
10.0
 40
11.0
 40
11.0
 40
11.0
 40
12.0
 40
12.0
 40
12.0
 40
12.0
 10
98.74022621229412
 20
-104.6830159243501
 30
0.0
 10
98.80154891193156
 20
-104.6830159243501
 30
0.0
 10
98.80154891193156
 20
-104.7501952863125
 30
0.0
 10
98.80154891193156
 20
-104.7501952863125
 30
0.0
 10
98.80154891193156
 20
-104.7501952863125
 30
0.0
 10
98.80154891193156
 20
-105.3324164233197
 30
0.0
 10
98.80154891193156
 20
-105.3324164233197
 30
0.0
 10
98.80154891193156
 20
-105.3324164233197
 30
0.0
 10
98.62481551353825
 20
-105.3324164233197
 30
0.0
 10
98.62481551353825
 20
-105.3324164233197
 30
0.0
 10
98.55763615157588
 20
-105.3324164233197
 30
0.0
 10
98.56039222796407
 20
-105.2566243226442
 30
0.0
 10
98.56039222796407
 20
-105.2566243226442
 30
0.0
 10
98.56039222796407
 20
-105.2566243226442
 30
0.0
 10
98.56039222796407
 20
-104.6854274911898
 30
0.0
 10
98.56039222796407
 20
-104.6854274911898
 30
0.0
 10
98.56039222796407
 20
-104.6854274911898
 30
0.0
 10
98.3512749320094
 20
-104.6854274911898
 30
0.0
 10
98.3512749320094
 20
-104.6854274911898
 30
0.0
 10
98.3512749320094
 20
-104.6854274911898
 30
0.0
 10
98.28133949365883
 20
-104.6957627776455
 30
0.0
 10
98.28133949365883
 20
-104.6103244096113
 30
0.0
 10
98.28133949365883
 20
-104.6103244096113
 30
0.0
 10
98.28133949365883
 20
-104.4435817881252
 30
0.0
 10
98.28133949365883
 20
-104.4435817881252
 30
0.0
 10
98.28133949365883
 20
-104.4435817881252
 30
0.0
 10
99.02789168531248
 20
-104.4435817881252
 30
0.0
 10
99.02789168531248
 20
-104.4435817881252
 30
0.0
 10
99.02789168531248
 20
-104.4435817881252
 30
0.0
 10
99.10885142921585
 20
-104.4459933549649
 30
0.0
 10
99.10885142921585
 20
-104.516962321961
 30
0.0
 10
99.10885142921585
 20
-104.516962321961
 30
0.0
 10
99.10885142921585
 20
-104.6830159243501
 30
0.0
 10
99.10885142921585
 20
-104.6830159243501
 30
0.0
 10
99.10885142921585
 20
-104.6830159243501
 30
0.0
 10
98.74057072184264
 20
-104.6830159243501
 30
0.0
 10
98.74057072184264
 20
-104.6830159243501
 30
0.0
  0
SPLINE
  5
80
330
45
100
AcDbEntity
  8
\U+30EC\U+30A4\U+30E4\U+30FC 1
 62
     7
420
 16777215
370
     9
100
AcDbSpline
210
0.0
220
0.0
230
1.0
 70
    11
 71
     3
 72
    23
 73
    19
 74
     0
 42
0.0000000001
 43
0.0000000001
 40
0.0
 40
0.0
 40
0.0
 40
0.0
 40
1.0
 40
1.0
 40
1.0
 40
2.0
 40
2.0
 40
2.0
 40
3.0
 40
3.0
 40
3.0
 40
4.0
 40
4.0
 40
4.0
 40
5.0
 40
5.0
 40
5.0
 40
6.0
 40
6.0
 40
6.0
 40
6.0
 10
96.98908417714162
 20
-104.4459933549649
 30
0.0
 10
96.98908417714162
 20
-104.4459933549649
 30
0.0
 10
96.4220214602695
 20
-104.4459933549649
 30
0.0
 10
96.4220214602695
 20
-104.4459933549649
 30
0.0
 10
96.4220214602695
 20
-104.4459933549649
 30
0.0
 10
96.4220214602695
 20
-105.0661105423099
 30
0.0
 10
96.4220214602695
 20
-105.0661105423099
 30
0.0
 10
96.4220214602695
 20
-105.3589436585561
 30
0.0
 10
96.74999455046529
 20
-105.3324164233197
 30
0.0
 10
96.74999455046529
 20
-105.3324164233197
 30
0.0
 10
96.74999455046529
 20
-105.3324164233197
 30
0.0
 10
97.33497176386071
 20
-105.3324164233197
 30
0.0
 10
97.33497176386071
 20
-105.3324164233197
 30
0.0
 10
97.33497176386071
 20
-105.3324164233197
 30
0.0
 10
97.33497176386071
 20
-104.7291802038524
 30
0.0
 10
97.33497176386071
 20
-104.7291802038524
 30
0.0
 10
97.33497176386071
 20
-104.4635633419397
 30
0.0
 10
96.98908417714162
 20
-104.4459933549649
 30
0.0
 10
96.98908417714162
 20
-104.4459933549649
 30
0.0
  0
SPLINE
  5
81
330
45
100
AcDbEntity
  8
\U+30EC\U+30A4\U+30E4\U+30FC 1
 62
     7
420
 16777215
370
     9
100
AcDbSpline
210
0.0
220
0.0
230
1.0
 70
    11
 71
     3
 72
    23
 73
    19
 74
     0
 42
0.0000000001
 43
0.0000000001
 40
0.0
 40
0.0
 40
0.0
 40
0.0
 40
1.0
 40
1.0
 40
1.0
 40
2.0
 40
2.0
 40
2.0
 40
3.0
 40
3.0
 40
3.0
 40
4.0
 40
4.0
 40
4.0
 40
5.0
 40
5.0
 40
5.0
 40
6.0
 40
6.0
 40
6.0
 40
6.0
 10
97.09519311808732
 20
-105.0888481725125
 30
0.0
 10
97.09519311808732
 20
-105.0888481725125
 30
0.0
 10
96.74999455046529
 20
-105.0888481725125
 30
0.0
 10
96.74999455046529
 20
-105.0888481725125
 30
0.0
 10
96.74999455046529
 20
-105.0888481725125
 30
0.0
 10
96.67902558346914
 20
-105.0974609112256
 30
0.0
 10
96.67902558346914
 20
-105.0044433331239
 30
0.0
 10
96.67902558346914
 20
-105.0044433331239
 30
0.0
 10
96.67902558346914
 20
-104.6985188540337
 30
0.0
 10
96.67902558346914
 20
-104.6985188540337
 30
0.0
 10
96.67902558346914
 20
-104.6985188540337
 30
0.0
 10
97.04696178129382
 20
-104.6985188540337
 30
0.0
 10
97.04696178129382
 20
-104.6985188540337
 30
0.0
 10
97.04696178129382
 20
-104.6985188540337
 30
0.0
 10
97.09519311808732
 20
-104.7122992359747
 30
0.0
 10
97.09519311808732
 20
-104.7653537064476
 30
0.0
 10
97.09519311808732
 20
-104.7653537064476
 30
0.0
 10
97.09519311808732
 20
-105.0888481725125
 30
0.0
 10
97.09519311808732
 20
-105.0888481725125
 30
0.0
  0
SPLINE
  5
82
330
45
100
AcDbEntity
  8
\U+30EC\U+30A4\U+30E4\U+30FC 1
 62
     7
420
 16777215
370
     9
100
AcDbSpline
210
0.0
220
0.0
230
1.0
 70
    11
 71
     3
 72
    23
 73
    19
 74
     0
 42
0.0000000001
 43
0.0000000001
 40
0.0
 40
0.0
 40
0.0
 40
0.0
 40
1.0
 40
1.0
 40
1.0
 40
2.0
 40
2.0
 40
2.0
 40
3.0
 40
3.0
 40
3.0
 40
4.0
 40
4.0
 40
4.0
 40
5.0
 40
5.0
 40
5.0
 40
6.0
 40
6.0
 40
6.0
 40
6.0
 10
99.4406141244454
 20
-104.7729329165151
 30
0.0
 10
99.4406141244454
 20
-104.7729329165151
 30
0.0
 10
99.4406141244454
 20
-104.9355414234189
 30
0.0
 10
99.4406141244454
 20
-104.9355414234189
 30
0.0
 10
99.4406141244454
 20
-105.0085774477062
 30
0.0
 10
99.51778426331501
 20
-105.0051323522209
 30
0.0
 10
99.51778426331501
 20
-105.0051323522209
 30
0.0
 10
99.51778426331501
 20
-105.0051323522209
 30
0.0
 10
99.95600040903878
 20
-105.0051323522209
 30
0.0
 10
99.95600040903878
 20
-105.0051323522209
 30
0.0
 10
99.95600040903878
 20
-105.0051323522209
 30
0.0
 10
99.95600040903878
 20
-104.8597493227434
 30
0.0
 10
99.95600040903878
 20
-104.8597493227434
 30
0.0
 10
99.95600040903878
 20
-104.7729329165151
 30
0.0
 10
99.87021753145606
 20
-104.7729329165151
 30
0.0
 10
99.87021753145606
 20
-104.7729329165151
 30
0.0
 10
99.87021753145606
 20
-104.7729329165151
 30
0.0
 10
99.4406141244454
 20
-104.7729329165151
 30
0.0
 10
99.4406141244454
 20
-104.7729329165151
 30
0.0
  0
SPLINE
  5
83
330
45
100
AcDbEntity
  8
\U+30EC\U+30A4\U+30E4\U+30FC 1
 62
     7
420
 16777215
370
     9
100
AcDbSpline
210
0.0
220
0.0
230
1.0
 70
    11
 71
     3
 72
    38
 73
    34
 74
     0
 42
0.0000000001
 43
0.0000000001
 40
0.0
 40
0.0
 40
0.0
 40
0.0
 40
1.0
 40
1.0
 40
1.0
 40
2.0
 40
2.0
 40
2.0
 40
3.0
 40
3.0
 40
3.0
 40
4.0
 40
4.0
 40
4.0
 40
5.0
 40
5.0
 40
5.0
 40
6.0
 40
6.0
 40
6.0
 40
7.0
 40
7.0
 40
7.0
 40
8.0
 40
8.0
 40
8.0
 40
9.0
 40
9.0
 40
9.0
 40
10.0
 40
10.0
 40
10.0
 40
11.0
 40
11.0
 40
11.0
 40
11.0
 10
100.6942843715278
 20
-104.4435817881252
 30
0.0
 10
100.6942843715278
 20
-104.4435817881252
 30
0.0
 10
100.509971763067
 20
-104.6974853253881
 30
0.0
 10
100.509971763067
 20
-104.6974853253881
 30
0.0
 10
100.4886121710584
 20
-104.5328097611932
 30
0.0
 10
100.3125677917621
 20
-104.4435817881252
 30
0.0
 10
100.2436658820571
 20
-104.4435817881252
 30
0.0
 10
100.1971570930063
 20
-104.4435817881252
 30
0.0
 10
100.0645209168242
 20
-104.4435817881252
 30
0.0
 10
100.0645209168242
 20
-104.4435817881252
 30
0.0
 10
100.0645209168242
 20
-104.4435817881252
 30
0.0
 10
100.0645209168242
 20
-104.6079128427716
 30
0.0
 10
100.0645209168242
 20
-104.6079128427716
 30
0.0
 10
100.0645209168242
 20
-104.6079128427716
 30
0.0
 10
100.0700330696006
 20
-104.6830159243501
 30
0.0
 10
100.1830322015168
 20
-104.6830159243501
 30
0.0
 10
100.1830322015168
 20
-104.6830159243501
 30
0.0
 10
100.2850070278801
 20
-104.6892170962235
 30
0.0
 10
100.2850070278801
 20
-104.7429605857934
 30
0.0
 10
100.2850070278801
 20
-104.7429605857934
 30
0.0
 10
100.2850070278801
 20
-105.0044433331239
 30
0.0
 10
100.2850070278801
 20
-105.0044433331239
 30
0.0
 10
100.2850070278801
 20
-105.0044433331239
 30
0.0
 10
100.0476399489464
 20
-105.3310383851256
 30
0.0
 10
100.0476399489464
 20
-105.3310383851256
 30
0.0
 10
100.0476399489464
 20
-105.3310383851256
 30
0.0
 10
100.3356499315133
 20
-105.3310383851256
 30
0.0
 10
100.3356499315133
 20
-105.3310383851256
 30
0.0
 10
100.3356499315133
 20
-105.3310383851256
 30
0.0
 10
100.9843614113859
 20
-104.4435817881252
 30
0.0
 10
100.9843614113859
 20
-104.4435817881252
 30
0.0
 10
100.9843614113859
 20
-104.4435817881252
 30
0.0
 10
100.6942843715278
 20
-104.4435817881252
 30
0.0
 10
100.6942843715278
 20
-104.4435817881252
 30
0.0
  0
SPLINE
  5
84
330
45
100
AcDbEntity
  8
\U+30EC\U+30A4\U+30E4\U+30FC 1
 62
     7
420
 16777215
370
     9
100
AcDbSpline
210
0.0
220
0.0
230
1.0
 70
    11
 71
     3
 72
    32
 73
    28
 74
     0
 42
0.0000000001
 43
0.0000000001
 40
0.0
 40
0.0
 40
0.0
 40
0.0
 40
1.0
 40
1.0
 40
1.0
 40
2.0
 40
2.0
 40
2.0
 40
3.0
 40
3.0
 40
3.0
 40
4.0
 40
4.0
 40
4.0
 40
5.0
 40
5.0
 40
5.0
 40
6.0
 40
6.0
 40
6.0
 40
7.0
 40
7.0
 40
7.0
 40
8.0
 40
8.0
 40
8.0
 40
9.0
 40
9.0
 40
9.0
 40
9.0
 10
100.9512884947275
 20
-105.3310383851256
 30
0.0
 10
100.9512884947275
 20
-105.3310383851256
 30
0.0
 10
100.7673203958151
 20
-105.3310383851256
 30
0.0
 10
100.7673203958151
 20
-105.3310383851256
 30
0.0
 10
100.6091905130422
 20
-105.3310383851256
 30
0.0
 10
100.5423556606283
 20
-105.2021918139772
 30
0.0
 10
100.5423556606283
 20
-105.164640273188
 30
0.0
 10
100.5423556606283
 20
-105.1456922480191
 30
0.0
 10
100.5413221319827
 20
-105.116064426846
 30
0.0
 10
100.5413221319827
 20
-105.116064426846
 30
0.0
 10
100.5413221319827
 20
-105.116064426846
 30
0.0
 10
100.7159884730849
 20
-104.8773193097182
 30
0.0
 10
100.7159884730849
 20
-104.8773193097182
 30
0.0
 10
100.7159884730849
 20
-104.8773193097182
 30
0.0
 10
100.7166774921819
 20
-105.0330376256515
 30
0.0
 10
100.7166774921819
 20
-105.0330376256515
 30
0.0
 10
100.7166774921819
 20
-105.0330376256515
 30
0.0
 10
100.7166774921819
 20
-105.0888481725125
 30
0.0
 10
100.7807562682076
 20
-105.0888481725125
 30
0.0
 10
100.7807562682076
 20
-105.0888481725125
 30
0.0
 10
100.8744628654064
 20
-105.0888481725125
 30
0.0
 10
100.8744628654064
 20
-105.0888481725125
 30
0.0
 10
100.8744628654064
 20
-105.0888481725125
 30
0.0
 10
100.9512884947275
 20
-105.0929822870948
 30
0.0
 10
100.9512884947275
 20
-105.1680853686733
 30
0.0
 10
100.9512884947275
 20
-105.1680853686733
 30
0.0
 10
100.9512884947275
 20
-105.3310383851256
 30
0.0
 10
100.9512884947275
 20
-105.3310383851256
 30
0.0
  0
ENDBLK
  5
48
330
45
100
AcDbEntity
  8
0
100
AcDbBlockEnd
  0
BLOCK
  5
4B
330
49
100
AcDbEntity
  8
0
100
AcDbBlockBegin
  2
block 5
 70
     0
 71
     0
 10
0.0
 20
0.0
 30
0.0
  3
block 5
  1

  0
SPLINE
  5
4D
330
49
100
AcDbEntity
  8
\U+30EC\U+30A4\U+30E4\U+30FC 1
 62
     7
420
 16777215
370
     9
100
AcDbSpline
210
0.0
220
0.0
230
1.0
 70
     8
 71
     3
 72
    23
 73
    19
 74
     0
 42
0.0000000001
 43
0.0000000001
 40
0.0
 40
0.0
 40
0.0
 40
0.0
 40
1.0
 40
1.0
 40
1.0
 40
2.0
 40
2.0
 40
2.0
 40
3.0
 40
3.0
 40
3.0
 40
4.0
 40
4.0
 40
4.0
 40
5.0
 40
5.0
 40
5.0
 40
6.0
 40
6.0
 40
6.0
 40
6.0
 10
98.76055227565709
 20
-80.85639103881368
 30
0.0
 10
98.76055227565709
 20
-80.85639103881368
 30
0.0
 10
98.34782983652416
 20
-80.85639103881368
 30
0.0
 10
98.34782983652416
 20
-80.85639103881368
 30
0.0
 10
95.71267629985655
 20
-80.85639103881368
 30
0.0
 10
90.84131128371328
 20
-81.0923800795533
 30
0.0
 10
90.84131128371328
 20
-81.0923800795533
 30
0.0
 10
89.9934732847933
 20
-81.18660344107488
 30
0.0
 10
89.89942217804598
 20
-82.10437687834543
 30
0.0
 10
89.89942217804598
 20
-82.10437687834543
 30
0.0
 10
89.89942217804598
 20
-82.10437687834543
 30
0.0
 10
89.89942217804598
 20
-103.2732828517859
 30
0.0
 10
89.89942217804598
 20
-103.9264729557892
 30
0.0
 10
89.89942217804598
 20
-104.5800075693411
 30
0.0
 10
90.35865340622979
 20
-106.2209065489656
 30
0.0
 10
92.22934025472044
 20
-106.5740288362037
 30
0.0
 10
93.90606822739154
 20
-106.839301188568
 30
0.0
 10
97.63090546604367
 20
-107.0863145348604
 30
0.0
 10
98.77812226263187
 20
-107.0863145348604
 30
0.0
  0
SPLINE
  5
4E
330
49
100
AcDbEntity
  8
\U+30EC\U+30A4\U+30E4\U+30FC 1
 62
     7
420
 16777215
370
     9
100
AcDbSpline
210
0.0
220
0.0
230
1.0
 70
     8
 71
     3
 72
    23
 73
    19
 74
     0
 42
0.0000000001
 43
0.0000000001
 40
0.0
 40
0.0
 40
0.0
 40
0.0
 40
1.0
 40
1.0
 40
1.0
 40
2.0
 40
2.0
 40
2.0
 40
3.0
 40
3.0
 40
3.0
 40
4.0
 40
4.0
 40
4.0
 40
5.0
 40
5.0
 40
5.0
 40
6.0
 40
6.0
 40
6.0
 40
6.0
 10
97.01251082644131
 20
-106.5561143396804
 30
0.0
 10
97.01251082644131
 20
-106.5561143396804
 30
0.0
 10
96.99494083946655
 20
-106.7511067441456
 30
0.0
 10
96.99494083946655
 20
-106.7511067441456
 30
0.0
 10
96.99494083946655
 20
-106.7511067441456
 30
0.0
 10
93.71245386112051
 20
-106.6274278162251
 30
0.0
 10
92.28273923474183
 20
-106.3277045090084
 30
0.0
 10
90.19948999481124
 20
-105.9208387322004
 30
0.0
 10
90.16469453041022
 20
-103.909247478363
 30
0.0
 10
90.16469453041022
 20
-103.909247478363
 30
0.0
 10
90.16469453041022
 20
-103.909247478363
 30
0.0
 10
90.16469453041022
 20
-82.18034123379519
 30
0.0
 10
90.16469453041022
 20
-82.18034123379519
 30
0.0
 10
90.16469453041022
 20
-82.1100612858961
 30
0.0
 10
90.14678003388693
 20
-81.35041773139851
 30
0.0
 10
90.83511011183984
 20
-81.35041773139851
 30
0.0
 10
93.41204153480672
 20
-81.13854435905564
 30
0.0
 10
98.79569224960663
 20
-81.12149113640366
 30
0.0
 10
98.79569224960663
 20
-81.12149113640366
 30
0.0
  0
POLYLINE
  5
4F
330
49
100
AcDbEntity
  8
\U+30EC\U+30A4\U+30E4\U+30FC 1
 62
     7
420
 16777215
370
     9
100
AcDb2dPolyline
 66
     1
 10
0.0
 20
0.0
 30
0.0
  0
VERTEX
  5
50
330
4F
100
AcDbEntity
  8
\U+30EC\U+30A4\U+30E4\U+30FC 1
 62
     7
420
 16777215
370
     9
100
AcDbVertex
100
AcDb2dVertex
 10
96.99494083946655
 20
-106.7511067441456
 30
0.0
  0
VERTEX
  5
51
330
4F
100
AcDbEntity
  8
\U+30EC\U+30A4\U+30E4\U+30FC 1
 62
     7
420
 16777215
370
     9
100
AcDbVertex
100
AcDb2dVertex
 10
97.38354761020273
 20
-107.032915554839
 30
0.0
  0
SEQEND
  5
52
330
4F
100
AcDbEntity
  8
\U+30EC\U+30A4\U+30E4\U+30FC 1
370
     9
  0
SPLINE
  5
53
330
49
100
AcDbEntity
  8
\U+30EC\U+30A4\U+30E4\U+30FC 1
 62
     7
420
 16777215
370
     9
100
AcDbSpline
210
0.0
220
0.0
230
1.0
 70
     8
 71
     3
 72
    23
 73
    19
 74
     0
 42
0.0000000001
 43
0.0000000001
 40
0.0
 40
0.0
 40
0.0
 40
0.0
 40
1.0
 40
1.0
 40
1.0
 40
2.0
 40
2.0
 40
2.0
 40
3.0
 40
3.0
 40
3.0
 40
4.0
 40
4.0
 40
4.0
 40
5.0
 40
5.0
 40
5.0
 40
6.0
 40
6.0
 40
6.0
 40
6.0
 10
98.81326223658141
 20
-81.35041773139851
 30
0.0
 10
98.81326223658141
 20
-81.35041773139851
 30
0.0
 10
93.57120494622527
 20
-81.42173120794318
 30
0.0
 10
90.83511011183984
 20
-81.61551782898849
 30
0.0
 10
90.42893335412889
 20
-81.72214353425697
 30
0.0
 10
90.46476234717548
 20
-82.19808347554424
 30
0.0
 10
90.46476234717548
 20
-82.19808347554424
 30
0.0
 10
90.46476234717548
 20
-82.19808347554424
 30
0.0
 10
90.46476234717548
 20
-103.2209174004101
 30
0.0
 10
90.46476234717548
 20
-103.9264729557892
 30
0.0
 10
90.46476234717548
 20
-104.633062039814
 30
0.0
 10
90.87093910488643
 20
-105.8154188103517
 30
0.0
 10
92.37093367916421
 20
-106.0800021436189
 30
0.0
 10
93.62391490714958
 20
-106.274305528987
 30
0.0
 10
96.74827200272266
 20
-106.5037488883046
 30
0.0
 10
97.41868758415228
 20
-106.5213188752794
 30
0.0
 10
98.08944767513042
 20
-106.5392333718027
 30
0.0
 10
98.79569224960663
 20
-106.5392333718027
 30
0.0
 10
98.79569224960663
 20
-106.5392333718027
 30
0.0
  0
SPLINE
  5
54
330
49
100
AcDbEntity
  8
\U+30EC\U+30A4\U+30E4\U+30FC 1
 62
     7
420
 16777215
370
     9
100
AcDbSpline
210
0.0
220
0.0
230
1.0
 70
     8
 71
     3
 72
    29
 73
    25
 74
     0
 42
0.0000000001
 43
0.0000000001
 40
0.0
 40
0.0
 40
0.0
 40
0.0
 40
1.0
 40
1.0
 40
1.0
 40
2.0
 40
2.0
 40
2.0
 40
3.0
 40
3.0
 40
3.0
 40
4.0
 40
4.0
 40
4.0
 40
5.0
 40
5.0
 40
5.0
 40
6.0
 40
6.0
 40
6.0
 40
7.0
 40
7.0
 40
7.0
 40
8.0
 40
8.0
 40
8.0
 40
8.0
 10
98.79569224960663
 20
-81.98638235797563
 30
0.0
 10
98.79569224960663
 20
-81.98638235797563
 30
0.0
 10
95.77744409497926
 20
-82.02203909624797
 30
0.0
 10
94.34772946860058
 20
-81.96829560667807
 30
0.0
 10
92.9180148422219
 20
-81.91593015530228
 30
0.0
 10
91.29434134002364
 20
-81.86287568482942
 30
0.0
 10
91.15309242512839
 20
-81.89818791355323
 30
0.0
 10
91.01149900068462
 20
-81.93350014227704
 30
0.0
 10
90.74691566741744
 20
-82.05717907019752
 30
0.0
 10
90.74691566741744
 20
-82.37516138348607
 30
0.0
 10
90.74691566741744
 20
-82.69262693245184
 30
0.0
 10
90.81754012486506
 20
-89.47016328058385
 30
0.0
 10
90.81754012486506
 20
-90.45907793962482
 30
0.0
 10
90.81754012486506
 20
-91.44764808911727
 30
0.0
 10
90.81754012486506
 20
-96.84852428134343
 30
0.0
 10
90.81754012486506
 20
-97.48448890792055
 30
0.0
 10
90.81754012486506
 20
-98.11907549630357
 30
0.0
 10
90.74691566741744
 20
-102.8147406426991
 30
0.0
 10
90.67594670042129
 20
-103.785913059991
 30
0.0
 10
90.65837671344651
 20
-104.4911241058217
 30
0.0
 10
91.01149900068462
 20
-105.6386854119584
 30
0.0
 10
92.42364364008854
 20
-105.9208387322004
 30
0.0
 10
93.6945393645972
 20
-106.0800021436189
 30
0.0
 10
96.60702308782741
 20
-106.3800699603841
 30
0.0
 10
98.79569224960663
 20
-106.3624999734094
 30
0.0
  0
POLYLINE
  5
55
330
49
100
AcDbEntity
  8
\U+30EC\U+30A4\U+30E4\U+30FC 1
 62
     7
420
 16777215
370
     9
100
AcDb2dPolyline
 66
     1
 10
0.0
 20
0.0
 30
0.0
  0
VERTEX
  5
56
330
55
100
AcDbEntity
  8
\U+30EC\U+30A4\U+30E4\U+30FC 1
 62
     7
420
 16777215
370
     9
100
AcDbVertex
100
AcDb2dVertex
 10
98.77812226263187
 20
-82.32141789391618
 30
0.0
  0
VERTEX
  5
57
330
55
100
AcDbEntity
  8
\U+30EC\U+30A4\U+30E4\U+30FC 1
 62
     7
420
 16777215
370
     9
100
AcDbVertex
100
AcDb2dVertex
 10
90.76448565439222
 20
-82.32141789391618
 30
0.0
  0
VERTEX
  5
58
330
55
100
AcDbEntity
  8
\U+30EC\U+30A4\U+30E4\U+30FC 1
 62
     7
420
 16777215
370
     9
100
AcDbVertex
100
AcDb2dVertex
 10
90.49955781157651
 20
-82.07474905717228
 30
0.0
  0
SEQEND
  5
59
330
55
100
AcDbEntity
  8
\U+30EC\U+30A4\U+30E4\U+30FC 1
370
     9
  0
SPLINE
  5
5A
330
49
100
AcDbEntity
  8
\U+30EC\U+30A4\U+30E4\U+30FC 1
 62
     7
420
 16777215
370
     9
100
AcDbSpline
210
0.0
220
0.0
230
1.0
 70
     8
 71
     3
 72
    11
 73
     7
 74
     0
 42
0.0000000001
 43
0.0000000001
 40
0.0
 40
0.0
 40
0.0
 40
0.0
 40
1.0
 40
1.0
 40
1.0
 40
2.0
 40
2.0
 40
2.0
 40
2.0
 10
91.48795570629468
 20
-81.91593015530228
 30
0.0
 10
91.48795570629468
 20
-81.91593015530228
 30
0.0
 10
91.38184676534898
 20
-82.12728676332235
 30
0.0
 10
91.38184676534898
 20
-82.56894800453138
 30
0.0
 10
91.38184676534898
 20
-83.01009248141762
 30
0.0
 10
91.48795570629468
 20
-92.49461260708469
 30
0.0
 10
91.48795570629468
 20
-92.49461260708469
 30
0.0
  0
SPLINE
  5
5B
330
49
100
AcDbEntity
  8
\U+30EC\U+30A4\U+30E4\U+30FC 1
 62
     7
420
 16777215
370
     9
100
AcDbSpline
210
0.0
220
0.0
230
1.0
 70
     8
 71
     3
 72
    23
 73
    19
 74
     0
 42
0.0000000001
 43
0.0000000001
 40
0.0
 40
0.0
 40
0.0
 40
0.0
 40
1.0
 40
1.0
 40
1.0
 40
2.0
 40
2.0
 40
2.0
 40
3.0
 40
3.0
 40
3.0
 40
4.0
 40
4.0
 40
4.0
 40
5.0
 40
5.0
 40
5.0
 40
6.0
 40
6.0
 40
6.0
 40
6.0
 10
90.83511011183984
 20
-81.61551782898849
 30
0.0
 10
90.83511011183984
 20
-81.61551782898849
 30
0.0
 10
91.15309242512839
 20
-81.72214353425697
 30
0.0
 10
91.15309242512839
 20
-82.28679468428942
 30
0.0
 10
91.15309242512839
 20
-82.85161808909612
 30
0.0
 10
91.22337237302749
 20
-93.07166610086404
 30
0.0
 10
91.22337237302749
 20
-93.07166610086404
 30
0.0
 10
91.22337237302749
 20
-93.07166610086404
 30
0.0
 10
91.18823239907795
 20
-99.5494791417793
 30
0.0
 10
91.17066241210317
 20
-100.5020480434509
 30
0.0
 10
91.15309242512839
 20
-101.455650473768
 30
0.0
 10
91.0290689876594
 20
-103.3793917927315
 30
0.0
 10
90.99358450416133
 20
-103.944731961861
 30
0.0
 10
90.9587890397603
 20
-104.5093831118935
 30
0.0
 10
91.38184676534898
 20
-105.5680609545108
 30
0.0
 10
92.4412136270633
 20
-105.709309869406
 30
0.0
 10
93.50023597922912
 20
-105.8505587843013
 30
0.0
 10
96.07751191174451
 20
-106.150971110615
 30
0.0
 10
98.77812226263187
 20
-106.150971110615
 30
0.0
  0
SPLINE
  5
5C
330
49
100
AcDbEntity
  8
\U+30EC\U+30A4\U+30E4\U+30FC 1
 62
     7
420
 16777215
370
     9
100
AcDbSpline
210
0.0
220
0.0
230
1.0
 70
     8
 71
     3
 72
    14
 73
    10
 74
     0
 42
0.0000000001
 43
0.0000000001
 40
0.0
 40
0.0
 40
0.0
 40
0.0
 40
1.0
 40
1.0
 40
1.0
 40
2.0
 40
2.0
 40
2.0
 40
3.0
 40
3.0
 40
3.0
 40
3.0
 10
98.77812226263187
 20
-91.44764808911727
 30
0.0
 10
98.77812226263187
 20
-91.44764808911727
 30
0.0
 10
95.07119952050304
 20
-91.44764808911727
 30
0.0
 10
92.63551701243141
 20
-92.1184081800954
 30
0.0
 10
92.63551701243141
 20
-92.1184081800954
 30
0.0
 10
91.7115424032874
 20
-92.40021699078883
 30
0.0
 10
91.50035805004158
 20
-92.51803925638438
 30
0.0
 10
91.35910913514634
 20
-92.51803925638438
 30
0.0
 10
91.21820472979962
 20
-92.60037703848185
 30
0.0
 10
91.21820472979962
 20
-92.6947726547777
 30
0.0
  0
SPLINE
  5
5D
330
49
100
AcDbEntity
  8
\U+30EC\U+30A4\U+30E4\U+30FC 1
 62
     7
420
 16777215
370
     9
100
AcDbSpline
210
0.0
220
0.0
230
1.0
 70
     8
 71
     3
 72
     8
 73
     4
 74
     0
 42
0.0000000001
 43
0.0000000001
 40
0.0
 40
0.0
 40
0.0
 40
0.0
 40
1.0
 40
1.0
 40
1.0
 40
1.0
 10
91.18823239907795
 20
-98.19004446329971
 30
0.0
 10
91.18823239907795
 20
-98.19004446329971
 30
0.0
 10
91.29434134002364
 20
-103.4500162501792
 30
0.0
 10
98.77812226263187
 20
-103.9264729557892
 30
0.0
  0
SPLINE
  5
5E
330
49
100
AcDbEntity
  8
\U+30EC\U+30A4\U+30E4\U+30FC 1
 62
     7
420
 16777215
370
     9
100
AcDbSpline
210
0.0
220
0.0
230
1.0
 70
     8
 71
     3
 72
    11
 73
     7
 74
     0
 42
0.0000000001
 43
0.0000000001
 40
0.0
 40
0.0
 40
0.0
 40
0.0
 40
1.0
 40
1.0
 40
1.0
 40
2.0
 40
2.0
 40
2.0
 40
2.0
 10
91.22337237302749
 20
-98.31337888167165
 30
0.0
 10
91.22337237302749
 20
-98.31337888167165
 30
0.0
 10
91.43524574537037
 20
-98.41948782261736
 30
0.0
 10
91.43524574537037
 20
-98.41948782261736
 30
0.0
 10
91.43524574537037
 20
-98.41948782261736
 30
0.0
 10
93.39481605738047
 20
-103.2026583943382
 30
0.0
 10
98.77812226263187
 20
-103.2026583943382
 30
0.0
  0
ENDBLK
  5
4C
330
49
100
AcDbEntity
  8
0
100
AcDbBlockEnd
  0
BLOCK
  5
61
330
5F
100
AcDbEntity
  8
0
100
AcDbBlockBegin
  2
block 6
 70
     0
 71
     0
 10
0.0
 20
0.0
 30
0.0
  3
block 6
  1

  0
SPLINE
  5
63
330
5F
100
AcDbEntity
  8
\U+30EC\U+30A4\U+30E4\U+30FC 1
 62
     7
420
 16777215
370
     9
100
AcDbSpline
210
0.0
220
0.0
230
1.0
 70
     8
 71
     3
 72
    23
 73
    19
 74
     0
 42
0.0000000001
 43
0.0000000001
 40
0.0
 40
0.0
 40
0.0
 40
0.0
 40
1.0
 40
1.0
 40
1.0
 40
2.0
 40
2.0
 40
2.0
 40
3.0
 40
3.0
 40
3.0
 40
4.0
 40
4.0
 40
4.0
 40
5.0
 40
5.0
 40
5.0
 40
6.0
 40
6.0
 40
6.0
 40
6.0
 10
98.79569224960663
 20
-80.85639103881368
 30
0.0
 10
98.79569224960663
 20
-80.85639103881368
 30
0.0
 10
99.20703665054546
 20
-80.85639103881368
 30
0.0
 10
99.20703665054546
 20
-80.85639103881368
 30
0.0
 10
101.8439127349557
 20
-80.85639103881368
 30
0.0
 10
106.7156222606475
 20
-81.0923800795533
 30
0.0
 10
106.7156222606475
 20
-81.0923800795533
 30
0.0
 10
107.5624267309219
 20
-81.18660344107488
 30
0.0
 10
107.6568223472177
 20
-82.10437687834543
 30
0.0
 10
107.6568223472177
 20
-82.10437687834543
 30
0.0
 10
107.6568223472177
 20
-82.10437687834543
 30
0.0
 10
107.6568223472177
 20
-103.2732828517859
 30
0.0
 10
107.6568223472177
 20
-103.9264729557892
 30
0.0
 10
107.6568223472177
 20
-104.5800075693411
 30
0.0
 10
107.198280138131
 20
-106.2209065489656
 30
0.0
 10
105.3272487800918
 20
-106.5740288362037
 30
0.0
 10
103.6494872787751
 20
-106.839301188568
 30
0.0
 10
99.92533905922006
 20
-107.0863145348604
 30
0.0
 10
98.77812226263187
 20
-107.0863145348604
 30
0.0
  0
SPLINE
  5
64
330
5F
100
AcDbEntity
  8
\U+30EC\U+30A4\U+30E4\U+30FC 1
 62
     7
420
 16777215
370
     9
100
AcDbSpline
210
0.0
220
0.0
230
1.0
 70
     8
 71
     3
 72
    23
 73
    19
 74
     0
 42
0.0000000001
 43
0.0000000001
 40
0.0
 40
0.0
 40
0.0
 40
0.0
 40
1.0
 40
1.0
 40
1.0
 40
2.0
 40
2.0
 40
2.0
 40
3.0
 40
3.0
 40
3.0
 40
4.0
 40
4.0
 40
4.0
 40
5.0
 40
5.0
 40
5.0
 40
6.0
 40
6.0
 40
6.0
 40
6.0
 10
100.5433891892739
 20
-106.5561143396804
 30
0.0
 10
100.5433891892739
 20
-106.5561143396804
 30
0.0
 10
100.5613036857972
 20
-106.7511067441456
 30
0.0
 10
100.5613036857972
 20
-106.7511067441456
 30
0.0
 10
100.5613036857972
 20
-106.7511067441456
 30
0.0
 10
103.8444796832403
 20
-106.6274278162251
 30
0.0
 10
105.274194309619
 20
-106.3277045090084
 30
0.0
 10
107.3567545304525
 20
-105.9208387322004
 30
0.0
 10
107.391894504402
 20
-103.909247478363
 30
0.0
 10
107.391894504402
 20
-103.909247478363
 30
0.0
 10
107.391894504402
 20
-103.909247478363
 30
0.0
 10
107.391894504402
 20
-82.18034123379519
 30
0.0
 10
107.391894504402
 20
-82.18034123379519
 30
0.0
 10
107.391894504402
 20
-82.1100612858961
 30
0.0
 10
107.4098090009253
 20
-81.35041773139851
 30
0.0
 10
106.7204453943268
 20
-81.35041773139851
 30
0.0
 10
104.144202990457
 20
-81.13854435905564
 30
0.0
 10
98.76055227565709
 20
-81.12149113640366
 30
0.0
 10
98.76055227565709
 20
-81.12149113640366
 30
0.0
  0
POLYLINE
  5
65
330
5F
100
AcDbEntity
  8
\U+30EC\U+30A4\U+30E4\U+30FC 1
 62
     7
420
 16777215
370
     9
100
AcDb2dPolyline
 66
     1
 10
0.0
 20
0.0
 30
0.0
  0
VERTEX
  5
66
330
65
100
AcDbEntity
  8
\U+30EC\U+30A4\U+30E4\U+30FC 1
 62
     7
420
 16777215
370
     9
100
AcDbVertex
100
AcDb2dVertex
 10
100.5613036857972
 20
-106.7511067441456
 30
0.0
  0
VERTEX
  5
67
330
65
100
AcDbEntity
  8
\U+30EC\U+30A4\U+30E4\U+30FC 1
 62
     7
420
 16777215
370
     9
100
AcDbVertex
100
AcDb2dVertex
 10
100.1723524055125
 20
-107.032915554839
 30
0.0
  0
SEQEND
  5
68
330
65
100
AcDbEntity
  8
\U+30EC\U+30A4\U+30E4\U+30FC 1
370
     9
  0
SPLINE
  5
69
330
5F
100
AcDbEntity
  8
\U+30EC\U+30A4\U+30E4\U+30FC 1
 62
     7
420
 16777215
370
     9
100
AcDbSpline
210
0.0
220
0.0
230
1.0
 70
     8
 71
     3
 72
    23
 73
    19
 74
     0
 42
0.0000000001
 43
0.0000000001
 40
0.0
 40
0.0
 40
0.0
 40
0.0
 40
1.0
 40
1.0
 40
1.0
 40
2.0
 40
2.0
 40
2.0
 40
3.0
 40
3.0
 40
3.0
 40
4.0
 40
4.0
 40
4.0
 40
5.0
 40
5.0
 40
5.0
 40
6.0
 40
6.0
 40
6.0
 40
6.0
 10
98.74298228868231
 20
-81.35041773139851
 30
0.0
 10
98.74298228868231
 20
-81.35041773139851
 30
0.0
 10
103.9857285981355
 20
-81.42173120794318
 30
0.0
 10
106.7204453943268
 20
-81.61551782898849
 30
0.0
 10
107.1269666615863
 20
-81.72214353425697
 30
0.0
 10
107.0925157067338
 20
-82.19808347554424
 30
0.0
 10
107.0925157067338
 20
-82.19808347554424
 30
0.0
 10
107.0925157067338
 20
-82.19808347554424
 30
0.0
 10
107.0925157067338
 20
-103.2209174004101
 30
0.0
 10
107.0925157067338
 20
-103.9264729557892
 30
0.0
 10
107.0925157067338
 20
-104.633062039814
 30
0.0
 10
106.6856499299258
 20
-105.8154188103517
 30
0.0
 10
105.1859998651966
 20
-106.0800021436189
 30
0.0
 10
103.9323296181141
 20
-106.274305528987
 30
0.0
 10
100.8079725225411
 20
-106.5037488883046
 30
0.0
 10
100.1375569411115
 20
-106.5213188752794
 30
0.0
 10
99.46645234058478
 20
-106.5392333718027
 30
0.0
 10
98.76055227565709
 20
-106.5392333718027
 30
0.0
 10
98.76055227565709
 20
-106.5392333718027
 30
0.0
  0
SPLINE
  5
6A
330
5F
100
AcDbEntity
  8
\U+30EC\U+30A4\U+30E4\U+30FC 1
 62
     7
420
 16777215
370
     9
100
AcDbSpline
210
0.0
220
0.0
230
1.0
 70
     8
 71
     3
 72
    29
 73
    25
 74
     0
 42
0.0000000001
 43
0.0000000001
 40
0.0
 40
0.0
 40
0.0
 40
0.0
 40
1.0
 40
1.0
 40
1.0
 40
2.0
 40
2.0
 40
2.0
 40
3.0
 40
3.0
 40
3.0
 40
4.0
 40
4.0
 40
4.0
 40
5.0
 40
5.0
 40
5.0
 40
6.0
 40
6.0
 40
6.0
 40
7.0
 40
7.0
 40
7.0
 40
8.0
 40
8.0
 40
8.0
 40
8.0
 10
98.76055227565709
 20
-81.98638235797563
 30
0.0
 10
98.76055227565709
 20
-81.98638235797563
 30
0.0
 10
101.779144939833
 20
-82.02203909624797
 30
0.0
 10
103.2085150566632
 20
-81.96829560667807
 30
0.0
 10
104.6385741925904
 20
-81.91593015530228
 30
0.0
 10
106.2625922043371
 20
-81.86287568482942
 30
0.0
 10
106.4041856287809
 20
-81.89818791355323
 30
0.0
 10
106.5447455245791
 20
-81.93350014227704
 30
0.0
 10
106.8093288578463
 20
-82.05717907019752
 30
0.0
 10
106.8093288578463
 20
-82.37516138348607
 30
0.0
 10
106.8093288578463
 20
-82.69262693245184
 30
0.0
 10
106.7393934194957
 20
-89.47016328058385
 30
0.0
 10
106.7393934194957
 20
-90.45907793962482
 30
0.0
 10
106.7393934194957
 20
-91.44764808911727
 30
0.0
 10
106.7393934194957
 20
-96.84852428134343
 30
0.0
 10
106.7393934194957
 20
-97.48448890792055
 30
0.0
 10
106.7393934194957
 20
-98.11907549630357
 30
0.0
 10
106.8093288578463
 20
-102.8147406426991
 30
0.0
 10
106.880642334391
 20
-103.785913059991
 30
0.0
 10
106.8975233022687
 20
-104.4911241058217
 30
0.0
 10
106.5447455245791
 20
-105.6386854119584
 30
0.0
 10
105.1326008851752
 20
-105.9208387322004
 30
0.0
 10
103.862049670215
 20
-106.0800021436189
 30
0.0
 10
100.9492214374363
 20
-106.3800699603841
 30
0.0
 10
98.76055227565709
 20
-106.3624999734094
 30
0.0
  0
POLYLINE
  5
6B
330
5F
100
AcDbEntity
  8
\U+30EC\U+30A4\U+30E4\U+30FC 1
 62
     7
420
 16777215
370
     9
100
AcDb2dPolyline
 66
     1
 10
0.0
 20
0.0
 30
0.0
  0
VERTEX
  5
6C
330
6B
100
AcDbEntity
  8
\U+30EC\U+30A4\U+30E4\U+30FC 1
 62
     7
420
 16777215
370
     9
100
AcDbVertex
100
AcDb2dVertex
 10
98.77812226263187
 20
-82.32141789391618
 30
0.0
  0
VERTEX
  5
6D
330
6B
100
AcDbEntity
  8
\U+30EC\U+30A4\U+30E4\U+30FC 1
 62
     7
420
 16777215
370
     9
100
AcDbVertex
100
AcDb2dVertex
 10
106.7917588708715
 20
-82.32141789391618
 30
0.0
  0
VERTEX
  5
6E
330
6B
100
AcDbEntity
  8
\U+30EC\U+30A4\U+30E4\U+30FC 1
 62
     7
420
 16777215
370
     9
100
AcDbVertex
100
AcDb2dVertex
 10
107.0566867136872
 20
-82.07474905717228
 30
0.0
  0
SEQEND
  5
6F
330
6B
100
AcDbEntity
  8
\U+30EC\U+30A4\U+30E4\U+30FC 1
370
     9
  0
SPLINE
  5
70
330
5F
100
AcDbEntity
  8
\U+30EC\U+30A4\U+30E4\U+30FC 1
 62
     7
420
 16777215
370
     9
100
AcDbSpline
210
0.0
220
0.0
230
1.0
 70
     8
 71
     3
 72
    11
 73
     7
 74
     0
 42
0.0000000001
 43
0.0000000001
 40
0.0
 40
0.0
 40
0.0
 40
0.0
 40
1.0
 40
1.0
 40
1.0
 40
2.0
 40
2.0
 40
2.0
 40
2.0
 10
106.067599799872
 20
-81.91593015530228
 30
0.0
 10
106.067599799872
 20
-81.91593015530228
 30
0.0
 10
106.1737087408177
 20
-82.12728676332235
 30
0.0
 10
106.1737087408177
 20
-82.56894800453138
 30
0.0
 10
106.1737087408177
 20
-83.01009248141762
 30
0.0
 10
106.067599799872
 20
-92.49461260708469
 30
0.0
 10
106.067599799872
 20
-92.49461260708469
 30
0.0
  0
SPLINE
  5
71
330
5F
100
AcDbEntity
  8
\U+30EC\U+30A4\U+30E4\U+30FC 1
 62
     7
420
 16777215
370
     9
100
AcDbSpline
210
0.0
220
0.0
230
1.0
 70
     8
 71
     3
 72
    23
 73
    19
 74
     0
 42
0.0000000001
 43
0.0000000001
 40
0.0
 40
0.0
 40
0.0
 40
0.0
 40
1.0
 40
1.0
 40
1.0
 40
2.0
 40
2.0
 40
2.0
 40
3.0
 40
3.0
 40
3.0
 40
4.0
 40
4.0
 40
4.0
 40
5.0
 40
5.0
 40
5.0
 40
6.0
 40
6.0
 40
6.0
 40
6.0
 10
106.7204453943268
 20
-81.61551782898849
 30
0.0
 10
106.7204453943268
 20
-81.61551782898849
 30
0.0
 10
106.4041856287809
 20
-81.72214353425697
 30
0.0
 10
106.4041856287809
 20
-82.28679468428942
 30
0.0
 10
106.4041856287809
 20
-82.85161808909612
 30
0.0
 10
106.3328721522362
 20
-93.07166610086404
 30
0.0
 10
106.3328721522362
 20
-93.07166610086404
 30
0.0
 10
106.3328721522362
 20
-93.07166610086404
 30
0.0
 10
106.3676676166372
 20
-99.5494791417793
 30
0.0
 10
106.3862711322576
 20
-100.5020480434509
 30
0.0
 10
106.4041856287809
 20
-101.455650473768
 30
0.0
 10
106.5275200471528
 20
-103.3793917927315
 30
0.0
 10
106.5623155115539
 20
-103.944731961861
 30
0.0
 10
106.5977999950519
 20
-104.5093831118935
 30
0.0
 10
106.1737087408177
 20
-105.5680609545108
 30
0.0
 10
105.1146863886519
 20
-105.709309869406
 30
0.0
 10
104.0560085460346
 20
-105.8505587843013
 30
0.0
 10
101.4787326135192
 20
-106.150971110615
 30
0.0
 10
98.77812226263187
 20
-106.150971110615
 30
0.0
  0
SPLINE
  5
72
330
5F
100
AcDbEntity
  8
\U+30EC\U+30A4\U+30E4\U+30FC 1
 62
     7
420
 16777215
370
     9
100
AcDbSpline
210
0.0
220
0.0
230
1.0
 70
     8
 71
     3
 72
    14
 73
    10
 74
     0
 42
0.0000000001
 43
0.0000000001
 40
0.0
 40
0.0
 40
0.0
 40
0.0
 40
1.0
 40
1.0
 40
1.0
 40
2.0
 40
2.0
 40
2.0
 40
3.0
 40
3.0
 40
3.0
 40
3.0
 10
98.77812226263187
 20
-91.44764808911727
 30
0.0
 10
98.77812226263187
 20
-91.44764808911727
 30
0.0
 10
102.4847004952122
 20
-91.44764808911727
 30
0.0
 10
104.9210720223808
 20
-92.1184081800954
 30
0.0
 10
104.9210720223808
 20
-92.1184081800954
 30
0.0
 10
105.8447021219763
 20
-92.40021699078883
 30
0.0
 10
106.0565754943192
 20
-92.51803925638438
 30
0.0
 10
106.1967908805689
 20
-92.51803925638438
 30
0.0
 10
106.3383843050126
 20
-92.60037703848185
 30
0.0
 10
106.3383843050126
 20
-92.6947726547777
 30
0.0
  0
SPLINE
  5
73
330
5F
100
AcDbEntity
  8
\U+30EC\U+30A4\U+30E4\U+30FC 1
 62
     7
420
 16777215
370
     9
100
AcDbSpline
210
0.0
220
0.0
230
1.0
 70
     8
 71
     3
 72
     8
 73
     4
 74
     0
 42
0.0000000001
 43
0.0000000001
 40
0.0
 40
0.0
 40
0.0
 40
0.0
 40
1.0
 40
1.0
 40
1.0
 40
1.0
 10
106.3676676166372
 20
-98.19004446329971
 30
0.0
 10
106.3676676166372
 20
-98.19004446329971
 30
0.0
 10
106.2625922043371
 20
-103.4500162501792
 30
0.0
 10
98.77812226263187
 20
-103.9264729557892
 30
0.0
  0
SPLINE
  5
74
330
5F
100
AcDbEntity
  8
\U+30EC\U+30A4\U+30E4\U+30FC 1
 62
     7
420
 16777215
370
     9
100
AcDbSpline
210
0.0
220
0.0
230
1.0
 70
     8
 71
     3
 72
    11
 73
     7
 74
     0
 42
0.0000000001
 43
0.0000000001
 40
0.0
 40
0.0
 40
0.0
 40
0.0
 40
1.0
 40
1.0
 40
1.0
 40
2.0
 40
2.0
 40
2.0
 40
2.0
 10
106.3328721522362
 20
-98.31337888167165
 30
0.0
 10
106.3328721522362
 20
-98.31337888167165
 30
0.0
 10
106.1209987798934
 20
-98.41948782261736
 30
0.0
 10
106.1209987798934
 20
-98.41948782261736
 30
0.0
 10
106.1209987798934
 20
-98.41948782261736
 30
0.0
 10
104.1621174869803
 20
-103.2026583943382
 30
0.0
 10
98.77812226263187
 20
-103.2026583943382
 30
0.0
  0
ENDBLK
  5
62
330
5F
100
AcDbEntity
  8
0
100
AcDbBlockEnd
  0
BLOCK
  5
BD
330
BB
100
AcDbEntity
  8
0
100
AcDbBlockBegin
  2
block 7
 70
     0
 71
     0
 10
0.0
 20
0.0
 30
0.0
  3
block 7
  1

  0
INSERT
  5
C0
330
BB
100
AcDbEntity
  8
\U+30EC\U+30A4\U+30E4\U+30FC 1
100
AcDbBlockReference
  2
block 8
 10
0.0
 20
0.0
 30
0.0
  0
POLYLINE
  5
109
330
BB
100
AcDbEntity
  8
\U+30EC\U+30A4\U+30E4\U+30FC 1
 62
     7
420
 16777215
370
     9
100
AcDb2dPolyline
 66
     1
 10
0.0
 20
0.0
 30
0.0
  0
VERTEX
  5
10A
330
109
100
AcDbEntity
  8
\U+30EC\U+30A4\U+30E4\U+30FC 1
 62
     7
420
 16777215
370
     9
100
AcDbVertex
100
AcDb2dVertex
 10
125.1131211709787
 20
-92.96555715991833
 30
0.0
  0
VERTEX
  5
10B
330
109
100
AcDbEntity
  8
\U+30EC\U+30A4\U+30E4\U+30FC 1
 62
     7
420
 16777215
370
     9
100
AcDbVertex
100
AcDb2dVertex
 10
125.1131211709787
 20
-76.17226696229375
 30
0.0
  0
SEQEND
  5
10C
330
109
100
AcDbEntity
  8
\U+30EC\U+30A4\U+30E4\U+30FC 1
370
     9
  0
POLYLINE
  5
10D
330
BB
100
AcDbEntity
  8
\U+30EC\U+30A4\U+30E4\U+30FC 1
 62
     7
420
 16777215
370
     9
100
AcDb2dPolyline
 66
     1
 10
0.0
 20
0.0
 30
0.0
  0
VERTEX
  5
10E
330
10D
100
AcDbEntity
  8
\U+30EC\U+30A4\U+30E4\U+30FC 1
 62
     7
420
 16777215
370
     9
100
AcDbVertex
100
AcDb2dVertex
 10
146.3197509399826
 20
-80.5664862537299
 30
0.0
  0
VERTEX
  5
10F
330
10D
100
AcDbEntity
  8
\U+30EC\U+30A4\U+30E4\U+30FC 1
 62
     7
420
 16777215
370
     9
100
AcDbVertex
100
AcDb2dVertex
 10
146.3197509399826
 20
-76.17226696229375
 30
0.0
  0
SEQEND
  5
110
330
10D
100
AcDbEntity
  8
\U+30EC\U+30A4\U+30E4\U+30FC 1
370
     9
  0
POLYLINE
  5
111
330
BB
100
AcDbEntity
  8
\U+30EC\U+30A4\U+30E4\U+30FC 1
 62
     7
420
 16777215
370
     9
100
AcDb2dPolyline
 66
     1
 10
0.0
 20
0.0
 30
0.0
  0
VERTEX
  5
112
330
111
100
AcDbEntity
  8
\U+30EC\U+30A4\U+30E4\U+30FC 1
 62
     7
420
 16777215
370
     9
100
AcDbVertex
100
AcDb2dVertex
 10
125.1834011188778
 20
-76.70143362882811
 30
0.0
  0
VERTEX
  5
113
330
111
100
AcDbEntity
  8
\U+30EC\U+30A4\U+30E4\U+30FC 1
 62
     7
420
 16777215
370
     9
100
AcDbVertex
100
AcDb2dVertex
 10
146.2584282403451
 20
-76.70143362882811
 30
0.0
  0
SEQEND
  5
114
330
111
100
AcDbEntity
  8
\U+30EC\U+30A4\U+30E4\U+30FC 1
370
     9
  0
POLYLINE
  5
115
330
BB
100
AcDbEntity
  8
\U+30EC\U+30A4\U+30E4\U+30FC 1
370
     0
100
AcDb2dPolyline
 66
     1
 10
0.0
 20
0.0
 30
0.0
  0
VERTEX
  5
116
330
115
100
AcDbEntity
  8
\U+30EC\U+30A4\U+30E4\U+30FC 1
370
     0
100
AcDbVertex
100
AcDb2dVertex
 10
126.1755886186297
 20
-77.0583455211
 30
0.0
  0
VERTEX
  5
117
330
115
100
AcDbEntity
  8
\U+30EC\U+30A4\U+30E4\U+30FC 1
370
     0
100
AcDbVertex
100
AcDb2dVertex
 10
125.1834011188778
 20
-76.6776624699799
 30
0.0
  0
VERTEX
  5
118
330
115
100
AcDbEntity
  8
\U+30EC\U+30A4\U+30E4\U+30FC 1
370
     0
100
AcDbVertex
100
AcDb2dVertex
 10
126.1755886186297
 20
-76.29697941885979
 30
0.0
  0
VERTEX
  5
119
330
115
100
AcDbEntity
  8
\U+30EC\U+30A4\U+30E4\U+30FC 1
370
     0
100
AcDbVertex
100
AcDb2dVertex
 10
126.1755886186297
 20
-77.0583455211
 30
0.0
  0
SEQEND
  5
11A
330
115
100
AcDbEntity
  8
\U+30EC\U+30A4\U+30E4\U+30FC 1
370
     0
  0
HATCH
  5
11B
330
BB
100
AcDbEntity
  8
\U+30EC\U+30A4\U+30E4\U+30FC 1
 62
     7
420
 16777215
100
AcDbHatch
 10
0.0
 20
0.0
 30
0.0
210
0.0
220
0.0
230
1.0
  2
SOLID
 70
     1
 71
     0
 91
        1
 92
        1
 93
        3
 72
     1
 10
126.1755886186297
 20
-77.0583455211
 11
125.1834011188778
 21
-76.6776624699799
 72
     1
 10
125.1834011188778
 20
-76.6776624699799
 11
126.1755886186297
 21
-76.29697941885979
 72
     1
 10
126.1755886186297
 20
-76.29697941885979
 11
126.1755886186297
 21
-77.0583455211
 97
        0
 75
     2
 76
     1
 98
        0
  0
POLYLINE
  5
11C
330
BB
100
AcDbEntity
  8
\U+30EC\U+30A4\U+30E4\U+30FC 1
370
     0
100
AcDb2dPolyline
 66
     1
 10
0.0
 20
0.0
 30
0.0
  0
VERTEX
  5
11D
330
11C
100
AcDbEntity
  8
\U+30EC\U+30A4\U+30E4\U+30FC 1
370
     0
100
AcDbVertex
100
AcDb2dVertex
 10
145.3279079497791
 20
-77.0583455211
 30
0.0
  0
VERTEX
  5
11E
330
11C
100
AcDbEntity
  8
\U+30EC\U+30A4\U+30E4\U+30FC 1
370
     0
100
AcDbVertex
100
AcDb2dVertex
 10
146.3197509399826
 20
-76.6776624699799
 30
0.0
  0
VERTEX
  5
11F
330
11C
100
AcDbEntity
  8
\U+30EC\U+30A4\U+30E4\U+30FC 1
370
     0
100
AcDbVertex
100
AcDb2dVertex
 10
145.3279079497791
 20
-76.29697941885979
 30
0.0
  0
VERTEX
  5
120
330
11C
100
AcDbEntity
  8
\U+30EC\U+30A4\U+30E4\U+30FC 1
370
     0
100
AcDbVertex
100
AcDb2dVertex
 10
145.3279079497791
 20
-77.0583455211
 30
0.0
  0
SEQEND
  5
121
330
11C
100
AcDbEntity
  8
\U+30EC\U+30A4\U+30E4\U+30FC 1
370
     0
  0
HATCH
  5
122
330
BB
100
AcDbEntity
  8
\U+30EC\U+30A4\U+30E4\U+30FC 1
 62
     7
420
 16777215
100
AcDbHatch
 10
0.0
 20
0.0
 30
0.0
210
0.0
220
0.0
230
1.0
  2
SOLID
 70
     1
 71
     0
 91
        1
 92
        1
 93
        3
 72
     1
 10
145.3279079497791
 20
-77.0583455211
 11
146.3197509399826
 21
-76.6776624699799
 72
     1
 10
146.3197509399826
 20
-76.6776624699799
 11
145.3279079497791
 21
-76.29697941885979
 72
     1
 10
145.3279079497791
 20
-76.29697941885979
 11
145.3279079497791
 21
-77.0583455211
 97
        0
 75
     2
 76
     1
 98
        0
  0
MTEXT
  5
123
330
BB
100
AcDbEntity
  8
\U+30EC\U+30A4\U+30E4\U+30FC 1
 62
     7
420
 16777215
100
AcDbMText
 10
131.467599793522
 20
-75.10859373122285
 30
0.0
 40
1.4393333329735
 41
0.0
 71
     7
 72
     1
  1
\fArial|b0|i0|c0|p34;\W1;78.5(3.1)
 73
     1
 44
1.0
  0
ENDBLK
  5
BE
330
BB
100
AcDbEntity
  8
0
100
AcDbBlockEnd
  0
BLOCK
  5
C1
330
BF
100
AcDbEntity
  8
0
100
AcDbBlockBegin
  2
block 8
 70
     0
 71
     0
 10
0.0
 20
0.0
 30
0.0
  3
block 8
  1

  0
SPLINE
  5
C3
330
BF
100
AcDbEntity
  8
\U+30EC\U+30A4\U+30E4\U+30FC 1
 62
     7
420
 16777215
370
     9
100
AcDbSpline
210
0.0
220
0.0
230
1.0
 70
     8
 71
     3
 72
    26
 73
    22
 74
     0
 42
0.0000000001
 43
0.0000000001
 40
0.0
 40
0.0
 40
0.0
 40
0.0
 40
1.0
 40
1.0
 40
1.0
 40
2.0
 40
2.0
 40
2.0
 40
3.0
 40
3.0
 40
3.0
 40
4.0
 40
4.0
 40
4.0
 40
5.0
 40
5.0
 40
5.0
 40
6.0
 40
6.0
 40
6.0
 40
7.0
 40
7.0
 40
7.0
 40
7.0
 10
129.4370605145157
 20
-92.61243487268023
 30
0.0
 10
129.4370605145157
 20
-92.61243487268023
 30
0.0
 10
125.9947211056541
 20
-91.71188691283592
 30
0.0
 10
125.8186767263578
 20
-91.64195147448535
 30
0.0
 10
125.641598818416
 20
-91.5709825074892
 30
0.0
 10
125.606803354015
 20
-91.44764808911727
 30
0.0
 10
125.606803354015
 20
-91.44764808911727
 30
0.0
 10
125.606803354015
 20
-91.44764808911727
 30
0.0
 10
126.9128390524732
 20
-82.71019691942662
 30
0.0
 10
127.0010334968956
 20
-82.35707463218851
 30
0.0
 10
127.089916960415
 20
-82.00343558062762
 30
0.0
 10
127.3362412876104
 20
-81.98638235797563
 30
0.0
 10
127.3362412876104
 20
-81.98638235797563
 30
0.0
 10
127.3362412876104
 20
-81.98638235797563
 30
0.0
 10
133.7089789162255
 20
-81.45652667234421
 30
0.0
 10
133.7089789162255
 20
-81.45652667234421
 30
0.0
 10
133.7089789162255
 20
-81.45652667234421
 30
0.0
 10
134.6612033083486
 20
-81.38659123399363
 30
0.0
 10
134.6612033083486
 20
-81.38659123399363
 30
0.0
 10
134.6612033083486
 20
-81.38659123399363
 30
0.0
 10
134.6612033083486
 20
-81.63326007073752
 30
0.0
 10
134.6612033083486
 20
-81.63326007073752
 30
0.0
  0
SPLINE
  5
C4
330
BF
100
AcDbEntity
  8
\U+30EC\U+30A4\U+30E4\U+30FC 1
 62
     7
420
 16777215
370
     9
100
AcDbSpline
210
0.0
220
0.0
230
1.0
 70
     8
 71
     3
 72
    11
 73
     7
 74
     0
 42
0.0000000001
 43
0.0000000001
 40
0.0
 40
0.0
 40
0.0
 40
0.0
 40
1.0
 40
1.0
 40
1.0
 40
2.0
 40
2.0
 40
2.0
 40
2.0
 10
125.8186767263578
 20
-91.64195147448535
 30
0.0
 10
125.8186767263578
 20
-91.64195147448535
 30
0.0
 10
124.5477810018492
 20
-94.80075952491093
 30
0.0
 10
125.4831244260945
 20
-97.66053328721682
 30
0.0
 10
126.4184678503398
 20
-100.5196180304257
 30
0.0
 10
128.6250515086423
 20
-102.4089083945367
 30
0.0
 10
130.6728162650749
 20
-103.0441840020167
 30
0.0
  0
SPLINE
  5
C5
330
BF
100
AcDbEntity
  8
\U+30EC\U+30A4\U+30E4\U+30FC 1
 62
     7
420
 16777215
370
     9
100
AcDbSpline
210
0.0
220
0.0
230
1.0
 70
     8
 71
     3
 72
    32
 73
    28
 74
     0
 42
0.0000000001
 43
0.0000000001
 40
0.0
 40
0.0
 40
0.0
 40
0.0
 40
1.0
 40
1.0
 40
1.0
 40
2.0
 40
2.0
 40
2.0
 40
3.0
 40
3.0
 40
3.0
 40
4.0
 40
4.0
 40
4.0
 40
5.0
 40
5.0
 40
5.0
 40
6.0
 40
6.0
 40
6.0
 40
7.0
 40
7.0
 40
7.0
 40
8.0
 40
8.0
 40
8.0
 40
9.0
 40
9.0
 40
9.0
 40
9.0
 10
134.8024522232438
 20
-81.63326007073752
 30
0.0
 10
134.8024522232438
 20
-81.63326007073752
 30
0.0
 10
134.5199543934534
 20
-81.63326007073752
 30
0.0
 10
134.5199543934534
 20
-81.63326007073752
 30
0.0
 10
134.5199543934534
 20
-81.63326007073752
 30
0.0
 10
133.6910644197022
 20
-81.68631454121036
 30
0.0
 10
133.6910644197022
 20
-81.68631454121036
 30
0.0
 10
133.6910644197022
 20
-81.68631454121036
 30
0.0
 10
130.743096212974
 20
-81.91593015530228
 30
0.0
 10
130.743096212974
 20
-81.91593015530228
 30
0.0
 10
130.743096212974
 20
-81.91593015530228
 30
0.0
 10
130.4254584092339
 20
-81.95055336492904
 30
0.0
 10
130.3724039387611
 20
-82.28679468428942
 30
0.0
 10
130.3200384873853
 20
-82.62183022022997
 30
0.0
 10
129.3488660700934
 20
-94.236452884427
 30
0.0
 10
129.3488660700934
 20
-94.236452884427
 30
0.0
 10
129.3488660700934
 20
-94.236452884427
 30
0.0
 10
129.1721326717
 20
-95.96589081802242
 30
0.0
 10
129.4722004884653
 20
-97.96060110398207
 30
0.0
 10
129.7722683052305
 20
-99.95531138994173
 30
0.0
 10
130.4781683701582
 20
-102.3913384075619
 30
0.0
 10
131.7662895720931
 20
-104.4738986283954
 30
0.0
 10
132.2964897672731
 20
-105.4802110196369
 30
0.0
 10
132.2437798063488
 20
-105.6386854119584
 30
0.0
 10
132.1900363167789
 20
-105.7447943529041
 30
0.0
 10
132.1376708654031
 20
-105.8505587843013
 30
0.0
 10
131.9437119895835
 20
-106.0800021436189
 30
0.0
 10
131.9437119895835
 20
-106.0800021436189
 30
0.0
  0
SPLINE
  5
C6
330
BF
100
AcDbEntity
  8
\U+30EC\U+30A4\U+30E4\U+30FC 1
 62
     7
420
 16777215
370
     9
100
AcDbSpline
210
0.0
220
0.0
230
1.0
 70
     8
 71
     3
 72
    17
 73
    13
 74
     0
 42
0.0000000001
 43
0.0000000001
 40
0.0
 40
0.0
 40
0.0
 40
0.0
 40
1.0
 40
1.0
 40
1.0
 40
2.0
 40
2.0
 40
2.0
 40
3.0
 40
3.0
 40
3.0
 40
4.0
 40
4.0
 40
4.0
 40
4.0
 10
130.019281651523
 20
-100.5020480434509
 30
0.0
 10
130.019281651523
 20
-100.5020480434509
 30
0.0
 10
130.7789252060205
 20
-103.6260606294754
 30
0.0
 10
131.0428195201907
 20
-104.2799397525759
 30
0.0
 10
131.3077473630064
 20
-104.9327853470307
 30
0.0
 10
131.9261420026087
 20
-106.2922200255103
 30
0.0
 10
132.1197563688798
 20
-106.3445854768861
 30
0.0
 10
132.3140597542479
 20
-106.3979844569075
 30
0.0
 10
133.4085665899117
 20
-106.4861789013299
 30
0.0
 10
133.4085665899117
 20
-106.4861789013299
 30
0.0
 10
133.4085665899117
 20
-106.4861789013299
 30
0.0
 10
134.6439778309224
 20
-106.4861789013299
 30
0.0
 10
134.6439778309224
 20
-106.4861789013299
 30
0.0
  0
POLYLINE
  5
C7
330
BF
100
AcDbEntity
  8
\U+30EC\U+30A4\U+30E4\U+30FC 1
 62
     7
420
 16777215
370
     9
100
AcDb2dPolyline
 66
     1
 10
0.0
 20
0.0
 30
0.0
  0
VERTEX
  5
C8
330
C7
100
AcDbEntity
  8
\U+30EC\U+30A4\U+30E4\U+30FC 1
 62
     7
420
 16777215
370
     9
100
AcDbVertex
100
AcDb2dVertex
 10
127.0010334968956
 20
-82.35707463218851
 30
0.0
  0
VERTEX
  5
C9
330
C7
100
AcDbEntity
  8
\U+30EC\U+30A4\U+30E4\U+30FC 1
 62
     7
420
 16777215
370
     9
100
AcDbVertex
100
AcDb2dVertex
 10
130.3724039387611
 20
-82.28679468428942
 30
0.0
  0
VERTEX
  5
CA
330
C7
100
AcDbEntity
  8
\U+30EC\U+30A4\U+30E4\U+30FC 1
 62
     7
420
 16777215
370
     9
100
AcDbVertex
100
AcDb2dVertex
 10
130.743096212974
 20
-82.32141789391618
 30
0.0
  0
VERTEX
  5
CB
330
C7
100
AcDbEntity
  8
\U+30EC\U+30A4\U+30E4\U+30FC 1
 62
     7
420
 16777215
370
     9
100
AcDbVertex
100
AcDb2dVertex
 10
133.7089789162255
 20
-82.09249129892133
 30
0.0
  0
VERTEX
  5
CC
330
C7
100
AcDbEntity
  8
\U+30EC\U+30A4\U+30E4\U+30FC 1
 62
     7
420
 16777215
370
     9
100
AcDbVertex
100
AcDb2dVertex
 10
134.6264078439476
 20
-82.09249129892133
 30
0.0
  0
SEQEND
  5
CD
330
C7
100
AcDbEntity
  8
\U+30EC\U+30A4\U+30E4\U+30FC 1
370
     9
  0
POLYLINE
  5
CE
330
BF
100
AcDbEntity
  8
\U+30EC\U+30A4\U+30E4\U+30FC 1
 62
     7
420
 16777215
370
     9
100
AcDb2dPolyline
 66
     1
 10
0.0
 20
0.0
 30
0.0
  0
VERTEX
  5
CF
330
CE
100
AcDbEntity
  8
\U+30EC\U+30A4\U+30E4\U+30FC 1
 62
     7
420
 16777215
370
     9
100
AcDbVertex
100
AcDb2dVertex
 10
133.7089789162255
 20
-81.45652667234421
 30
0.0
  0
VERTEX
  5
D0
330
CE
100
AcDbEntity
  8
\U+30EC\U+30A4\U+30E4\U+30FC 1
 62
     7
420
 16777215
370
     9
100
AcDbVertex
100
AcDb2dVertex
 10
133.7089789162255
 20
-106.4506944178318
 30
0.0
  0
SEQEND
  5
D1
330
CE
100
AcDbEntity
  8
\U+30EC\U+30A4\U+30E4\U+30FC 1
370
     9
  0
SPLINE
  5
D2
330
BF
100
AcDbEntity
  8
\U+30EC\U+30A4\U+30E4\U+30FC 1
 62
     7
420
 16777215
370
     9
100
AcDbSpline
210
0.0
220
0.0
230
1.0
 70
     8
 71
     3
 72
    26
 73
    22
 74
     0
 42
0.0000000001
 43
0.0000000001
 40
0.0
 40
0.0
 40
0.0
 40
0.0
 40
1.0
 40
1.0
 40
1.0
 40
2.0
 40
2.0
 40
2.0
 40
3.0
 40
3.0
 40
3.0
 40
4.0
 40
4.0
 40
4.0
 40
5.0
 40
5.0
 40
5.0
 40
6.0
 40
6.0
 40
6.0
 40
7.0
 40
7.0
 40
7.0
 40
7.0
 10
127.8481824767185
 20
-81.91593015530228
 30
0.0
 10
127.8481824767185
 20
-81.91593015530228
 30
0.0
 10
130.743096212974
 20
-81.91593015530228
 30
0.0
 10
130.743096212974
 20
-81.91593015530228
 30
0.0
 10
130.743096212974
 20
-81.91593015530228
 30
0.0
 10
130.743096212974
 20
-82.32141789391618
 30
0.0
 10
130.743096212974
 20
-82.32141789391618
 30
0.0
 10
130.743096212974
 20
-82.32141789391618
 30
0.0
 10
129.6665038738334
 20
-94.836244008409
 30
0.0
 10
129.6665038738334
 20
-94.836244008409
 30
0.0
 10
129.6665038738334
 20
-94.836244008409
 30
0.0
 10
129.6840738608082
 20
-96.61942543157431
 30
0.0
 10
129.8428927626782
 20
-97.87240665955969
 30
0.0
 10
130.0013671549997
 20
-99.12538788754505
 30
0.0
 10
130.8302571287508
 20
-101.8601046837364
 30
0.0
 10
131.785237597262
 20
-103.7679985634677
 30
0.0
 10
132.4377386821683
 20
-105.0740342619259
 30
0.0
 10
132.5610731005403
 20
-105.8505587843013
 30
0.0
 10
132.5610731005403
 20
-105.8505587843013
 30
0.0
 10
132.5610731005403
 20
-105.8505587843013
 30
0.0
 10
132.2792642898469
 20
-106.3445854768861
 30
0.0
 10
132.2792642898469
 20
-106.3445854768861
 30
0.0
  0
SPLINE
  5
D3
330
BF
100
AcDbEntity
  8
\U+30EC\U+30A4\U+30E4\U+30FC 1
 62
     7
420
 16777215
370
     9
100
AcDbSpline
210
0.0
220
0.0
230
1.0
 70
     8
 71
     3
 72
    11
 73
     7
 74
     0
 42
0.0000000001
 43
0.0000000001
 40
0.0
 40
0.0
 40
0.0
 40
0.0
 40
1.0
 40
1.0
 40
1.0
 40
2.0
 40
2.0
 40
2.0
 40
2.0
 10
132.1900363167789
 20
-105.7447943529041
 30
0.0
 10
132.1900363167789
 20
-105.7447943529041
 30
0.0
 10
132.2964897672731
 20
-105.9039577643226
 30
0.0
 10
132.6137830614646
 20
-105.9208387322004
 30
0.0
 10
132.9317653747532
 20
-105.9390977382722
 30
0.0
 10
134.6084933474243
 20
-106.0800021436189
 30
0.0
 10
134.6084933474243
 20
-106.0800021436189
 30
0.0
  0
POLYLINE
  5
D4
330
BF
100
AcDbEntity
  8
\U+30EC\U+30A4\U+30E4\U+30FC 1
 62
     7
420
 16777215
370
     9
100
AcDb2dPolyline
 66
     1
 10
0.0
 20
0.0
 30
0.0
  0
VERTEX
  5
D5
330
D4
100
AcDbEntity
  8
\U+30EC\U+30A4\U+30E4\U+30FC 1
 62
     7
420
 16777215
370
     9
100
AcDbVertex
100
AcDb2dVertex
 10
131.4669107744249
 20
-103.9264729557892
 30
0.0
  0
VERTEX
  5
D6
330
D4
100
AcDbEntity
  8
\U+30EC\U+30A4\U+30E4\U+30FC 1
 62
     7
420
 16777215
370
     9
100
AcDbVertex
100
AcDb2dVertex
 10
131.785237597262
 20
-103.7679985634677
 30
0.0
  0
VERTEX
  5
D7
330
D4
100
AcDbEntity
  8
\U+30EC\U+30A4\U+30E4\U+30FC 1
 62
     7
420
 16777215
370
     9
100
AcDbVertex
100
AcDb2dVertex
 10
133.7258598841033
 20
-103.909247478363
 30
0.0
  0
VERTEX
  5
D8
330
D4
100
AcDbEntity
  8
\U+30EC\U+30A4\U+30E4\U+30FC 1
 62
     7
420
 16777215
370
     9
100
AcDbVertex
100
AcDb2dVertex
 10
134.8203667197672
 20
-103.909247478363
 30
0.0
  0
VERTEX
  5
D9
330
D4
100
AcDbEntity
  8
\U+30EC\U+30A4\U+30E4\U+30FC 1
 62
     7
420
 16777215
370
     9
100
AcDbVertex
100
AcDb2dVertex
 10
146.2763427368684
 20
-103.909247478363
 30
0.0
  0
SEQEND
  5
DA
330
D4
100
AcDbEntity
  8
\U+30EC\U+30A4\U+30E4\U+30FC 1
370
     9
  0
POLYLINE
  5
DB
330
BF
100
AcDbEntity
  8
\U+30EC\U+30A4\U+30E4\U+30FC 1
 62
     7
420
 16777215
370
     9
100
AcDb2dPolyline
 66
     1
 10
0.0
 20
0.0
 30
0.0
  0
VERTEX
  5
DC
330
DB
100
AcDbEntity
  8
\U+30EC\U+30A4\U+30E4\U+30FC 1
 62
     7
420
 16777215
370
     9
100
AcDbVertex
100
AcDb2dVertex
 10
134.6612033083486
 20
-81.63326007073752
 30
0.0
  0
VERTEX
  5
DD
330
DB
100
AcDbEntity
  8
\U+30EC\U+30A4\U+30E4\U+30FC 1
 62
     7
420
 16777215
370
     9
100
AcDbVertex
100
AcDb2dVertex
 10
134.6612033083486
 20
-106.4861789013299
 30
0.0
  0
SEQEND
  5
DE
330
DB
100
AcDbEntity
  8
\U+30EC\U+30A4\U+30E4\U+30FC 1
370
     9
  0
POLYLINE
  5
DF
330
BF
100
AcDbEntity
  8
\U+30EC\U+30A4\U+30E4\U+30FC 1
 62
     7
420
 16777215
370
     9
100
AcDb2dPolyline
 66
     1
 10
0.0
 20
0.0
 30
0.0
  0
VERTEX
  5
E0
330
DF
100
AcDbEntity
  8
\U+30EC\U+30A4\U+30E4\U+30FC 1
 62
     7
420
 16777215
370
     9
100
AcDbVertex
100
AcDb2dVertex
 10
133.4085665899117
 20
-106.4861789013299
 30
0.0
  0
VERTEX
  5
E1
330
DF
100
AcDbEntity
  8
\U+30EC\U+30A4\U+30E4\U+30FC 1
 62
     7
420
 16777215
370
     9
100
AcDbVertex
100
AcDb2dVertex
 10
133.4085665899117
 20
-106.7511067441456
 30
0.0
  0
VERTEX
  5
E2
330
DF
100
AcDbEntity
  8
\U+30EC\U+30A4\U+30E4\U+30FC 1
 62
     7
420
 16777215
370
     9
100
AcDbVertex
100
AcDb2dVertex
 10
133.7616888771499
 20
-107.1042290313837
 30
0.0
  0
VERTEX
  5
E3
330
DF
100
AcDbEntity
  8
\U+30EC\U+30A4\U+30E4\U+30FC 1
 62
     7
420
 16777215
370
     9
100
AcDbVertex
100
AcDb2dVertex
 10
137.768679436044
 20
-107.1042290313837
 30
0.0
  0
VERTEX
  5
E4
330
DF
100
AcDbEntity
  8
\U+30EC\U+30A4\U+30E4\U+30FC 1
 62
     7
420
 16777215
370
     9
100
AcDbVertex
100
AcDb2dVertex
 10
144.2464924769592
 20
-106.7335367571708
 30
0.0
  0
VERTEX
  5
E5
330
DF
100
AcDbEntity
  8
\U+30EC\U+30A4\U+30E4\U+30FC 1
 62
     7
420
 16777215
370
     9
100
AcDbVertex
100
AcDb2dVertex
 10
146.2763427368684
 20
-104.7743109547092
 30
0.0
  0
VERTEX
  5
E6
330
DF
100
AcDbEntity
  8
\U+30EC\U+30A4\U+30E4\U+30FC 1
 62
     7
420
 16777215
370
     9
100
AcDbVertex
100
AcDb2dVertex
 10
146.2763427368684
 20
-81.31579452177175
 30
0.0
  0
VERTEX
  5
E7
330
DF
100
AcDbEntity
  8
\U+30EC\U+30A4\U+30E4\U+30FC 1
 62
     7
420
 16777215
370
     9
100
AcDbVertex
100
AcDb2dVertex
 10
137.7152804560226
 20
-80.85639103881368
 30
0.0
  0
VERTEX
  5
E8
330
DF
100
AcDbEntity
  8
\U+30EC\U+30A4\U+30E4\U+30FC 1
 62
     7
420
 16777215
370
     9
100
AcDbVertex
100
AcDb2dVertex
 10
134.8024522232438
 20
-81.08617890767985
 30
0.0
  0
VERTEX
  5
E9
330
DF
100
AcDbEntity
  8
\U+30EC\U+30A4\U+30E4\U+30FC 1
 62
     7
420
 16777215
370
     9
100
AcDbVertex
100
AcDb2dVertex
 10
134.8024522232438
 20
-106.7686767311203
 30
0.0
  0
VERTEX
  5
EA
330
DF
100
AcDbEntity
  8
\U+30EC\U+30A4\U+30E4\U+30FC 1
 62
     7
420
 16777215
370
     9
100
AcDbVertex
100
AcDb2dVertex
 10
137.768679436044
 20
-107.1042290313837
 30
0.0
  0
SEQEND
  5
EB
330
DF
100
AcDbEntity
  8
\U+30EC\U+30A4\U+30E4\U+30FC 1
370
     9
  0
POLYLINE
  5
EC
330
BF
100
AcDbEntity
  8
\U+30EC\U+30A4\U+30E4\U+30FC 1
 62
     7
420
 16777215
370
     9
100
AcDb2dPolyline
 66
     1
 10
0.0
 20
0.0
 30
0.0
  0
VERTEX
  5
ED
330
EC
100
AcDbEntity
  8
\U+30EC\U+30A4\U+30E4\U+30FC 1
 62
     7
420
 16777215
370
     9
100
AcDbVertex
100
AcDb2dVertex
 10
134.8024522232438
 20
-106.7686767311203
 30
0.0
  0
VERTEX
  5
EE
330
EC
100
AcDbEntity
  8
\U+30EC\U+30A4\U+30E4\U+30FC 1
 62
     7
420
 16777215
370
     9
100
AcDbVertex
100
AcDb2dVertex
 10
133.4085665899117
 20
-106.7686767311203
 30
0.0
  0
SEQEND
  5
EF
330
EC
100
AcDbEntity
  8
\U+30EC\U+30A4\U+30E4\U+30FC 1
370
     9
  0
POLYLINE
  5
F0
330
BF
100
AcDbEntity
  8
\U+30EC\U+30A4\U+30E4\U+30FC 1
 62
     7
420
 16777215
370
     9
100
AcDb2dPolyline
 66
     1
 10
0.0
 20
0.0
 30
0.0
  0
VERTEX
  5
F1
330
F0
100
AcDbEntity
  8
\U+30EC\U+30A4\U+30E4\U+30FC 1
 62
     7
420
 16777215
370
     9
100
AcDbVertex
100
AcDb2dVertex
 10
134.8203667197672
 20
-106.3094455029365
 30
0.0
  0
VERTEX
  5
F2
330
F0
100
AcDbEntity
  8
\U+30EC\U+30A4\U+30E4\U+30FC 1
 62
     7
420
 16777215
370
     9
100
AcDbVertex
100
AcDb2dVertex
 10
137.7328504429973
 20
-106.5561143396804
 30
0.0
  0
VERTEX
  5
F3
330
F0
100
AcDbEntity
  8
\U+30EC\U+30A4\U+30E4\U+30FC 1
 62
     7
420
 16777215
370
     9
100
AcDbVertex
100
AcDb2dVertex
 10
144.2633734448369
 20
-106.2567355420122
 30
0.0
  0
VERTEX
  5
F4
330
F0
100
AcDbEntity
  8
\U+30EC\U+30A4\U+30E4\U+30FC 1
 62
     7
420
 16777215
370
     9
100
AcDbVertex
100
AcDb2dVertex
 10
146.2408582533703
 20
-104.2799397525759
 30
0.0
  0
SEQEND
  5
F5
330
F0
100
AcDbEntity
  8
\U+30EC\U+30A4\U+30E4\U+30FC 1
370
     9
  0
SPLINE
  5
F6
330
BF
100
AcDbEntity
  8
\U+30EC\U+30A4\U+30E4\U+30FC 1
 62
     7
420
 16777215
370
     9
100
AcDbSpline
210
0.0
220
0.0
230
1.0
 70
     8
 71
     3
 72
    11
 73
     7
 74
     0
 42
0.0000000001
 43
0.0000000001
 40
0.0
 40
0.0
 40
0.0
 40
0.0
 40
1.0
 40
1.0
 40
1.0
 40
2.0
 40
2.0
 40
2.0
 40
2.0
 10
144.2464924769592
 20
-106.7335367571708
 30
0.0
 10
144.2464924769592
 20
-106.7335367571708
 30
0.0
 10
144.2464924769592
 20
-82.05717907019752
 30
0.0
 10
144.2464924769592
 20
-82.05717907019752
 30
0.0
 10
144.2464924769592
 20
-82.05717907019752
 30
0.0
 10
144.2992024378835
 20
-81.58020560026468
 30
0.0
 10
144.7577446469703
 20
-81.45652667234421
 30
0.0
  0
POLYLINE
  5
F7
330
BF
100
AcDbEntity
  8
\U+30EC\U+30A4\U+30E4\U+30FC 1
 62
     7
420
 16777215
370
     9
100
AcDb2dPolyline
 66
     1
 10
0.0
 20
0.0
 30
0.0
  0
VERTEX
  5
F8
330
F7
100
AcDbEntity
  8
\U+30EC\U+30A4\U+30E4\U+30FC 1
 62
     7
420
 16777215
370
     9
100
AcDbVertex
100
AcDb2dVertex
 10
134.8024522232438
 20
-81.3688489922446
 30
0.0
  0
VERTEX
  5
F9
330
F7
100
AcDbEntity
  8
\U+30EC\U+30A4\U+30E4\U+30FC 1
 62
     7
420
 16777215
370
     9
100
AcDbVertex
100
AcDb2dVertex
 10
137.8038194099935
 20
-81.12149113640366
 30
0.0
  0
VERTEX
  5
FA
330
F7
100
AcDbEntity
  8
\U+30EC\U+30A4\U+30E4\U+30FC 1
 62
     7
420
 16777215
370
     9
100
AcDbVertex
100
AcDb2dVertex
 10
144.7577446469703
 20
-81.45652667234421
 30
0.0
  0
SEQEND
  5
FB
330
F7
100
AcDbEntity
  8
\U+30EC\U+30A4\U+30E4\U+30FC 1
370
     9
  0
POLYLINE
  5
FC
330
BF
100
AcDbEntity
  8
\U+30EC\U+30A4\U+30E4\U+30FC 1
 62
     7
420
 16777215
370
     9
100
AcDb2dPolyline
 66
     1
 10
0.0
 20
0.0
 30
0.0
  0
VERTEX
  5
FD
330
FC
100
AcDbEntity
  8
\U+30EC\U+30A4\U+30E4\U+30FC 1
 62
     7
420
 16777215
370
     9
100
AcDbVertex
100
AcDb2dVertex
 10
144.7577446469703
 20
-81.24517006432413
 30
0.0
  0
VERTEX
  5
FE
330
FC
100
AcDbEntity
  8
\U+30EC\U+30A4\U+30E4\U+30FC 1
 62
     7
420
 16777215
370
     9
100
AcDbVertex
100
AcDb2dVertex
 10
144.7577446469703
 20
-82.69262693245184
 30
0.0
  0
VERTEX
  5
FF
330
FC
100
AcDbEntity
  8
\U+30EC\U+30A4\U+30E4\U+30FC 1
 62
     7
420
 16777215
370
     9
100
AcDbVertex
100
AcDb2dVertex
 10
146.2408582533703
 20
-82.69262693245184
 30
0.0
  0
SEQEND
  5
100
330
FC
100
AcDbEntity
  8
\U+30EC\U+30A4\U+30E4\U+30FC 1
370
     9
  0
POLYLINE
  5
101
330
BF
100
AcDbEntity
  8
\U+30EC\U+30A4\U+30E4\U+30FC 1
 62
     7
420
 16777215
370
     9
100
AcDb2dPolyline
 66
     1
 10
0.0
 20
0.0
 30
0.0
  0
VERTEX
  5
102
330
101
100
AcDbEntity
  8
\U+30EC\U+30A4\U+30E4\U+30FC 1
 62
     7
420
 16777215
370
     9
100
AcDbVertex
100
AcDb2dVertex
 10
134.8382812162904
 20
-82.03909231889995
 30
0.0
  0
VERTEX
  5
103
330
101
100
AcDbEntity
  8
\U+30EC\U+30A4\U+30E4\U+30FC 1
 62
     7
420
 16777215
370
     9
100
AcDbVertex
100
AcDb2dVertex
 10
144.2464924769592
 20
-82.03909231889995
 30
0.0
  0
SEQEND
  5
104
330
101
100
AcDbEntity
  8
\U+30EC\U+30A4\U+30E4\U+30FC 1
370
     9
  0
POLYLINE
  5
105
330
BF
100
AcDbEntity
  8
\U+30EC\U+30A4\U+30E4\U+30FC 1
 62
     7
420
 16777215
370
     9
100
AcDb2dPolyline
 66
     1
 10
0.0
 20
0.0
 30
0.0
  0
VERTEX
  5
106
330
105
100
AcDbEntity
  8
\U+30EC\U+30A4\U+30E4\U+30FC 1
 62
     7
420
 16777215
370
     9
100
AcDbVertex
100
AcDb2dVertex
 10
137.7152804560226
 20
-80.85639103881368
 30
0.0
  0
VERTEX
  5
107
330
105
100
AcDbEntity
  8
\U+30EC\U+30A4\U+30E4\U+30FC 1
 62
     7
420
 16777215
370
     9
100
AcDbVertex
100
AcDb2dVertex
 10
137.7152804560226
 20
-107.0863145348604
 30
0.0
  0
SEQEND
  5
108
330
105
100
AcDbEntity
  8
\U+30EC\U+30A4\U+30E4\U+30FC 1
370
     9
  0
ENDBLK
  5
C2
330
BF
100
AcDbEntity
  8
0
100
AcDbBlockEnd
  0
ENDSEC
  0
SECTION
  2
ENTITIES
  0
INSERT
  5
3D
330
1F
100
AcDbEntity
  8
\U+30EC\U+30A4\U+30E4\U+30FC 1
100
AcDbBlockReference
  2
block 2
 10
0.0
 20
0.0
 30
0.0
  0
INSERT
  5
42
330
1F
100
AcDbEntity
  8
\U+30EC\U+30A4\U+30E4\U+30FC 1
100
AcDbBlockReference
  2
block 3
 10
0.0
 20
0.0
 30
0.0
  0
POLYLINE
  5
85
330
1F
100
AcDbEntity
  8
\U+30EC\U+30A4\U+30E4\U+30FC 1
 62
     7
420
 16777215
370
     9
100
AcDb2dPolyline
 66
     1
 10
0.0
 20
0.0
 30
0.0
  0
VERTEX
  5
86
330
85
100
AcDbEntity
  8
\U+30EC\U+30A4\U+30E4\U+30FC 1
 62
     7
420
 16777215
370
     9
100
AcDbVertex
100
AcDb2dVertex
 10
89.89976668759451
 20
-81.42173120794318
 30
0.0
  0
VERTEX
  5
87
330
85
100
AcDbEntity
  8
\U+30EC\U+30A4\U+30E4\U+30FC 1
 62
     7
420
 16777215
370
     9
100
AcDbVertex
100
AcDb2dVertex
 10
89.89976668759451
 20
-76.13695473356994
 30
0.0
  0
SEQEND
  5
88
330
85
100
AcDbEntity
  8
\U+30EC\U+30A4\U+30E4\U+30FC 1
370
     9
  0
POLYLINE
  5
89
330
1F
100
AcDbEntity
  8
\U+30EC\U+30A4\U+30E4\U+30FC 1
 62
     7
420
 16777215
370
     9
100
AcDb2dPolyline
 66
     1
 10
0.0
 20
0.0
 30
0.0
  0
VERTEX
  5
8A
330
89
100
AcDbEntity
  8
\U+30EC\U+30A4\U+30E4\U+30FC 1
 62
     7
420
 16777215
370
     9
100
AcDbVertex
100
AcDb2dVertex
 10
107.6213378637197
 20
-81.42173120794318
 30
0.0
  0
VERTEX
  5
8B
330
89
100
AcDbEntity
  8
\U+30EC\U+30A4\U+30E4\U+30FC 1
 62
     7
420
 16777215
370
     9
100
AcDbVertex
100
AcDb2dVertex
 10
107.6213378637197
 20
-76.13695473356994
 30
0.0
  0
SEQEND
  5
8C
330
89
100
AcDbEntity
  8
\U+30EC\U+30A4\U+30E4\U+30FC 1
370
     9
  0
POLYLINE
  5
8D
330
1F
100
AcDbEntity
  8
\U+30EC\U+30A4\U+30E4\U+30FC 1
 62
     7
420
 16777215
370
     9
100
AcDb2dPolyline
 66
     1
 10
0.0
 20
0.0
 30
0.0
  0
VERTEX
  5
8E
330
8D
100
AcDbEntity
  8
\U+30EC\U+30A4\U+30E4\U+30FC 1
 62
     7
420
 16777215
370
     9
100
AcDbVertex
100
AcDb2dVertex
 10
107.6213378637197
 20
-76.67817923430268
 30
0.0
  0
VERTEX
  5
8F
330
8D
100
AcDbEntity
  8
\U+30EC\U+30A4\U+30E4\U+30FC 1
 62
     7
420
 16777215
370
     9
100
AcDbVertex
100
AcDb2dVertex
 10
89.9231933368942
 20
-76.67817923430268
 30
0.0
  0
SEQEND
  5
90
330
8D
100
AcDbEntity
  8
\U+30EC\U+30A4\U+30E4\U+30FC 1
370
     9
  0
POLYLINE
  5
91
330
1F
100
AcDbEntity
  8
\U+30EC\U+30A4\U+30E4\U+30FC 1
 62
     7
420
 16777215
370
     9
100
AcDb2dPolyline
 66
     1
 10
0.0
 20
0.0
 30
0.0
  0
VERTEX
  5
92
330
91
100
AcDbEntity
  8
\U+30EC\U+30A4\U+30E4\U+30FC 1
 62
     7
420
 16777215
370
     9
100
AcDbVertex
100
AcDb2dVertex
 10
105.3968397088939
 20
-80.78593883614032
 30
0.0
  0
VERTEX
  5
93
330
91
100
AcDbEntity
  8
\U+30EC\U+30A4\U+30E4\U+30FC 1
 62
     7
420
 16777215
370
     9
100
AcDbVertex
100
AcDb2dVertex
 10
118.2821858428253
 20
-80.78593883614032
 30
0.0
  0
SEQEND
  5
94
330
91
100
AcDbEntity
  8
\U+30EC\U+30A4\U+30E4\U+30FC 1
370
     9
  0
POLYLINE
  5
95
330
1F
100
AcDbEntity
  8
\U+30EC\U+30A4\U+30E4\U+30FC 1
 62
     7
420
 16777215
370
     9
100
AcDb2dPolyline
 66
     1
 10
0.0
 20
0.0
 30
0.0
  0
VERTEX
  5
96
330
95
100
AcDbEntity
  8
\U+30EC\U+30A4\U+30E4\U+30FC 1
 62
     7
420
 16777215
370
     9
100
AcDbVertex
100
AcDb2dVertex
 10
104.1152641883809
 20
-107.1214545088099
 30
0.0
  0
VERTEX
  5
97
330
95
100
AcDbEntity
  8
\U+30EC\U+30A4\U+30E4\U+30FC 1
 62
     7
420
 16777215
370
     9
100
AcDbVertex
100
AcDb2dVertex
 10
118.2821858428253
 20
-107.1214545088099
 30
0.0
  0
SEQEND
  5
98
330
95
100
AcDbEntity
  8
\U+30EC\U+30A4\U+30E4\U+30FC 1
370
     9
  0
POLYLINE
  5
99
330
1F
100
AcDbEntity
  8
\U+30EC\U+30A4\U+30E4\U+30FC 1
 62
     7
420
 16777215
370
     9
100
AcDb2dPolyline
 66
     1
 10
0.0
 20
0.0
 30
0.0
  0
VERTEX
  5
9A
330
99
100
AcDbEntity
  8
\U+30EC\U+30A4\U+30E4\U+30FC 1
 62
     7
420
 16777215
370
     9
100
AcDbVertex
100
AcDb2dVertex
 10
117.7168456736958
 20
-80.82125106486413
 30
0.0
  0
VERTEX
  5
9B
330
99
100
AcDbEntity
  8
\U+30EC\U+30A4\U+30E4\U+30FC 1
 62
     7
420
 16777215
370
     9
100
AcDbVertex
100
AcDb2dVertex
 10
117.7168456736958
 20
-107.0863145348604
 30
0.0
  0
SEQEND
  5
9C
330
99
100
AcDbEntity
  8
\U+30EC\U+30A4\U+30E4\U+30FC 1
370
     9
  0
POLYLINE
  5
9D
330
1F
100
AcDbEntity
  8
\U+30EC\U+30A4\U+30E4\U+30FC 1
370
     0
100
AcDb2dPolyline
 66
     1
 10
0.0
 20
0.0
 30
0.0
  0
VERTEX
  5
9E
330
9D
100
AcDbEntity
  8
\U+30EC\U+30A4\U+30E4\U+30FC 1
370
     0
100
AcDbVertex
100
AcDb2dVertex
 10
90.91572534619469
 20
-77.0583455211
 30
0.0
  0
VERTEX
  5
9F
330
9D
100
AcDbEntity
  8
\U+30EC\U+30A4\U+30E4\U+30FC 1
370
     0
100
AcDbVertex
100
AcDb2dVertex
 10
89.9231933368942
 20
-76.6776624699799
 30
0.0
  0
VERTEX
  5
A0
330
9D
100
AcDbEntity
  8
\U+30EC\U+30A4\U+30E4\U+30FC 1
370
     0
100
AcDbVertex
100
AcDb2dVertex
 10
90.91572534619469
 20
-76.29697941885979
 30
0.0
  0
VERTEX
  5
A1
330
9D
100
AcDbEntity
  8
\U+30EC\U+30A4\U+30E4\U+30FC 1
370
     0
100
AcDbVertex
100
AcDb2dVertex
 10
90.91572534619469
 20
-77.0583455211
 30
0.0
  0
SEQEND
  5
A2
330
9D
100
AcDbEntity
  8
\U+30EC\U+30A4\U+30E4\U+30FC 1
370
     0
  0
HATCH
  5
A3
330
1F
100
AcDbEntity
  8
\U+30EC\U+30A4\U+30E4\U+30FC 1
 62
     7
420
 16777215
100
AcDbHatch
 10
0.0
 20
0.0
 30
0.0
210
0.0
220
0.0
230
1.0
  2
SOLID
 70
     1
 71
     0
 91
        1
 92
        1
 93
        3
 72
     1
 10
90.91572534619469
 20
-77.0583455211
 11
89.9231933368942
 21
-76.6776624699799
 72
     1
 10
89.9231933368942
 20
-76.6776624699799
 11
90.91572534619469
 21
-76.29697941885979
 72
     1
 10
90.91572534619469
 20
-76.29697941885979
 11
90.91572534619469
 21
-77.0583455211
 97
        0
 75
     2
 76
     1
 98
        0
  0
POLYLINE
  5
A4
330
1F
100
AcDbEntity
  8
\U+30EC\U+30A4\U+30E4\U+30FC 1
370
     0
100
AcDb2dPolyline
 66
     1
 10
0.0
 20
0.0
 30
0.0
  0
VERTEX
  5
A5
330
A4
100
AcDbEntity
  8
\U+30EC\U+30A4\U+30E4\U+30FC 1
370
     0
100
AcDbVertex
100
AcDb2dVertex
 10
106.6288058544192
 20
-76.29697941885979
 30
0.0
  0
VERTEX
  5
A6
330
A4
100
AcDbEntity
  8
\U+30EC\U+30A4\U+30E4\U+30FC 1
370
     0
100
AcDbVertex
100
AcDb2dVertex
 10
107.6213378637197
 20
-76.6776624699799
 30
0.0
  0
VERTEX
  5
A7
330
A4
100
AcDbEntity
  8
\U+30EC\U+30A4\U+30E4\U+30FC 1
370
     0
100
AcDbVertex
100
AcDb2dVertex
 10
106.6288058544192
 20
-77.0583455211
 30
0.0
  0
VERTEX
  5
A8
330
A4
100
AcDbEntity
  8
\U+30EC\U+30A4\U+30E4\U+30FC 1
370
     0
100
AcDbVertex
100
AcDb2dVertex
 10
106.6288058544192
 20
-76.29697941885979
 30
0.0
  0
SEQEND
  5
A9
330
A4
100
AcDbEntity
  8
\U+30EC\U+30A4\U+30E4\U+30FC 1
370
     0
  0
HATCH
  5
AA
330
1F
100
AcDbEntity
  8
\U+30EC\U+30A4\U+30E4\U+30FC 1
 62
     7
420
 16777215
100
AcDbHatch
 10
0.0
 20
0.0
 30
0.0
210
0.0
220
0.0
230
1.0
  2
SOLID
 70
     1
 71
     0
 91
        1
 92
        1
 93
        3
 72
     1
 10
106.6288058544192
 20
-76.29697941885979
 11
107.6213378637197
 21
-76.6776624699799
 72
     1
 10
107.6213378637197
 20
-76.6776624699799
 11
106.6288058544192
 21
-77.0583455211
 72
     1
 10
106.6288058544192
 20
-77.0583455211
 11
106.6288058544192
 21
-76.29697941885979
 97
        0
 75
     2
 76
     1
 98
        0
  0
POLYLINE
  5
AB
330
1F
100
AcDbEntity
  8
\U+30EC\U+30A4\U+30E4\U+30FC 1
370
     0
100
AcDb2dPolyline
 66
     1
 10
0.0
 20
0.0
 30
0.0
  0
VERTEX
  5
AC
330
AB
100
AcDbEntity
  8
\U+30EC\U+30A4\U+30E4\U+30FC 1
370
     0
100
AcDbVertex
100
AcDb2dVertex
 10
117.3365071321242
 20
-81.81309405506757
 30
0.0
  0
VERTEX
  5
AD
330
AB
100
AcDbEntity
  8
\U+30EC\U+30A4\U+30E4\U+30FC 1
370
     0
100
AcDbVertex
100
AcDb2dVertex
 10
117.7168456736958
 20
-80.82125106486413
 30
0.0
  0
VERTEX
  5
AE
330
AB
100
AcDbEntity
  8
\U+30EC\U+30A4\U+30E4\U+30FC 1
370
     0
100
AcDbVertex
100
AcDb2dVertex
 10
118.0978732343644
 20
-81.81309405506757
 30
0.0
  0
VERTEX
  5
AF
330
AB
100
AcDbEntity
  8
\U+30EC\U+30A4\U+30E4\U+30FC 1
370
     0
100
AcDbVertex
100
AcDb2dVertex
 10
117.3365071321242
 20
-81.81309405506757
 30
0.0
  0
SEQEND
  5
B0
330
AB
100
AcDbEntity
  8
\U+30EC\U+30A4\U+30E4\U+30FC 1
370
     0
  0
HATCH
  5
B1
330
1F
100
AcDbEntity
  8
\U+30EC\U+30A4\U+30E4\U+30FC 1
 62
     7
420
 16777215
100
AcDbHatch
 10
0.0
 20
0.0
 30
0.0
210
0.0
220
0.0
230
1.0
  2
SOLID
 70
     1
 71
     0
 91
        1
 92
        1
 93
        3
 72
     1
 10
117.3365071321242
 20
-81.81309405506757
 11
117.7168456736958
 21
-80.82125106486413
 72
     1
 10
117.7168456736958
 20
-80.82125106486413
 11
118.0978732343644
 21
-81.81309405506757
 72
     1
 10
118.0978732343644
 20
-81.81309405506757
 11
117.3365071321242
 21
-81.81309405506757
 97
        0
 75
     2
 76
     1
 98
        0
  0
POLYLINE
  5
B2
330
1F
100
AcDbEntity
  8
\U+30EC\U+30A4\U+30E4\U+30FC 1
370
     0
100
AcDb2dPolyline
 66
     1
 10
0.0
 20
0.0
 30
0.0
  0
VERTEX
  5
B3
330
B2
100
AcDbEntity
  8
\U+30EC\U+30A4\U+30E4\U+30FC 1
370
     0
100
AcDbVertex
100
AcDb2dVertex
 10
118.0985622534615
 20
-106.0941270351084
 30
0.0
  0
VERTEX
  5
B4
330
B2
100
AcDbEntity
  8
\U+30EC\U+30A4\U+30E4\U+30FC 1
370
     0
100
AcDbVertex
100
AcDb2dVertex
 10
117.7178792023414
 20
-107.0863145348604
 30
0.0
  0
VERTEX
  5
B5
330
B2
100
AcDbEntity
  8
\U+30EC\U+30A4\U+30E4\U+30FC 1
370
     0
100
AcDbVertex
100
AcDb2dVertex
 10
117.3365071321242
 20
-106.0941270351084
 30
0.0
  0
VERTEX
  5
B6
330
B2
100
AcDbEntity
  8
\U+30EC\U+30A4\U+30E4\U+30FC 1
370
     0
100
AcDbVertex
100
AcDb2dVertex
 10
118.0985622534615
 20
-106.0941270351084
 30
0.0
  0
SEQEND
  5
B7
330
B2
100
AcDbEntity
  8
\U+30EC\U+30A4\U+30E4\U+30FC 1
370
     0
  0
HATCH
  5
B8
330
1F
100
AcDbEntity
  8
\U+30EC\U+30A4\U+30E4\U+30FC 1
 62
     7
420
 16777215
100
AcDbHatch
 10
0.0
 20
0.0
 30
0.0
210
0.0
220
0.0
230
1.0
  2
SOLID
 70
     1
 71
     0
 91
        1
 92
        1
 93
        3
 72
     1
 10
118.0985622534615
 20
-106.0941270351084
 11
117.7178792023414
 21
-107.0863145348604
 72
     1
 10
117.7178792023414
 20
-107.0863145348604
 11
117.3365071321242
 21
-106.0941270351084
 72
     1
 10
117.3365071321242
 20
-106.0941270351084
 11
118.0985622534615
 21
-106.0941270351084
 97
        0
 75
     2
 76
     1
 98
        0
  0
MTEXT
  5
B9
330
1F
100
AcDbEntity
  8
\U+30EC\U+30A4\U+30E4\U+30FC 1
 62
     7
420
 16777215
100
AcDbMText
 10
94.52497963131668
 20
-75.10859373122285
 30
0.0
 40
1.4393333329735
 41
0.0
 71
     7
 72
     1
  1
\fArial|b0|i0|c0|p34;\W1;65.2(2.6)
 73
     1
 44
1.0
  0
MTEXT
  5
BA
330
1F
100
AcDbEntity
  8
\U+30EC\U+30A4\U+30E4\U+30FC 1
 62
     7
420
 16777215
100
AcDbMText
 10
116.1426092917109
 20
-98.18935544420266
 30
0.0
 40
1.4393333329735
 41
0.0
 71
     7
 72
     1
  1
\fArial|b0|i0|c0|p34;\W1;97.2(3.8)
 11
-4.371139000186241E-8
 21
0.999999999999999
 31
0.0
 73
     1
 44
1.0
  0
INSERT
  5
BC
330
1F
100
AcDbEntity
  8
\U+30EC\U+30A4\U+30E4\U+30FC 1
100
AcDbBlockReference
  2
block 7
 10
0.0
 20
0.0
 30
0.0
  0
ENDSEC
  0
SECTION
  2
OBJECTS
  0
DICTIONARY
  5
C
330
0
100
AcDbDictionary
281
     1
  3
ACAD_GROUP
350
D
  3
ACAD_LAYOUT
350
1A
  3
ACAD_MLINESTYLE
350
17
  3
ACAD_PLOTSETTINGS
350
19
  3
ACAD_PLOTSTYLENAME
350
E
  3
ACAD_TABLESTYLE
350
124
  3
ACAD_VISUALSTYLE
350
2A
  0
DICTIONARY
  5
D
102
{ACAD_REACTORS
330
C
102
}
330
C
100
AcDbDictionary
281
     1
  0
DICTIONARY
  5
1A
102
{ACAD_REACTORS
330
C
102
}
330
C
100
AcDbDictionary
281
     1
  3
Layout1
350
1E
  3
Layout2
350
26
  3
Model
350
22
  0
DICTIONARY
  5
17
102
{ACAD_REACTORS
330
C
102
}
330
C
100
AcDbDictionary
281
     1
  3
Standard
350
18
  0
DICTIONARY
  5
19
102
{ACAD_REACTORS
330
C
102
}
330
C
100
AcDbDictionary
281
     1
  0
ACDBDICTIONARYWDFLT
  5
E
102
{ACAD_REACTORS
330
C
102
}
330
C
100
AcDbDictionary
281
     1
  3
Normal
350
F
100
AcDbDictionaryWithDefault
340
F
  0
DICTIONARY
  5
124
102
{ACAD_REACTORS
330
C
102
}
330
C
100
AcDbDictionary
281
     1
  0
DICTIONARY
  5
2A
102
{ACAD_REACTORS
330
C
102
}
330
C
100
AcDbDictionary
281
     1
  3
2dWireframe
350
2F
  3
3D Hidden
350
31
  3
3dWireframe
350
30
  3
Basic
350
32
  3
Brighten
350
36
  3
ColorChange
350
3A
  3
Conceptual
350
34
  3
Dim
350
35
  3
Facepattern
350
39
  3
Flat
350
2B
  3
FlatWithEdges
350
2C
  3
Gouraud
350
2D
  3
GouraudWithEdges
350
2E
  3
Linepattern
350
38
  3
Realistic
350
33
  3
Thicken
350
37
  0
LAYOUT
  5
1E
102
{ACAD_REACTORS
330
1A
102
}
330
1A
100
AcDbPlotSettings
  1

  2
none_device
  4

  6

 40
0.0
 41
0.0
 42
0.0
 43
0.0
 44
0.0
 45
0.0
 46
0.0
 47
0.0
 48
0.0
 49
0.0
140
0.0
141
0.0
142
1.0
143
1.0
 70
   688
 72
     0
 73
     0
 74
     5
  7

 75
    16
 76
     0
 77
     2
 78
   300
147
1.0
148
0.0
149
0.0
100
AcDbLayout
  1
Layout1
 70
     1
 71
     1
 10
0.0
 20
0.0
 11
12.0
 21
9.0
 12
0.0
 22
0.0
 32
0.0
 14
1.000000000000000E+20
 24
1.000000000000000E+20
 34
1.000000000000000E+20
 15
-1.000000000000000E+20
 25
-1.000000000000000E+20
 35
-1.000000000000000E+20
146
0.0
 13
0.0
 23
0.0
 33
0.0
 16
1.0
 26
0.0
 36
0.0
 17
0.0
 27
1.0
 37
0.0
 76
     0
330
1B
  0
LAYOUT
  5
26
102
{ACAD_REACTORS
330
1A
102
}
330
1A
100
AcDbPlotSettings
  1

  2
none_device
  4

  6

 40
0.0
 41
0.0
 42
0.0
 43
0.0
 44
0.0
 45
0.0
 46
0.0
 47
0.0
 48
0.0
 49
0.0
140
0.0
141
0.0
142
1.0
143
1.0
 70
   688
 72
     0
 73
     0
 74
     5
  7

 75
    16
 76
     0
 77
     2
 78
   300
147
1.0
148
0.0
149
0.0
100
AcDbLayout
  1
Layout2
 70
     1
 71
     2
 10
0.0
 20
0.0
 11
0.0
 21
0.0
 12
0.0
 22
0.0
 32
0.0
 14
0.0
 24
0.0
 34
0.0
 15
0.0
 25
0.0
 35
0.0
146
0.0
 13
0.0
 23
0.0
 33
0.0
 16
1.0
 26
0.0
 36
0.0
 17
0.0
 27
1.0
 37
0.0
 76
     0
330
23
  0
LAYOUT
  5
22
102
{ACAD_REACTORS
330
1A
102
}
330
1A
100
AcDbPlotSettings
  1

  2
none_device
  4

  6

 40
0.0
 41
0.0
 42
0.0
 43
0.0
 44
0.0
 45
0.0
 46
0.0
 47
0.0
 48
0.0
 49
0.0
140
0.0
141
0.0
142
1.0
143
1.0
 70
  1712
 72
     0
 73
     0
 74
     0
  7

 75
     0
 76
     0
 77
     2
 78
   300
147
1.0
148
0.0
149
0.0
100
AcDbLayout
  1
Model
 70
     1
 71
     0
 10
0.0
 20
0.0
 11
12.0
 21
9.0
 12
0.0
 22
0.0
 32
0.0
 14
1.000000000000000E+20
 24
1.000000000000000E+20
 34
1.000000000000000E+20
 15
-1.000000000000000E+20
 25
-1.000000000000000E+20
 35
-1.000000000000000E+20
146
0.0
 13
0.0
 23
0.0
 33
0.0
 16
1.0
 26
0.0
 36
0.0
 17
0.0
 27
1.0
 37
0.0
 76
     0
330
1F
331
29
  0
MLINESTYLE
  5
18
102
{ACAD_REACTORS
330
17
102
}
330
17
100
AcDbMlineStyle
  2
Standard
 70
     0
  3

 62
   256
 51
90.0
 52
90.0
 71
     2
 49
0.5
 62
   256
  6
BYLAYER
 49
-0.5
 62
   256
  6
BYLAYER
  0
ACDBPLACEHOLDER
  5
F
102
{ACAD_REACTORS
330
E
102
}
330
E
  0
VISUALSTYLE
  5
2F
102
{ACAD_REACTORS
330
2A
102
}
330
2A
100
AcDbVisualStyle
  2
2dWireframe
 70
     4
 71
     0
 72
     2
 73
     0
 90
        0
 40
-0.6
 41
-30.0
 62
     5
 63
     7
421
 16777215
 74
     1
 91
        4
 64
     7
 65
   257
 75
     1
175
     1
 42
1.0
 92
        0
 66
   257
 43
1.0
 76
     1
 77
     6
 78
     2
 67
     7
 79
     5
170
     0
171
     0
290
     0
174
     0
 93
        1
 44
0.0
173
     0
291
     0
 45
0.0
1001
ACAD
1000
AcDbSavedByObjectVersion
1070
     0
  0
VISUALSTYLE
  5
31
102
{ACAD_REACTORS
330
2A
102
}
330
2A
100
AcDbVisualStyle
  2
3D Hidden
 70
     6
 71
     1
 72
     2
 73
     2
 90
        0
 40
-0.6
 41
-30.0
 62
     5
 63
     7
421
 16777215
 74
     2
 91
        2
 64
     7
 65
   257
 75
     2
175
     1
 42
40.0
 92
        0
 66
   257
 43
1.0
 76
     1
 77
     6
 78
     2
 67
     7
 79
     3
170
     0
171
     0
290
     0
174
     0
 93
        1
 44
0.0
173
     0
291
     0
 45
0.0
1001
ACAD
1000
AcDbSavedByObjectVersion
1070
     0
  0
VISUALSTYLE
  5
30
102
{ACAD_REACTORS
330
2A
102
}
330
2A
100
AcDbVisualStyle
  2
3dWireframe
 70
     5
 71
     0
 72
     2
 73
     0
 90
        0
 40
-0.6
 41
-30.0
 62
     5
 63
     7
421
 16777215
 74
     1
 91
        4
 64
     7
 65
   257
 75
     1
175
     1
 42
1.0
 92
        0
 66
   257
 43
1.0
 76
     1
 77
     6
 78
     2
 67
     7
 79
     5
170
     0
171
     0
290
     0
174
     0
 93
        1
 44
0.0
173
     0
291
     0
 45
0.0
1001
ACAD
1000
AcDbSavedByObjectVersion
1070
     0
  0
VISUALSTYLE
  5
32
102
{ACAD_REACTORS
330
2A
102
}
330
2A
100
AcDbVisualStyle
  2
Basic
 70
     7
 71
     1
 72
     0
 73
     1
 90
        0
 40
-0.6
 41
-30.0
 62
     5
 63
     7
421
 16777215
 74
     0
 91
        4
 64
     7
 65
   257
 75
     1
175
     1
 42
1.0
 92
        8
 66
     7
 43
1.0
 76
     1
 77
     6
 78
     2
 67
     7
 79
     5
170
     0
171
     0
290
     0
174
     0
 93
        1
 44
0.0
173
     0
291
     1
 45
0.0
1001
ACAD
1000
AcDbSavedByObjectVersion
1070
     0
  0
VISUALSTYLE
  5
36
102
{ACAD_REACTORS
330
2A
102
}
330
2A
100
AcDbVisualStyle
  2
Brighten
 70
    12
 71
     2
 72
     2
 73
     0
 90
        0
 40
-0.6
 41
-30.0
 62
     5
 63
     7
421
 16777215
 74
     1
 91
        4
 64
     7
 65
   257
 75
     1
175
     1
 42
1.0
 92
        8
 66
     7
 43
1.0
 76
     1
 77
     6
 78
     2
 67
     7
 79
     5
170
     0
171
     0
290
     0
174
     0
 93
        1
 44
50.0
173
     0
291
     1
 45
0.0
1001
ACAD
1000
AcDbSavedByObjectVersion
1070
     0
  0
VISUALSTYLE
  5
3A
102
{ACAD_REACTORS
330
2A
102
}
330
2A
100
AcDbVisualStyle
  2
ColorChange
 70
    16
 71
     2
 72
     2
 73
     3
 90
        0
 40
-0.6
 41
-30.0
 62
     5
 63
     8
421
  8421504
 74
     1
 91
        4
 64
     7
 65
   257
 75
     1
175
     1
 42
1.0
 92
        8
 66
     8
424
  8421504
 43
1.0
 76
     1
 77
     6
 78
     2
 67
     7
 79
     5
170
     0
171
     0
290
     0
174
     0
 93
        1
 44
0.0
173
     0
291
     1
 45
0.0
1001
ACAD
1000
AcDbSavedByObjectVersion
1070
     0
  0
VISUALSTYLE
  5
34
102
{ACAD_REACTORS
330
2A
102
}
330
2A
100
AcDbVisualStyle
  2
Conceptual
 70
     9
 71
     3
 72
     2
 73
     0
 90
        0
 40
-0.6
 41
-30.0
 62
     5
 63
     7
421
 16777215
 74
     2
 91
        2
 64
     7
 65
   257
 75
     1
175
     1
 42
40.0
 92
        8
 66
     7
 43
1.0
 76
     1
 77
     6
 78
     2
 67
     7
 79
     3
170
     0
171
     0
290
     0
174
     0
 93
        1
 44
0.0
173
     0
291
     0
 45
0.0
1001
ACAD
1000
AcDbSavedByObjectVersion
1070
     0
  0
VISUALSTYLE
  5
35
102
{ACAD_REACTORS
330
2A
102
}
330
2A
100
AcDbVisualStyle
  2
Dim
 70
    11
 71
     2
 72
     2
 73
     0
 90
        0
 40
-0.6
 41
-30.0
 62
     5
 63
     7
421
 16777215
 74
     1
 91
        4
 64
     7
 65
   257
 75
     1
175
     1
 42
1.0
 92
        8
 66
     7
 43
1.0
 76
     1
 77
     6
 78
     2
 67
     7
 79
     5
170
     0
171
     0
290
     0
174
     0
 93
        1
 44
-50.0
173
     0
291
     1
 45
0.0
1001
ACAD
1000
AcDbSavedByObjectVersion
1070
     0
  0
VISUALSTYLE
  5
39
102
{ACAD_REACTORS
330
2A
102
}
330
2A
100
AcDbVisualStyle
  2
Facepattern
 70
    15
 71
     2
 72
     2
 73
     0
 90
        0
 40
-0.6
 41
-30.0
 62
     5
 63
     7
421
 16777215
 74
     1
 91
        4
 64
     7
 65
   257
 75
     1
175
     1
 42
1.0
 92
        8
 66
     7
 43
1.0
 76
     1
 77
     6
 78
     2
 67
     7
 79
     5
170
     0
171
     0
290
     0
174
     0
 93
        1
 44
0.0
173
     0
291
     1
 45
0.0
1001
ACAD
1000
AcDbSavedByObjectVersion
1070
     0
  0
VISUALSTYLE
  5
2B
102
{ACAD_REACTORS
330
2A
102
}
330
2A
100
AcDbVisualStyle
  2
Flat
 70
     0
 71
     2
 72
     1
 73
     1
 90
        2
 40
-0.6
 41
30.0
 62
     5
 63
     7
421
 16777215
 74
     0
 91
        4
 64
     7
 65
   257
 75
     1
175
     1
 42
1.0
 92
        8
 66
     7
 43
1.0
 76
     1
 77
     6
 78
     2
 67
     7
 79
     5
170
     0
171
     0
290
     0
174
     0
 93
       13
 44
0.0
173
     0
291
     1
 45
0.0
1001
ACAD
1000
AcDbSavedByObjectVersion
1070
     0
  0
VISUALSTYLE
  5
2C
102
{ACAD_REACTORS
330
2A
102
}
330
2A
100
AcDbVisualStyle
  2
FlatWithEdges
 70
     1
 71
     2
 72
     1
 73
     1
 90
        2
 40
-0.6
 41
30.0
 62
     5
 63
     7
421
 16777215
 74
     1
 91
        4
 64
     7
 65
   257
 75
     1
175
     1
 42
1.0
 92
        0
 66
   257
 43
1.0
 76
     1
 77
     6
 78
     2
 67
     7
 79
     5
170
     0
171
     0
290
     0
174
     0
 93
       13
 44
0.0
173
     0
291
     1
 45
0.0
1001
ACAD
1000
AcDbSavedByObjectVersion
1070
     0
  0
VISUALSTYLE
  5
2D
102
{ACAD_REACTORS
330
2A
102
}
330
2A
100
AcDbVisualStyle
  2
Gouraud
 70
     2
 71
     2
 72
     2
 73
     1
 90
        2
 40
-0.6
 41
30.0
 62
     5
 63
     7
421
 16777215
 74
     0
 91
        4
 64
     7
 65
   257
 75
     1
175
     1
 42
1.0
 92
        0
 66
     7
 43
1.0
 76
     1
 77
     6
 78
     2
 67
     7
 79
     5
170
     0
171
     0
290
     0
174
     0
 93
       13
 44
0.0
173
     0
291
     1
 45
0.0
1001
ACAD
1000
AcDbSavedByObjectVersion
1070
     0
  0
VISUALSTYLE
  5
2E
102
{ACAD_REACTORS
330
2A
102
}
330
2A
100
AcDbVisualStyle
  2
GouraudWithEdges
 70
     3
 71
     2
 72
     2
 73
     1
 90
        2
 40
-0.6
 41
30.0
 62
     5
 63
     7
421
 16777215
 74
     1
 91
        4
 64
     7
 65
   257
 75
     1
175
     1
 42
1.0
 92
        0
 66
   257
 43
1.0
 76
     1
 77
     6
 78
     2
 67
     7
 79
     5
170
     0
171
     0
290
     0
174
     0
 93
       13
 44
0.0
173
     0
291
     1
 45
0.0
1001
ACAD
1000
AcDbSavedByObjectVersion
1070
     0
  0
VISUALSTYLE
  5
38
102
{ACAD_REACTORS
330
2A
102
}
330
2A
100
AcDbVisualStyle
  2
Linepattern
 70
    14
 71
     2
 72
     2
 73
     0
 90
        0
 40
-0.6
 41
-30.0
 62
     5
 63
     7
421
 16777215
 74
     1
 91
        4
 64
     7
 65
   257
 75
     7
175
     7
 42
1.0
 92
        8
 66
     7
 43
1.0
 76
     1
 77
     6
 78
     2
 67
     7
 79
     5
170
     0
171
     0
290
     0
174
     0
 93
        1
 44
0.0
173
     0
291
     1
 45
0.0
1001
ACAD
1000
AcDbSavedByObjectVersion
1070
     0
  0
VISUALSTYLE
  5
33
102
{ACAD_REACTORS
330
2A
102
}
330
2A
100
AcDbVisualStyle
  2
Realistic
 70
     8
 71
     2
 72
     2
 73
     0
 90
        0
 40
-0.6
 41
-30.0
 62
     5
 63
     7
421
 16777215
 74
     1
 91
        0
 64
     7
 65
   257
 75
     1
175
     1
 42
1.0
 92
        8
 66
     8
424
  7895160
 43
1.0
 76
     1
 77
     6
 78
     2
 67
     7
 79
     5
170
     0
171
     0
290
     0
174
     0
 93
       13
 44
0.0
173
     0
291
     0
 45
0.0
1001
ACAD
1000
AcDbSavedByObjectVersion
1070
     0
  0
VISUALSTYLE
  5
37
102
{ACAD_REACTORS
330
2A
102
}
330
2A
100
AcDbVisualStyle
  2
Thicken
 70
    13
 71
     2
 72
     2
 73
     0
 90
        0
 40
-0.6
 41
-30.0
 62
     5
 63
     7
421
 16777215
 74
     1
 91
        4
 64
     7
 65
   257
 75
     1
175
     1
 42
1.0
 92
       12
 66
     7
 43
1.0
 76
     1
 77
     6
 78
     2
 67
     7
 79
     5
170
     0
171
     0
290
     0
174
     0
 93
        1
 44
0.0
173
     0
291
     1
 45
0.0
1001
ACAD
1000
AcDbSavedByObjectVersion
1070
     0
  0
ENDSEC
  0
EOF
