  0
SECTION
  2
HEADER
  9
$ACADVER
  1
AC1018
  9
$ACADMAINTVER
 70
     0
  9
$DWGCODEPAGE
  3
ANSI_932
  9
$INSBASE
 10
0.0
 20
0.0
 30
0.0
  9
$EXTMIN
 10
1.000000000000000E+20
 20
1.000000000000000E+20
 30
1.000000000000000E+20
  9
$EXTMAX
 10
-1.000000000000000E+20
 20
-1.000000000000000E+20
 30
-1.000000000000000E+20
  9
$LIMMIN
 10
0.0
 20
0.0
  9
$LIMMAX
 10
12.0
 20
9.0
  9
$ORTHOMODE
 70
     0
  9
$REGENMODE
 70
     1
  9
$FILLMODE
 70
     1
  9
$QTEXTMODE
 70
     0
  9
$MIRRTEXT
 70
     1
  9
$LTSCALE
 40
1.0
  9
$ATTMODE
 70
     1
  9
$TEXTSIZE
 40
0.2
  9
$TRACEWID
 40
0.05
  9
$TEXTSTYLE
  7
Standard
  9
$CLAYER
  8
0
  9
$CELTYPE
  6
ByLayer
  9
$CECOLOR
 62
   256
  9
$CELTSCALE
 40
1.0
  9
$DISPSILH
 70
     0
  9
$DIMSCALE
 40
1.0
  9
$DIMASZ
 40
0.18
  9
$DIMEXO
 40
0.0625
  9
$DIMDLI
 40
0.38
  9
$DIMRND
 40
0.0
  9
$DIMDLE
 40
0.0
  9
$DIMEXE
 40
0.18
  9
$DIMTP
 40
0.0
  9
$DIMTM
 40
0.0
  9
$DIMTXT
 40
0.18
  9
$DIMCEN
 40
0.09
  9
$DIMTSZ
 40
0.0
  9
$DIMTOL
 70
     0
  9
$DIMLIM
 70
     0
  9
$DIMTIH
 70
     1
  9
$DIMTOH
 70
     1
  9
$DIMSE1
 70
     0
  9
$DIMSE2
 70
     0
  9
$DIMTAD
 70
     0
  9
$DIMZIN
 70
     0
  9
$DIMBLK
  1

  9
$DIMASO
 70
     1
  9
$DIMSHO
 70
     1
  9
$DIMPOST
  1

  9
$DIMAPOST
  1

  9
$DIMALT
 70
     0
  9
$DIMALTD
 70
     2
  9
$DIMALTF
 40
25.4
  9
$DIMLFAC
 40
1.0
  9
$DIMTOFL
 70
     0
  9
$DIMTVP
 40
0.0
  9
$DIMTIX
 70
     0
  9
$DIMSOXD
 70
     0
  9
$DIMSAH
 70
     0
  9
$DIMBLK1
  1

  9
$DIMBLK2
  1

  9
$DIMSTYLE
  2
Standard
  9
$DIMCLRD
 70
     0
  9
$DIMCLRE
 70
     0
  9
$DIMCLRT
 70
     0
  9
$DIMTFAC
 40
1.0
  9
$DIMGAP
 40
0.09
  9
$DIMJUST
 70
     0
  9
$DIMSD1
 70
     0
  9
$DIMSD2
 70
     0
  9
$DIMTOLJ
 70
     1
  9
$DIMTZIN
 70
     0
  9
$DIMALTZ
 70
     0
  9
$DIMALTTZ
 70
     0
  9
$DIMUPT
 70
     0
  9
$DIMDEC
 70
     4
  9
$DIMTDEC
 70
     4
  9
$DIMALTU
 70
     2
  9
$DIMALTTD
 70
     2
  9
$DIMTXSTY
  7
Standard
  9
$DIMAUNIT
 70
     0
  9
$DIMADEC
 70
     0
  9
$DIMALTRND
 40
0.0
  9
$DIMAZIN
 70
     0
  9
$DIMDSEP
 70
    46
  9
$DIMATFIT
 70
     3
  9
$DIMFRAC
 70
     0
  9
$DIMLDRBLK
  1

  9
$DIMLUNIT
 70
     2
  9
$DIMLWD
 70
    -2
  9
$DIMLWE
 70
    -2
  9
$DIMTMOVE
 70
     0
  9
$LUNITS
 70
     2
  9
$LUPREC
 70
     4
  9
$SKETCHINC
 40
0.1
  9
$FILLETRAD
 40
0.5
  9
$AUNITS
 70
     0
  9
$AUPREC
 70
     0
  9
$MENU
  1
.
  9
$ELEVATION
 40
0.0
  9
$PELEVATION
 40
0.0
  9
$THICKNESS
 40
0.0
  9
$LIMCHECK
 70
     0
  9
$CHAMFERA
 40
0.5
  9
$CHAMFERB
 40
0.5
  9
$CHAMFERC
 40
1.0
  9
$CHAMFERD
 40
0.0
  9
$SKPOLY
 70
     0
  9
$TDCREATE
 40
2459235.435223727
  9
$TDUCREATE
 40
2459235.060223727
  9
$TDUPDATE
 40
2459235.435223738
  9
$TDUUPDATE
 40
2459235.060223738
  9
$TDINDWG
 40
0.0000000116
  9
$TDUSRTIMER
 40
0.0000000116
  9
$USRTIMER
 70
     1
  9
$ANGBASE
 50
0.0
  9
$ANGDIR
 70
     0
  9
$PDMODE
 70
     0
  9
$PDSIZE
 40
0.0
  9
$PLINEWID
 40
0.0
  9
$SPLFRAME
 70
     0
  9
$SPLINETYPE
 70
     6
  9
$SPLINESEGS
 70
     8
  9
$HANDSEED
  5
46B
  9
$SURFTAB1
 70
     6
  9
$SURFTAB2
 70
     6
  9
$SURFTYPE
 70
     6
  9
$SURFU
 70
     6
  9
$SURFV
 70
     6
  9
$UCSBASE
  2

  9
$UCSNAME
  2

  9
$UCSORG
 10
0.0
 20
0.0
 30
0.0
  9
$UCSXDIR
 10
1.0
 20
0.0
 30
0.0
  9
$UCSYDIR
 10
0.0
 20
1.0
 30
0.0
  9
$UCSORTHOREF
  2

  9
$UCSORTHOVIEW
 70
     0
  9
$UCSORGTOP
 10
0.0
 20
0.0
 30
0.0
  9
$UCSORGBOTTOM
 10
0.0
 20
0.0
 30
0.0
  9
$UCSORGLEFT
 10
0.0
 20
0.0
 30
0.0
  9
$UCSORGRIGHT
 10
0.0
 20
0.0
 30
0.0
  9
$UCSORGFRONT
 10
0.0
 20
0.0
 30
0.0
  9
$UCSORGBACK
 10
0.0
 20
0.0
 30
0.0
  9
$PUCSBASE
  2

  9
$PUCSNAME
  2

  9
$PUCSORG
 10
0.0
 20
0.0
 30
0.0
  9
$PUCSXDIR
 10
1.0
 20
0.0
 30
0.0
  9
$PUCSYDIR
 10
0.0
 20
1.0
 30
0.0
  9
$PUCSORTHOREF
  2

  9
$PUCSORTHOVIEW
 70
     0
  9
$PUCSORGTOP
 10
0.0
 20
0.0
 30
0.0
  9
$PUCSORGBOTTOM
 10
0.0
 20
0.0
 30
0.0
  9
$PUCSORGLEFT
 10
0.0
 20
0.0
 30
0.0
  9
$PUCSORGRIGHT
 10
0.0
 20
0.0
 30
0.0
  9
$PUCSORGFRONT
 10
0.0
 20
0.0
 30
0.0
  9
$PUCSORGBACK
 10
0.0
 20
0.0
 30
0.0
  9
$USERI1
 70
     0
  9
$USERI2
 70
     0
  9
$USERI3
 70
     0
  9
$USERI4
 70
     0
  9
$USERI5
 70
     0
  9
$USERR1
 40
0.0
  9
$USERR2
 40
0.0
  9
$USERR3
 40
0.0
  9
$USERR4
 40
0.0
  9
$USERR5
 40
0.0
  9
$WORLDVIEW
 70
     1
  9
$SHADEDGE
 70
     3
  9
$SHADEDIF
 70
    70
  9
$TILEMODE
 70
     1
  9
$MAXACTVP
 70
    64
  9
$PINSBASE
 10
0.0
 20
0.0
 30
0.0
  9
$PLIMCHECK
 70
     0
  9
$PEXTMIN
 10
1.000000000000000E+20
 20
1.000000000000000E+20
 30
1.000000000000000E+20
  9
$PEXTMAX
 10
-1.000000000000000E+20
 20
-1.000000000000000E+20
 30
-1.000000000000000E+20
  9
$PLIMMIN
 10
0.0
 20
0.0
  9
$PLIMMAX
 10
12.0
 20
9.0
  9
$UNITMODE
 70
     0
  9
$VISRETAIN
 70
     1
  9
$PLINEGEN
 70
     0
  9
$PSLTSCALE
 70
     1
  9
$TREEDEPTH
 70
  3020
  9
$CMLSTYLE
  2
Standard
  9
$CMLJUST
 70
     0
  9
$CMLSCALE
 40
1.0
  9
$PROXYGRAPHICS
 70
     1
  9
$MEASUREMENT
 70
     0
  9
$CELWEIGHT
370
    -1
  9
$ENDCAPS
280
     0
  9
$JOINSTYLE
280
     0
  9
$LWDISPLAY
290
     1
  9
$INSUNITS
 70
     1
  9
$HYPERLINKBASE
  1

  9
$STYLESHEET
  1

  9
$XEDIT
290
     1
  9
$CEPSNTYPE
380
     0
  9
$PSTYLEMODE
290
     1
  9
$FINGERPRINTGUID
  2
{50E76793-F56C-41A3-A538-09C50567F63E}
  9
$VERSIONGUID
  2
{FAEB1C32-E019-11D5-929B-00C0DF256EC4}
  9
$EXTNAMES
290
     1
  9
$PSVPSCALE
 40
0.0
  9
$OLESTARTUP
290
     0
  9
$SORTENTS
280
   127
  9
$INDEXCTL
280
     0
  9
$HIDETEXT
280
     1
  9
$XCLIPFRAME
290
     0
  9
$HALOGAP
280
     0
  9
$OBSCOLOR
 70
   257
  9
$OBSLTYPE
280
     0
  9
$INTERSECTIONDISPLAY
280
     0
  9
$INTERSECTIONCOLOR
 70
   257
  9
$DIMASSOC
280
     2
  9
$PROJECTNAME
  1

  0
ENDSEC
  0
SECTION
  2
CLASSES
  0
CLASS
  1
ACDBDICTIONARYWDFLT
  2
AcDbDictionaryWithDefault
  3
ObjectDBX Classes
 90
        0
 91
        3
280
     0
281
     0
  0
CLASS
  1
VISUALSTYLE
  2
AcDbVisualStyle
  3
ObjectDBX Classes
 90
     4095
 91
        3
280
     0
281
     0
  0
ENDSEC
  0
SECTION
  2
TABLES
  0
TABLE
  2
VPORT
  5
8
330
0
100
AcDbSymbolTable
 70
     1
  0
VPORT
  5
29
330
8
100
AcDbSymbolTableRecord
100
AcDbViewportTableRecord
  2
*Active
 70
     0
 10
0.0
 20
0.0
 11
1.0
 21
1.0
 12
0.0
 22
0.0
 13
0.0
 23
0.0
 14
0.5
 24
0.5
 15
0.5
 25
0.5
 16
0.0
 26
0.0
 36
1.0
 17
148.4999796178229
 27
-105.0008259828644
 37
0.0
 40
210.0016519657288
 41
1.414274394775308
 42
50.0
 43
0.0
 44
0.0
 50
0.0
 51
0.0
 71
     0
 72
   100
 73
     1
 74
     3
 75
     0
 76
     0
 77
     0
 78
     0
281
     0
 65
     1
110
0.0
120
0.0
130
0.0
111
1.0
121
0.0
131
0.0
112
0.0
122
1.0
132
0.0
 79
     0
146
0.0
  0
ENDTAB
  0
TABLE
  2
LTYPE
  5
5
330
0
100
AcDbSymbolTable
 70
     1
  0
LTYPE
  5
14
330
5
100
AcDbSymbolTableRecord
100
AcDbLinetypeTableRecord
  2
ByBlock
 70
     0
  3

 72
    65
 73
     0
 40
0.0
  0
LTYPE
  5
15
330
5
100
AcDbSymbolTableRecord
100
AcDbLinetypeTableRecord
  2
ByLayer
 70
     0
  3

 72
    65
 73
     0
 40
0.0
  0
LTYPE
  5
16
330
5
100
AcDbSymbolTableRecord
100
AcDbLinetypeTableRecord
  2
Continuous
 70
     0
  3
Solid line
 72
    65
 73
     0
 40
0.0
  0
ENDTAB
  0
TABLE
  2
LAYER
  5
2
330
0
100
AcDbSymbolTable
 70
     2
  0
LAYER
  5
10
330
2
100
AcDbSymbolTableRecord
100
AcDbLayerTableRecord
  2
0
 70
     0
 62
     7
  6
Continuous
370
    -3
390
F
  0
LAYER
  5
3B
330
2
100
AcDbSymbolTableRecord
100
AcDbLayerTableRecord
  2
\U+30EC\U+30A4\U+30E4\U+30FC 1
 70
     0
 62
     7
  6
Continuous
370
    -3
390
F
  0
ENDTAB
  0
TABLE
  2
STYLE
  5
3
330
0
100
AcDbSymbolTable
 70
     1
  0
STYLE
  5
11
330
3
100
AcDbSymbolTableRecord
100
AcDbTextStyleTableRecord
  2
Standard
 70
     0
 40
0.0
 41
1.0
 50
0.0
 71
     0
 42
0.2
  3
txt
  4

  0
ENDTAB
  0
TABLE
  2
VIEW
  5
6
330
0
100
AcDbSymbolTable
 70
     0
  0
ENDTAB
  0
TABLE
  2
UCS
  5
7
330
0
100
AcDbSymbolTable
 70
     0
  0
ENDTAB
  0
TABLE
  2
APPID
  5
9
330
0
100
AcDbSymbolTable
 70
     1
  0
APPID
  5
12
330
9
100
AcDbSymbolTableRecord
100
AcDbRegAppTableRecord
  2
ACAD
 70
     0
  0
ENDTAB
  0
TABLE
  2
DIMSTYLE
  5
A
330
0
100
AcDbSymbolTable
 70
     1
100
AcDbDimStyleTable
  0
DIMSTYLE
105
27
330
A
100
AcDbSymbolTableRecord
100
AcDbDimStyleTableRecord
  2
Standard
 70
     0
340
11
  0
ENDTAB
  0
TABLE
  2
BLOCK_RECORD
  5
1
330
0
100
AcDbSymbolTable
 70
     1
  0
BLOCK_RECORD
  5
1F
330
1
100
AcDbSymbolTableRecord
100
AcDbBlockTableRecord
  2
*Model_Space
340
22
  0
BLOCK_RECORD
  5
1B
330
1
100
AcDbSymbolTableRecord
100
AcDbBlockTableRecord
  2
*Paper_Space
340
1E
  0
BLOCK_RECORD
  5
23
330
1
100
AcDbSymbolTableRecord
100
AcDbBlockTableRecord
  2
*Paper_Space0
340
26
  0
ENDTAB
  0
ENDSEC
  0
SECTION
  2
BLOCKS
  0
BLOCK
  5
20
330
1F
100
AcDbEntity
  8
0
100
AcDbBlockBegin
  2
*Model_Space
 70
     0
 71
     0
 10
0.0
 20
0.0
 30
0.0
  3
*Model_Space
  1

  0
ENDBLK
  5
21
330
1F
100
AcDbEntity
  8
0
100
AcDbBlockEnd
  0
BLOCK
  5
1C
330
1B
100
AcDbEntity
 67
     1
  8
0
100
AcDbBlockBegin
  2
*Paper_Space
 70
     0
 71
     0
 10
0.0
 20
0.0
 30
0.0
  3
*Paper_Space
  1

  0
ENDBLK
  5
1D
330
1B
100
AcDbEntity
 67
     1
  8
0
100
AcDbBlockEnd
  0
BLOCK
  5
24
330
23
100
AcDbEntity
  8
0
100
AcDbBlockBegin
  2
*Paper_Space0
 70
     0
 71
     0
 10
0.0
 20
0.0
 30
0.0
  3
*Paper_Space0
  1

  0
ENDBLK
  5
25
330
23
100
AcDbEntity
  8
0
100
AcDbBlockEnd
  0
ENDSEC
  0
SECTION
  2
ENTITIES
  0
POLYLINE
  5
3C
330
1F
100
AcDbEntity
  8
\U+30EC\U+30A4\U+30E4\U+30FC 1
 62
    18
420
   196608
370
    18
100
AcDb2dPolyline
 66
     1
 10
0.0
 20
0.0
 30
0.0
  0
VERTEX
  5
3D
330
3C
100
AcDbEntity
  8
\U+30EC\U+30A4\U+30E4\U+30FC 1
 62
    18
420
   196608
370
    18
100
AcDbVertex
100
AcDb2dVertex
 10
51.06578910398703
 20
-105.1584391013146
 30
0.0
  0
VERTEX
  5
3E
330
3C
100
AcDbEntity
  8
\U+30EC\U+30A4\U+30E4\U+30FC 1
 62
    18
420
   196608
370
    18
100
AcDbVertex
100
AcDb2dVertex
 10
51.06578910398703
 20
-98.99895288323637
 30
0.0
  0
SEQEND
  5
3F
330
3C
100
AcDbEntity
  8
\U+30EC\U+30A4\U+30E4\U+30FC 1
370
    18
  0
POLYLINE
  5
40
330
1F
100
AcDbEntity
  8
\U+30EC\U+30A4\U+30E4\U+30FC 1
 62
    18
420
   196608
370
    18
100
AcDb2dPolyline
 66
     1
 10
0.0
 20
0.0
 30
0.0
  0
VERTEX
  5
41
330
40
100
AcDbEntity
  8
\U+30EC\U+30A4\U+30E4\U+30FC 1
 62
    18
420
   196608
370
    18
100
AcDbVertex
100
AcDb2dVertex
 10
148.2483153926254
 20
-105.1584391013146
 30
0.0
  0
VERTEX
  5
42
330
40
100
AcDbEntity
  8
\U+30EC\U+30A4\U+30E4\U+30FC 1
 62
    18
420
   196608
370
    18
100
AcDbVertex
100
AcDb2dVertex
 10
148.2483153926254
 20
-98.99895288323637
 30
0.0
  0
SEQEND
  5
43
330
40
100
AcDbEntity
  8
\U+30EC\U+30A4\U+30E4\U+30FC 1
370
    18
  0
POLYLINE
  5
44
330
1F
100
AcDbEntity
  8
\U+30EC\U+30A4\U+30E4\U+30FC 1
 62
    18
420
   196608
370
    18
100
AcDb2dPolyline
 66
     1
 10
0.0
 20
0.0
 30
0.0
  0
VERTEX
  5
45
330
44
100
AcDbEntity
  8
\U+30EC\U+30A4\U+30E4\U+30FC 1
 62
    18
420
   196608
370
    18
100
AcDbVertex
100
AcDb2dVertex
 10
146.3125162394635
 20
-101.5211072879878
 30
0.0
  0
VERTEX
  5
46
330
44
100
AcDbEntity
  8
\U+30EC\U+30A4\U+30E4\U+30FC 1
 62
    18
420
   196608
370
    18
100
AcDbVertex
100
AcDb2dVertex
 10
148.2483153926254
 20
-101.0026204174577
 30
0.0
  0
VERTEX
  5
47
330
44
100
AcDbEntity
  8
\U+30EC\U+30A4\U+30E4\U+30FC 1
 62
    18
420
   196608
370
    18
100
AcDbVertex
100
AcDb2dVertex
 10
146.3125162394635
 20
-100.4841335469276
 30
0.0
  0
SEQEND
  5
48
330
44
100
AcDbEntity
  8
\U+30EC\U+30A4\U+30E4\U+30FC 1
370
    18
  0
POLYLINE
  5
49
330
1F
100
AcDbEntity
  8
\U+30EC\U+30A4\U+30E4\U+30FC 1
 62
    18
420
   196608
370
    18
100
AcDb2dPolyline
 66
     1
 10
0.0
 20
0.0
 30
0.0
  0
VERTEX
  5
4A
330
49
100
AcDbEntity
  8
\U+30EC\U+30A4\U+30E4\U+30FC 1
 62
    18
420
   196608
370
    18
100
AcDbVertex
100
AcDb2dVertex
 10
53.00124374760038
 20
-100.4841335469276
 30
0.0
  0
VERTEX
  5
4B
330
49
100
AcDbEntity
  8
\U+30EC\U+30A4\U+30E4\U+30FC 1
 62
    18
420
   196608
370
    18
100
AcDbVertex
100
AcDb2dVertex
 10
51.06578910398703
 20
-101.0026204174577
 30
0.0
  0
VERTEX
  5
4C
330
49
100
AcDbEntity
  8
\U+30EC\U+30A4\U+30E4\U+30FC 1
 62
    18
420
   196608
370
    18
100
AcDbVertex
100
AcDb2dVertex
 10
53.00124374760038
 20
-101.5211072879878
 30
0.0
  0
SEQEND
  5
4D
330
49
100
AcDbEntity
  8
\U+30EC\U+30A4\U+30E4\U+30FC 1
370
    18
  0
POLYLINE
  5
4E
330
1F
100
AcDbEntity
  8
\U+30EC\U+30A4\U+30E4\U+30FC 1
 62
    18
420
   196608
370
    18
100
AcDb2dPolyline
 66
     1
 10
0.0
 20
0.0
 30
0.0
  0
VERTEX
  5
4F
330
4E
100
AcDbEntity
  8
\U+30EC\U+30A4\U+30E4\U+30FC 1
 62
    18
420
   196608
370
    18
100
AcDbVertex
100
AcDb2dVertex
 10
51.06578910398703
 20
-101.0026204174577
 30
0.0
  0
VERTEX
  5
50
330
4E
100
AcDbEntity
  8
\U+30EC\U+30A4\U+30E4\U+30FC 1
 62
    18
420
   196608
370
    18
100
AcDbVertex
100
AcDb2dVertex
 10
148.2483153926254
 20
-101.0026204174577
 30
0.0
  0
SEQEND
  5
51
330
4E
100
AcDbEntity
  8
\U+30EC\U+30A4\U+30E4\U+30FC 1
370
    18
  0
POLYLINE
  5
52
330
1F
100
AcDbEntity
  8
\U+30EC\U+30A4\U+30E4\U+30FC 1
 62
    18
420
   196608
370
    18
100
AcDb2dPolyline
 66
     1
 10
0.0
 20
0.0
 30
0.0
  0
VERTEX
  5
53
330
52
100
AcDbEntity
  8
\U+30EC\U+30A4\U+30E4\U+30FC 1
 62
    18
420
   196608
370
    18
100
AcDbVertex
100
AcDb2dVertex
 10
50.06378308210211
 20
-134.2136854048146
 30
0.0
  0
VERTEX
  5
54
330
52
100
AcDbEntity
  8
\U+30EC\U+30A4\U+30E4\U+30FC 1
 62
    18
420
   196608
370
    18
100
AcDbVertex
100
AcDb2dVertex
 10
42.14747042132078
 20
-134.2136854048146
 30
0.0
  0
SEQEND
  5
55
330
52
100
AcDbEntity
  8
\U+30EC\U+30A4\U+30E4\U+30FC 1
370
    18
  0
POLYLINE
  5
56
330
1F
100
AcDbEntity
  8
\U+30EC\U+30A4\U+30E4\U+30FC 1
 62
    18
420
   196608
370
    18
100
AcDb2dPolyline
 66
     1
 10
0.0
 20
0.0
 30
0.0
  0
VERTEX
  5
57
330
56
100
AcDbEntity
  8
\U+30EC\U+30A4\U+30E4\U+30FC 1
 62
    18
420
   196608
370
    18
100
AcDbVertex
100
AcDb2dVertex
 10
50.06378308210211
 20
-106.1609618875223
 30
0.0
  0
VERTEX
  5
58
330
56
100
AcDbEntity
  8
\U+30EC\U+30A4\U+30E4\U+30FC 1
 62
    18
420
   196608
370
    18
100
AcDbVertex
100
AcDb2dVertex
 10
42.14747042132078
 20
-106.1609618875223
 30
0.0
  0
SEQEND
  5
59
330
56
100
AcDbEntity
  8
\U+30EC\U+30A4\U+30E4\U+30FC 1
370
    18
  0
POLYLINE
  5
5A
330
1F
100
AcDbEntity
  8
\U+30EC\U+30A4\U+30E4\U+30FC 1
 62
    18
420
   196608
370
    18
100
AcDb2dPolyline
 66
     1
 10
0.0
 20
0.0
 30
0.0
  0
VERTEX
  5
5B
330
5A
100
AcDbEntity
  8
\U+30EC\U+30A4\U+30E4\U+30FC 1
 62
    18
420
   196608
370
    18
100
AcDbVertex
100
AcDb2dVertex
 10
43.63316784933477
 20
-132.2768527230072
 30
0.0
  0
VERTEX
  5
5C
330
5A
100
AcDbEntity
  8
\U+30EC\U+30A4\U+30E4\U+30FC 1
 62
    18
420
   196608
370
    18
100
AcDbVertex
100
AcDb2dVertex
 10
44.15131021031634
 20
-134.2136854048146
 30
0.0
  0
VERTEX
  5
5D
330
5A
100
AcDbEntity
  8
\U+30EC\U+30A4\U+30E4\U+30FC 1
 62
    18
420
   196608
370
    18
100
AcDbVertex
100
AcDb2dVertex
 10
44.66996933562071
 20
-132.2768527230072
 30
0.0
  0
SEQEND
  5
5E
330
5A
100
AcDbEntity
  8
\U+30EC\U+30A4\U+30E4\U+30FC 1
370
    18
  0
POLYLINE
  5
5F
330
1F
100
AcDbEntity
  8
\U+30EC\U+30A4\U+30E4\U+30FC 1
 62
    18
420
   196608
370
    18
100
AcDb2dPolyline
 66
     1
 10
0.0
 20
0.0
 30
0.0
  0
VERTEX
  5
60
330
5F
100
AcDbEntity
  8
\U+30EC\U+30A4\U+30E4\U+30FC 1
 62
    18
420
   196608
370
    18
100
AcDbVertex
100
AcDb2dVertex
 10
44.66996933562071
 20
-108.0957275120386
 30
0.0
  0
VERTEX
  5
61
330
5F
100
AcDbEntity
  8
\U+30EC\U+30A4\U+30E4\U+30FC 1
 62
    18
420
   196608
370
    18
100
AcDbVertex
100
AcDb2dVertex
 10
44.15131021031634
 20
-106.1609618875223
 30
0.0
  0
VERTEX
  5
62
330
5F
100
AcDbEntity
  8
\U+30EC\U+30A4\U+30E4\U+30FC 1
 62
    18
420
   196608
370
    18
100
AcDbVertex
100
AcDb2dVertex
 10
43.63316784933477
 20
-108.0957275120386
 30
0.0
  0
SEQEND
  5
63
330
5F
100
AcDbEntity
  8
\U+30EC\U+30A4\U+30E4\U+30FC 1
370
    18
  0
POLYLINE
  5
64
330
1F
100
AcDbEntity
  8
\U+30EC\U+30A4\U+30E4\U+30FC 1
 62
    18
420
   196608
370
    18
100
AcDb2dPolyline
 66
     1
 10
0.0
 20
0.0
 30
0.0
  0
VERTEX
  5
65
330
64
100
AcDbEntity
  8
\U+30EC\U+30A4\U+30E4\U+30FC 1
 62
    18
420
   196608
370
    18
100
AcDbVertex
100
AcDb2dVertex
 10
44.15131021031634
 20
-134.2136854048146
 30
0.0
  0
VERTEX
  5
66
330
64
100
AcDbEntity
  8
\U+30EC\U+30A4\U+30E4\U+30FC 1
 62
    18
420
   196608
370
    18
100
AcDbVertex
100
AcDb2dVertex
 10
44.15131021031634
 20
-81.40846759032497
 30
0.0
  0
SEQEND
  5
67
330
64
100
AcDbEntity
  8
\U+30EC\U+30A4\U+30E4\U+30FC 1
370
    18
  0
POLYLINE
  5
68
330
1F
100
AcDbEntity
  8
\U+30EC\U+30A4\U+30E4\U+30FC 1
 62
    18
420
   196608
370
    18
100
AcDb2dPolyline
 66
     1
 10
0.0
 20
0.0
 30
0.0
  0
VERTEX
  5
69
330
68
100
AcDbEntity
  8
\U+30EC\U+30A4\U+30E4\U+30FC 1
 62
    18
420
   196608
370
    18
100
AcDbVertex
100
AcDb2dVertex
 10
68.39720321640765
 20
-129.0953070423789
 30
0.0
  0
VERTEX
  5
6A
330
68
100
AcDbEntity
  8
\U+30EC\U+30A4\U+30E4\U+30FC 1
 62
    18
420
   196608
370
    18
100
AcDbVertex
100
AcDb2dVertex
 10
68.39720321640765
 20
-148.8174451667887
 30
0.0
  0
SEQEND
  5
6B
330
68
100
AcDbEntity
  8
\U+30EC\U+30A4\U+30E4\U+30FC 1
370
    18
  0
POLYLINE
  5
6C
330
1F
100
AcDbEntity
  8
\U+30EC\U+30A4\U+30E4\U+30FC 1
 62
    18
420
   196608
370
    18
100
AcDb2dPolyline
 66
     1
 10
0.0
 20
0.0
 30
0.0
  0
VERTEX
  5
6D
330
6C
100
AcDbEntity
  8
\U+30EC\U+30A4\U+30E4\U+30FC 1
 62
    18
420
   196608
370
    18
100
AcDbVertex
100
AcDb2dVertex
 10
260.9873425996838
 20
-126.1972927201868
 30
0.0
  0
VERTEX
  5
6E
330
6C
100
AcDbEntity
  8
\U+30EC\U+30A4\U+30E4\U+30FC 1
 62
    18
420
   196608
370
    18
100
AcDbVertex
100
AcDb2dVertex
 10
260.9873425996838
 20
-148.8174451667887
 30
0.0
  0
SEQEND
  5
6F
330
6C
100
AcDbEntity
  8
\U+30EC\U+30A4\U+30E4\U+30FC 1
370
    18
  0
POLYLINE
  5
70
330
1F
100
AcDbEntity
  8
\U+30EC\U+30A4\U+30E4\U+30FC 1
 62
    18
420
   196608
370
    18
100
AcDb2dPolyline
 66
     1
 10
0.0
 20
0.0
 30
0.0
  0
VERTEX
  5
71
330
70
100
AcDbEntity
  8
\U+30EC\U+30A4\U+30E4\U+30FC 1
 62
    18
420
   196608
370
    18
100
AcDbVertex
100
AcDb2dVertex
 10
70.33231335047248
 20
-145.4250596424632
 30
0.0
  0
VERTEX
  5
72
330
70
100
AcDbEntity
  8
\U+30EC\U+30A4\U+30E4\U+30FC 1
 62
    18
420
   196608
370
    18
100
AcDbVertex
100
AcDb2dVertex
 10
68.39720321640765
 20
-146.1223469686778
 30
0.0
  0
VERTEX
  5
73
330
70
100
AcDbEntity
  8
\U+30EC\U+30A4\U+30E4\U+30FC 1
 62
    18
420
   196608
370
    18
100
AcDbVertex
100
AcDb2dVertex
 10
70.33231335047248
 20
-146.8196342948923
 30
0.0
  0
SEQEND
  5
74
330
70
100
AcDbEntity
  8
\U+30EC\U+30A4\U+30E4\U+30FC 1
370
    18
  0
POLYLINE
  5
75
330
1F
100
AcDbEntity
  8
\U+30EC\U+30A4\U+30E4\U+30FC 1
 62
    18
420
   196608
370
    18
100
AcDb2dPolyline
 66
     1
 10
0.0
 20
0.0
 30
0.0
  0
VERTEX
  5
76
330
75
100
AcDbEntity
  8
\U+30EC\U+30A4\U+30E4\U+30FC 1
 62
    18
420
   196608
370
    18
100
AcDbVertex
100
AcDb2dVertex
 10
258.8761880863227
 20
-146.8196342948923
 30
0.0
  0
VERTEX
  5
77
330
75
100
AcDbEntity
  8
\U+30EC\U+30A4\U+30E4\U+30FC 1
 62
    18
420
   196608
370
    18
100
AcDbVertex
100
AcDb2dVertex
 10
260.8119872394845
 20
-146.1223469686778
 30
0.0
  0
VERTEX
  5
78
330
75
100
AcDbEntity
  8
\U+30EC\U+30A4\U+30E4\U+30FC 1
 62
    18
420
   196608
370
    18
100
AcDbVertex
100
AcDb2dVertex
 10
258.8761880863227
 20
-145.4250596424632
 30
0.0
  0
SEQEND
  5
79
330
75
100
AcDbEntity
  8
\U+30EC\U+30A4\U+30E4\U+30FC 1
370
    18
  0
POLYLINE
  5
7A
330
1F
100
AcDbEntity
  8
\U+30EC\U+30A4\U+30E4\U+30FC 1
 62
    18
420
   196608
370
    18
100
AcDb2dPolyline
 66
     1
 10
0.0
 20
0.0
 30
0.0
  0
VERTEX
  5
7B
330
7A
100
AcDbEntity
  8
\U+30EC\U+30A4\U+30E4\U+30FC 1
 62
    18
420
   196608
370
    18
100
AcDbVertex
100
AcDb2dVertex
 10
68.39720321640765
 20
-146.1223469686778
 30
0.0
  0
VERTEX
  5
7C
330
7A
100
AcDbEntity
  8
\U+30EC\U+30A4\U+30E4\U+30FC 1
 62
    18
420
   196608
370
    18
100
AcDbVertex
100
AcDb2dVertex
 10
261.0014674911732
 20
-146.1223469686778
 30
0.0
  0
SEQEND
  5
7D
330
7A
100
AcDbEntity
  8
\U+30EC\U+30A4\U+30E4\U+30FC 1
370
    18
  0
SPLINE
  5
7E
330
1F
100
AcDbEntity
  8
\U+30EC\U+30A4\U+30E4\U+30FC 1
 62
    18
420
   196608
370
    18
100
AcDbSpline
210
0.0
220
0.0
230
1.0
 70
     8
 71
     3
 72
     8
 73
     4
 74
     0
 42
0.0000000001
 43
0.0000000001
 40
0.0
 40
0.0
 40
0.0
 40
0.0
 40
1.0
 40
1.0
 40
1.0
 40
1.0
 10
51.06578910398703
 20
-133.2104735995099
 30
0.0
 10
51.06578910398703
 20
-133.7647894630866
 30
0.0
 10
51.51416828139229
 20
-134.2136854048146
 30
0.0
 10
52.06762287109768
 20
-134.2136854048146
 30
0.0
  0
POLYLINE
  5
7F
330
1F
100
AcDbEntity
  8
\U+30EC\U+30A4\U+30E4\U+30FC 1
 62
    18
420
   196608
370
    18
100
AcDb2dPolyline
 66
     1
 10
0.0
 20
0.0
 30
0.0
  0
VERTEX
  5
80
330
7F
100
AcDbEntity
  8
\U+30EC\U+30A4\U+30E4\U+30FC 1
 62
    18
420
   196608
370
    18
100
AcDbVertex
100
AcDb2dVertex
 10
52.06762287109768
 20
-134.2136854048146
 30
0.0
  0
VERTEX
  5
81
330
7F
100
AcDbEntity
  8
\U+30EC\U+30A4\U+30E4\U+30FC 1
 62
    18
420
   196608
370
    18
100
AcDbVertex
100
AcDb2dVertex
 10
97.15203719359394
 20
-134.2136854048146
 30
0.0
  0
SEQEND
  5
82
330
7F
100
AcDbEntity
  8
\U+30EC\U+30A4\U+30E4\U+30FC 1
370
    18
  0
SPLINE
  5
83
330
1F
100
AcDbEntity
  8
\U+30EC\U+30A4\U+30E4\U+30FC 1
 62
    18
420
   196608
370
    18
100
AcDbSpline
210
0.0
220
0.0
230
1.0
 70
     8
 71
     3
 72
     8
 73
     4
 74
     0
 42
0.0000000001
 43
0.0000000001
 40
0.0
 40
0.0
 40
0.0
 40
0.0
 40
1.0
 40
1.0
 40
1.0
 40
1.0
 10
97.15203719359394
 20
-134.2136854048146
 30
0.0
 10
97.70549178329932
 20
-134.2136854048146
 30
0.0
 10
98.15404321547885
 20
-133.7647894630866
 30
0.0
 10
98.15404321547885
 20
-133.2104735995099
 30
0.0
  0
POLYLINE
  5
84
330
1F
100
AcDbEntity
  8
\U+30EC\U+30A4\U+30E4\U+30FC 1
 62
    18
420
   196608
370
    18
100
AcDb2dPolyline
 66
     1
 10
0.0
 20
0.0
 30
0.0
  0
VERTEX
  5
85
330
84
100
AcDbEntity
  8
\U+30EC\U+30A4\U+30E4\U+30FC 1
 62
    18
420
   196608
370
    18
100
AcDbVertex
100
AcDb2dVertex
 10
98.15404321547885
 20
-132.2089843419478
 30
0.0
  0
VERTEX
  5
86
330
84
100
AcDbEntity
  8
\U+30EC\U+30A4\U+30E4\U+30FC 1
 62
    18
420
   196608
370
    18
100
AcDbVertex
100
AcDb2dVertex
 10
98.15404321547885
 20
-133.2104735995099
 30
0.0
  0
SEQEND
  5
87
330
84
100
AcDbEntity
  8
\U+30EC\U+30A4\U+30E4\U+30FC 1
370
    18
  0
SPLINE
  5
88
330
1F
100
AcDbEntity
  8
\U+30EC\U+30A4\U+30E4\U+30FC 1
 62
    18
420
   196608
370
    18
100
AcDbSpline
210
0.0
220
0.0
230
1.0
 70
     8
 71
     3
 72
     8
 73
     4
 74
     0
 42
0.0000000001
 43
0.0000000001
 40
0.0
 40
0.0
 40
0.0
 40
0.0
 40
1.0
 40
1.0
 40
1.0
 40
1.0
 10
99.1558769825895
 20
-131.2074950843856
 30
0.0
 10
98.6029391572069
 20
-131.2074950843856
 30
0.0
 10
98.15404321547885
 20
-131.6563910261137
 30
0.0
 10
98.15404321547885
 20
-132.2089843419478
 30
0.0
  0
SPLINE
  5
89
330
1F
100
AcDbEntity
  8
\U+30EC\U+30A4\U+30E4\U+30FC 1
 62
    18
420
   196608
370
    18
100
AcDbSpline
210
0.0
220
0.0
230
1.0
 70
     8
 71
     3
 72
     8
 73
     4
 74
     0
 42
0.0000000001
 43
0.0000000001
 40
0.0
 40
0.0
 40
0.0
 40
0.0
 40
1.0
 40
1.0
 40
1.0
 40
1.0
 10
103.3640611178222
 20
-133.2104735995099
 30
0.0
 10
103.3640611178222
 20
-133.7647894630866
 30
0.0
 10
103.8120957856789
 20
-134.2136854048146
 30
0.0
 10
104.3655503753843
 20
-134.2136854048146
 30
0.0
  0
POLYLINE
  5
8A
330
1F
100
AcDbEntity
  8
\U+30EC\U+30A4\U+30E4\U+30FC 1
 62
    18
420
   196608
370
    18
100
AcDb2dPolyline
 66
     1
 10
0.0
 20
0.0
 30
0.0
  0
VERTEX
  5
8B
330
8A
100
AcDbEntity
  8
\U+30EC\U+30A4\U+30E4\U+30FC 1
 62
    18
420
   196608
370
    18
100
AcDbVertex
100
AcDb2dVertex
 10
102.3617105863887
 20
-131.2074950843856
 30
0.0
  0
VERTEX
  5
8C
330
8A
100
AcDbEntity
  8
\U+30EC\U+30A4\U+30E4\U+30FC 1
 62
    18
420
   196608
370
    18
100
AcDbVertex
100
AcDb2dVertex
 10
99.1558769825895
 20
-131.2074950843856
 30
0.0
  0
SEQEND
  5
8D
330
8A
100
AcDbEntity
  8
\U+30EC\U+30A4\U+30E4\U+30FC 1
370
    18
  0
POLYLINE
  5
8E
330
1F
100
AcDbEntity
  8
\U+30EC\U+30A4\U+30E4\U+30FC 1
 62
    18
420
   196608
370
    18
100
AcDb2dPolyline
 66
     1
 10
0.0
 20
0.0
 30
0.0
  0
VERTEX
  5
8F
330
8E
100
AcDbEntity
  8
\U+30EC\U+30A4\U+30E4\U+30FC 1
 62
    18
420
   196608
370
    18
100
AcDbVertex
100
AcDb2dVertex
 10
103.3640611178222
 20
-133.2104735995099
 30
0.0
  0
VERTEX
  5
90
330
8E
100
AcDbEntity
  8
\U+30EC\U+30A4\U+30E4\U+30FC 1
 62
    18
420
   196608
370
    18
100
AcDbVertex
100
AcDb2dVertex
 10
103.3640611178222
 20
-132.2089843419478
 30
0.0
  0
SEQEND
  5
91
330
8E
100
AcDbEntity
  8
\U+30EC\U+30A4\U+30E4\U+30FC 1
370
    18
  0
SPLINE
  5
92
330
1F
100
AcDbEntity
  8
\U+30EC\U+30A4\U+30E4\U+30FC 1
 62
    18
420
   196608
370
    18
100
AcDbSpline
210
0.0
220
0.0
230
1.0
 70
     8
 71
     3
 72
     8
 73
     4
 74
     0
 42
0.0000000001
 43
0.0000000001
 40
0.0
 40
0.0
 40
0.0
 40
0.0
 40
1.0
 40
1.0
 40
1.0
 40
1.0
 10
103.3640611178222
 20
-132.2089843419478
 30
0.0
 10
103.3640611178222
 20
-131.6563910261137
 30
0.0
 10
102.9151651760941
 20
-131.2074950843856
 30
0.0
 10
102.3617105863887
 20
-131.2074950843856
 30
0.0
  0
POLYLINE
  5
93
330
1F
100
AcDbEntity
  8
\U+30EC\U+30A4\U+30E4\U+30FC 1
 62
    18
420
   196608
370
    18
100
AcDb2dPolyline
 66
     1
 10
0.0
 20
0.0
 30
0.0
  0
VERTEX
  5
94
330
93
100
AcDbEntity
  8
\U+30EC\U+30A4\U+30E4\U+30FC 1
 62
    18
420
   196608
370
    18
100
AcDbVertex
100
AcDb2dVertex
 10
104.3655503753843
 20
-134.2136854048146
 30
0.0
  0
VERTEX
  5
95
330
93
100
AcDbEntity
  8
\U+30EC\U+30A4\U+30E4\U+30FC 1
 62
    18
420
   196608
370
    18
100
AcDbVertex
100
AcDb2dVertex
 10
147.2461371159663
 20
-134.2136854048146
 30
0.0
  0
SEQEND
  5
96
330
93
100
AcDbEntity
  8
\U+30EC\U+30A4\U+30E4\U+30FC 1
370
    18
  0
SPLINE
  5
97
330
1F
100
AcDbEntity
  8
\U+30EC\U+30A4\U+30E4\U+30FC 1
 62
    18
420
   196608
370
    18
100
AcDbSpline
210
0.0
220
0.0
230
1.0
 70
     8
 71
     3
 72
     8
 73
     4
 74
     0
 42
0.0000000001
 43
0.0000000001
 40
0.0
 40
0.0
 40
0.0
 40
0.0
 40
1.0
 40
1.0
 40
1.0
 40
1.0
 10
147.2461371159663
 20
-134.2136854048146
 30
0.0
 10
147.7994194508974
 20
-134.2136854048146
 30
0.0
 10
148.2483153926254
 20
-133.7647894630866
 30
0.0
 10
148.2483153926254
 20
-133.2104735995099
 30
0.0
  0
POLYLINE
  5
98
330
1F
100
AcDbEntity
  8
\U+30EC\U+30A4\U+30E4\U+30FC 1
 62
    18
420
   196608
370
    18
100
AcDb2dPolyline
 66
     1
 10
0.0
 20
0.0
 30
0.0
  0
VERTEX
  5
99
330
98
100
AcDbEntity
  8
\U+30EC\U+30A4\U+30E4\U+30FC 1
 62
    18
420
   196608
370
    18
100
AcDbVertex
100
AcDb2dVertex
 10
148.2483153926254
 20
-133.2104735995099
 30
0.0
  0
VERTEX
  5
9A
330
98
100
AcDbEntity
  8
\U+30EC\U+30A4\U+30E4\U+30FC 1
 62
    18
420
   196608
370
    18
100
AcDbVertex
100
AcDb2dVertex
 10
148.2483153926254
 20
-125.1958034626247
 30
0.0
  0
SEQEND
  5
9B
330
98
100
AcDbEntity
  8
\U+30EC\U+30A4\U+30E4\U+30FC 1
370
    18
  0
POLYLINE
  5
9C
330
1F
100
AcDbEntity
  8
\U+30EC\U+30A4\U+30E4\U+30FC 1
 62
    18
420
   196608
370
    18
100
AcDb2dPolyline
 66
     1
 10
0.0
 20
0.0
 30
0.0
  0
VERTEX
  5
9D
330
9C
100
AcDbEntity
  8
\U+30EC\U+30A4\U+30E4\U+30FC 1
 62
    18
420
   196608
370
    18
100
AcDbVertex
100
AcDb2dVertex
 10
148.2483153926254
 20
-123.1928249475004
 30
0.0
  0
VERTEX
  5
9E
330
9C
100
AcDbEntity
  8
\U+30EC\U+30A4\U+30E4\U+30FC 1
 62
    18
420
   196608
370
    18
100
AcDbVertex
100
AcDb2dVertex
 10
148.2483153926254
 20
-117.181477835288
 30
0.0
  0
SEQEND
  5
9F
330
9C
100
AcDbEntity
  8
\U+30EC\U+30A4\U+30E4\U+30FC 1
370
    18
  0
POLYLINE
  5
A0
330
1F
100
AcDbEntity
  8
\U+30EC\U+30A4\U+30E4\U+30FC 1
 62
    18
420
   196608
370
    18
100
AcDb2dPolyline
 66
     1
 10
0.0
 20
0.0
 30
0.0
  0
VERTEX
  5
A1
330
A0
100
AcDbEntity
  8
\U+30EC\U+30A4\U+30E4\U+30FC 1
 62
    18
420
   196608
370
    18
100
AcDbVertex
100
AcDb2dVertex
 10
148.2483153926254
 20
-115.1767767724211
 30
0.0
  0
VERTEX
  5
A2
330
A0
100
AcDbEntity
  8
\U+30EC\U+30A4\U+30E4\U+30FC 1
 62
    18
420
   196608
370
    18
100
AcDbVertex
100
AcDb2dVertex
 10
148.2483153926254
 20
-107.1624511450844
 30
0.0
  0
SEQEND
  5
A3
330
A0
100
AcDbEntity
  8
\U+30EC\U+30A4\U+30E4\U+30FC 1
370
    18
  0
SPLINE
  5
A4
330
1F
100
AcDbEntity
  8
\U+30EC\U+30A4\U+30E4\U+30FC 1
 62
    18
420
   196608
370
    18
100
AcDbSpline
210
0.0
220
0.0
230
1.0
 70
     8
 71
     3
 72
     8
 73
     4
 74
     0
 42
0.0000000001
 43
0.0000000001
 40
0.0
 40
0.0
 40
0.0
 40
0.0
 40
1.0
 40
1.0
 40
1.0
 40
1.0
 10
148.2483153926254
 20
-107.1624511450844
 30
0.0
 10
148.2483153926254
 20
-106.6088243006047
 30
0.0
 10
147.7994194508974
 20
-106.1609618875223
 30
0.0
 10
147.2461371159663
 20
-106.1609618875223
 30
0.0
  0
SPLINE
  5
A5
330
1F
100
AcDbEntity
  8
\U+30EC\U+30A4\U+30E4\U+30FC 1
 62
    18
420
   196608
370
    18
100
AcDbSpline
210
0.0
220
0.0
230
1.0
 70
     8
 71
     3
 72
     8
 73
     4
 74
     0
 42
0.0000000001
 43
0.0000000001
 40
0.0
 40
0.0
 40
0.0
 40
0.0
 40
1.0
 40
1.0
 40
1.0
 40
1.0
 10
98.15404321547885
 20
-107.1624511450844
 30
0.0
 10
98.15404321547885
 20
-106.6088243006047
 30
0.0
 10
97.70549178329932
 20
-106.1609618875223
 30
0.0
 10
97.15203719359394
 20
-106.1609618875223
 30
0.0
  0
POLYLINE
  5
A6
330
1F
100
AcDbEntity
  8
\U+30EC\U+30A4\U+30E4\U+30FC 1
 62
    18
420
   196608
370
    18
100
AcDb2dPolyline
 66
     1
 10
0.0
 20
0.0
 30
0.0
  0
VERTEX
  5
A7
330
A6
100
AcDbEntity
  8
\U+30EC\U+30A4\U+30E4\U+30FC 1
 62
    18
420
   196608
370
    18
100
AcDbVertex
100
AcDb2dVertex
 10
147.2461371159663
 20
-106.1609618875223
 30
0.0
  0
VERTEX
  5
A8
330
A6
100
AcDbEntity
  8
\U+30EC\U+30A4\U+30E4\U+30FC 1
 62
    18
420
   196608
370
    18
100
AcDbVertex
100
AcDb2dVertex
 10
104.3655503753843
 20
-106.1609618875223
 30
0.0
  0
SEQEND
  5
A9
330
A6
100
AcDbEntity
  8
\U+30EC\U+30A4\U+30E4\U+30FC 1
370
    18
  0
SPLINE
  5
AA
330
1F
100
AcDbEntity
  8
\U+30EC\U+30A4\U+30E4\U+30FC 1
 62
    18
420
   196608
370
    18
100
AcDbSpline
210
0.0
220
0.0
230
1.0
 70
     8
 71
     3
 72
     8
 73
     4
 74
     0
 42
0.0000000001
 43
0.0000000001
 40
0.0
 40
0.0
 40
0.0
 40
0.0
 40
1.0
 40
1.0
 40
1.0
 40
1.0
 10
104.3655503753843
 20
-106.1609618875223
 30
0.0
 10
103.8120957856789
 20
-106.1609618875223
 30
0.0
 10
103.3640611178222
 20
-106.6088243006047
 30
0.0
 10
103.3640611178222
 20
-107.1624511450844
 30
0.0
  0
POLYLINE
  5
AB
330
1F
100
AcDbEntity
  8
\U+30EC\U+30A4\U+30E4\U+30FC 1
 62
    18
420
   196608
370
    18
100
AcDb2dPolyline
 66
     1
 10
0.0
 20
0.0
 30
0.0
  0
VERTEX
  5
AC
330
AB
100
AcDbEntity
  8
\U+30EC\U+30A4\U+30E4\U+30FC 1
 62
    18
420
   196608
370
    18
100
AcDbVertex
100
AcDb2dVertex
 10
103.3640611178222
 20
-107.1624511450844
 30
0.0
  0
VERTEX
  5
AD
330
AB
100
AcDbEntity
  8
\U+30EC\U+30A4\U+30E4\U+30FC 1
 62
    18
420
   196608
370
    18
100
AcDbVertex
100
AcDb2dVertex
 10
103.3640611178222
 20
-108.163595893098
 30
0.0
  0
SEQEND
  5
AE
330
AB
100
AcDbEntity
  8
\U+30EC\U+30A4\U+30E4\U+30FC 1
370
    18
  0
SPLINE
  5
AF
330
1F
100
AcDbEntity
  8
\U+30EC\U+30A4\U+30E4\U+30FC 1
 62
    18
420
   196608
370
    18
100
AcDbSpline
210
0.0
220
0.0
230
1.0
 70
     8
 71
     3
 72
     8
 73
     4
 74
     0
 42
0.0000000001
 43
0.0000000001
 40
0.0
 40
0.0
 40
0.0
 40
0.0
 40
1.0
 40
1.0
 40
1.0
 40
1.0
 10
102.3617105863887
 20
-109.1661186793057
 30
0.0
 10
102.9151651760941
 20
-109.1661186793057
 30
0.0
 10
103.3640611178222
 20
-108.7172227375776
 30
0.0
 10
103.3640611178222
 20
-108.163595893098
 30
0.0
  0
POLYLINE
  5
B0
330
1F
100
AcDbEntity
  8
\U+30EC\U+30A4\U+30E4\U+30FC 1
 62
    18
420
   196608
370
    18
100
AcDb2dPolyline
 66
     1
 10
0.0
 20
0.0
 30
0.0
  0
VERTEX
  5
B1
330
B0
100
AcDbEntity
  8
\U+30EC\U+30A4\U+30E4\U+30FC 1
 62
    18
420
   196608
370
    18
100
AcDbVertex
100
AcDb2dVertex
 10
98.15404321547885
 20
-108.163595893098
 30
0.0
  0
VERTEX
  5
B2
330
B0
100
AcDbEntity
  8
\U+30EC\U+30A4\U+30E4\U+30FC 1
 62
    18
420
   196608
370
    18
100
AcDbVertex
100
AcDb2dVertex
 10
98.15404321547885
 20
-107.1624511450844
 30
0.0
  0
SEQEND
  5
B3
330
B0
100
AcDbEntity
  8
\U+30EC\U+30A4\U+30E4\U+30FC 1
370
    18
  0
POLYLINE
  5
B4
330
1F
100
AcDbEntity
  8
\U+30EC\U+30A4\U+30E4\U+30FC 1
 62
    18
420
   196608
370
    18
100
AcDb2dPolyline
 66
     1
 10
0.0
 20
0.0
 30
0.0
  0
VERTEX
  5
B5
330
B4
100
AcDbEntity
  8
\U+30EC\U+30A4\U+30E4\U+30FC 1
 62
    18
420
   196608
370
    18
100
AcDbVertex
100
AcDb2dVertex
 10
102.3617105863887
 20
-109.1661186793057
 30
0.0
  0
VERTEX
  5
B6
330
B4
100
AcDbEntity
  8
\U+30EC\U+30A4\U+30E4\U+30FC 1
 62
    18
420
   196608
370
    18
100
AcDbVertex
100
AcDb2dVertex
 10
99.1558769825895
 20
-109.1661186793057
 30
0.0
  0
SEQEND
  5
B7
330
B4
100
AcDbEntity
  8
\U+30EC\U+30A4\U+30E4\U+30FC 1
370
    18
  0
SPLINE
  5
B8
330
1F
100
AcDbEntity
  8
\U+30EC\U+30A4\U+30E4\U+30FC 1
 62
    18
420
   196608
370
    18
100
AcDbSpline
210
0.0
220
0.0
230
1.0
 70
     8
 71
     3
 72
     8
 73
     4
 74
     0
 42
0.0000000001
 43
0.0000000001
 40
0.0
 40
0.0
 40
0.0
 40
0.0
 40
1.0
 40
1.0
 40
1.0
 40
1.0
 10
98.15404321547885
 20
-108.163595893098
 30
0.0
 10
98.15404321547885
 20
-108.7172227375776
 30
0.0
 10
98.6029391572069
 20
-109.1661186793057
 30
0.0
 10
99.1558769825895
 20
-109.1661186793057
 30
0.0
  0
POLYLINE
  5
B9
330
1F
100
AcDbEntity
  8
\U+30EC\U+30A4\U+30E4\U+30FC 1
 62
    18
420
   196608
370
    18
100
AcDb2dPolyline
 66
     1
 10
0.0
 20
0.0
 30
0.0
  0
VERTEX
  5
BA
330
B9
100
AcDbEntity
  8
\U+30EC\U+30A4\U+30E4\U+30FC 1
 62
    18
420
   196608
370
    18
100
AcDbVertex
100
AcDb2dVertex
 10
51.06578910398703
 20
-107.1624511450844
 30
0.0
  0
VERTEX
  5
BB
330
B9
100
AcDbEntity
  8
\U+30EC\U+30A4\U+30E4\U+30FC 1
 62
    18
420
   196608
370
    18
100
AcDbVertex
100
AcDb2dVertex
 10
51.06578910398703
 20
-133.2104735995099
 30
0.0
  0
SEQEND
  5
BC
330
B9
100
AcDbEntity
  8
\U+30EC\U+30A4\U+30E4\U+30FC 1
370
    18
  0
POLYLINE
  5
BD
330
1F
100
AcDbEntity
  8
\U+30EC\U+30A4\U+30E4\U+30FC 1
 62
    18
420
   196608
370
    18
100
AcDb2dPolyline
 66
     1
 10
0.0
 20
0.0
 30
0.0
  0
VERTEX
  5
BE
330
BD
100
AcDbEntity
  8
\U+30EC\U+30A4\U+30E4\U+30FC 1
 62
    18
420
   196608
370
    18
100
AcDbVertex
100
AcDb2dVertex
 10
97.15203719359394
 20
-106.1609618875223
 30
0.0
  0
VERTEX
  5
BF
330
BD
100
AcDbEntity
  8
\U+30EC\U+30A4\U+30E4\U+30FC 1
 62
    18
420
   196608
370
    18
100
AcDbVertex
100
AcDb2dVertex
 10
52.06762287109768
 20
-106.1609618875223
 30
0.0
  0
SEQEND
  5
C0
330
BD
100
AcDbEntity
  8
\U+30EC\U+30A4\U+30E4\U+30FC 1
370
    18
  0
SPLINE
  5
C1
330
1F
100
AcDbEntity
  8
\U+30EC\U+30A4\U+30E4\U+30FC 1
 62
    18
420
   196608
370
    18
100
AcDbSpline
210
0.0
220
0.0
230
1.0
 70
     8
 71
     3
 72
     8
 73
     4
 74
     0
 42
0.0000000001
 43
0.0000000001
 40
0.0
 40
0.0
 40
0.0
 40
0.0
 40
1.0
 40
1.0
 40
1.0
 40
1.0
 10
52.06762287109768
 20
-106.1609618875223
 30
0.0
 10
51.51416828139229
 20
-106.1609618875223
 30
0.0
 10
51.06578910398703
 20
-106.6088243006047
 30
0.0
 10
51.06578910398703
 20
-107.1624511450844
 30
0.0
  0
POLYLINE
  5
C2
330
1F
100
AcDbEntity
  8
\U+30EC\U+30A4\U+30E4\U+30FC 1
 62
    18
420
   196608
370
    18
100
AcDb2dPolyline
 66
     1
 10
0.0
 20
0.0
 30
0.0
  0
VERTEX
  5
C3
330
C2
100
AcDbEntity
  8
\U+30EC\U+30A4\U+30E4\U+30FC 1
 62
    18
420
   196608
370
    18
100
AcDbVertex
100
AcDb2dVertex
 10
253.1600856571961
 20
-115.6780381655249
 30
0.0
  0
VERTEX
  5
C4
330
C2
100
AcDbEntity
  8
\U+30EC\U+30A4\U+30E4\U+30FC 1
 62
    18
420
   196608
370
    18
100
AcDbVertex
100
AcDb2dVertex
 10
260.9873425996838
 20
-115.6780381655249
 30
0.0
  0
SEQEND
  5
C5
330
C2
100
AcDbEntity
  8
\U+30EC\U+30A4\U+30E4\U+30FC 1
370
    18
  0
SPLINE
  5
C6
330
1F
100
AcDbEntity
  8
\U+30EC\U+30A4\U+30E4\U+30FC 1
 62
    18
420
   196608
370
    18
100
AcDbSpline
210
0.0
220
0.0
230
1.0
 70
     8
 71
     3
 72
    11
 73
     7
 74
     0
 42
0.0000000001
 43
0.0000000001
 40
0.0
 40
0.0
 40
0.0
 40
0.0
 40
1.0
 40
1.0
 40
1.0
 40
2.0
 40
2.0
 40
2.0
 40
2.0
 10
253.1600856571961
 20
-115.6780381655249
 30
0.0
 10
253.0625894549635
 20
-115.6780381655249
 30
0.0
 10
252.9836967683513
 20
-115.9026583911632
 30
0.0
 10
252.9836967683513
 20
-116.1789550490803
 30
0.0
 10
252.9836967683513
 20
-116.4552517069973
 30
0.0
 10
253.0625894549635
 20
-116.6802164421841
 30
0.0
 10
253.1600856571961
 20
-116.6802164421841
 30
0.0
  0
POLYLINE
  5
C7
330
1F
100
AcDbEntity
  8
\U+30EC\U+30A4\U+30E4\U+30FC 1
 62
    18
420
   196608
370
    18
100
AcDb2dPolyline
 66
     1
 10
0.0
 20
0.0
 30
0.0
  0
VERTEX
  5
C8
330
C7
100
AcDbEntity
  8
\U+30EC\U+30A4\U+30E4\U+30FC 1
 62
    18
420
   196608
370
    18
100
AcDbVertex
100
AcDb2dVertex
 10
253.1600856571961
 20
-116.6802164421841
 30
0.0
  0
VERTEX
  5
C9
330
C7
100
AcDbEntity
  8
\U+30EC\U+30A4\U+30E4\U+30FC 1
 62
    18
420
   196608
370
    18
100
AcDbVertex
100
AcDb2dVertex
 10
260.9873425996838
 20
-116.6802164421841
 30
0.0
  0
SEQEND
  5
CA
330
C7
100
AcDbEntity
  8
\U+30EC\U+30A4\U+30E4\U+30FC 1
370
    18
  0
SPLINE
  5
CB
330
1F
100
AcDbEntity
  8
\U+30EC\U+30A4\U+30E4\U+30FC 1
 62
    18
420
   196608
370
    18
100
AcDbSpline
210
0.0
220
0.0
230
1.0
 70
     8
 71
     3
 72
    11
 73
     7
 74
     0
 42
0.0000000001
 43
0.0000000001
 40
0.0
 40
0.0
 40
0.0
 40
0.0
 40
1.0
 40
1.0
 40
1.0
 40
2.0
 40
2.0
 40
2.0
 40
2.0
 10
260.9873425996838
 20
-115.6780381655249
 30
0.0
 10
260.8912244356453
 20
-115.6780381655249
 30
0.0
 10
260.8119872394845
 20
-115.9026583911632
 30
0.0
 10
260.8119872394845
 20
-116.1789550490803
 30
0.0
 10
260.8119872394845
 20
-116.4552517069973
 30
0.0
 10
260.8912244356453
 20
-116.6802164421841
 30
0.0
 10
260.9873425996838
 20
-116.6802164421841
 30
0.0
  0
SPLINE
  5
CC
330
1F
100
AcDbEntity
  8
\U+30EC\U+30A4\U+30E4\U+30FC 1
 62
    18
420
   196608
370
    18
100
AcDbSpline
210
0.0
220
0.0
230
1.0
 70
     8
 71
     3
 72
    11
 73
     7
 74
     0
 42
0.0000000001
 43
0.0000000001
 40
0.0
 40
0.0
 40
0.0
 40
0.0
 40
1.0
 40
1.0
 40
1.0
 40
2.0
 40
2.0
 40
2.0
 40
2.0
 10
260.9873425996838
 20
-116.6802164421841
 30
0.0
 10
261.0838052732707
 20
-116.6802164421841
 30
0.0
 10
261.1623534503344
 20
-116.4552517069973
 30
0.0
 10
261.1623534503344
 20
-116.1789550490803
 30
0.0
 10
261.1623534503344
 20
-115.9026583911632
 30
0.0
 10
261.0838052732707
 20
-115.6780381655249
 30
0.0
 10
260.9873425996838
 20
-115.6780381655249
 30
0.0
  0
SPLINE
  5
CD
330
1F
100
AcDbEntity
  8
\U+30EC\U+30A4\U+30E4\U+30FC 1
 62
    18
420
   196608
370
    18
100
AcDbSpline
210
0.0
220
0.0
230
1.0
 70
     8
 71
     3
 72
    11
 73
     7
 74
     0
 42
0.0000000001
 43
0.0000000001
 40
0.0
 40
0.0
 40
0.0
 40
0.0
 40
1.0
 40
1.0
 40
1.0
 40
2.0
 40
2.0
 40
2.0
 40
2.0
 10
253.1600856571961
 20
-115.1767767724211
 30
0.0
 10
252.965782271828
 20
-115.1767767724211
 30
0.0
 10
252.8097194463462
 20
-115.6256727141491
 30
0.0
 10
252.8097194463462
 20
-116.1789550490803
 30
0.0
 10
252.8097194463462
 20
-116.7325818935599
 30
0.0
 10
252.965782271828
 20
-117.181477835288
 30
0.0
 10
253.1600856571961
 20
-117.181477835288
 30
0.0
  0
SPLINE
  5
CE
330
1F
100
AcDbEntity
  8
\U+30EC\U+30A4\U+30E4\U+30FC 1
 62
    18
420
   196608
370
    18
100
AcDbSpline
210
0.0
220
0.0
230
1.0
 70
     8
 71
     3
 72
     8
 73
     4
 74
     0
 42
0.0000000001
 43
0.0000000001
 40
0.0
 40
0.0
 40
0.0
 40
0.0
 40
1.0
 40
1.0
 40
1.0
 40
1.0
 10
253.1600856571961
 20
-117.181477835288
 30
0.0
 10
253.2844536042136
 20
-117.181477835288
 30
0.0
 10
253.3998643029695
 20
-116.9895860167596
 30
0.0
 10
253.461876021704
 20
-116.6802164421841
 30
0.0
  0
SPLINE
  5
CF
330
1F
100
AcDbEntity
  8
\U+30EC\U+30A4\U+30E4\U+30FC 1
 62
    18
420
   196608
370
    18
100
AcDbSpline
210
0.0
220
0.0
230
1.0
 70
     8
 71
     3
 72
     8
 73
     4
 74
     0
 42
0.0000000001
 43
0.0000000001
 40
0.0
 40
0.0
 40
0.0
 40
0.0
 40
1.0
 40
1.0
 40
1.0
 40
1.0
 10
253.461876021704
 20
-115.6780381655249
 30
0.0
 10
253.3998643029695
 20
-115.368324081401
 30
0.0
 10
253.2844536042136
 20
-115.1767767724211
 30
0.0
 10
253.1600856571961
 20
-115.1767767724211
 30
0.0
  0
POLYLINE
  5
D0
330
1F
100
AcDbEntity
  8
\U+30EC\U+30A4\U+30E4\U+30FC 1
 62
    18
420
   196608
370
    18
100
AcDb2dPolyline
 66
     1
 10
0.0
 20
0.0
 30
0.0
  0
VERTEX
  5
D1
330
D0
100
AcDbEntity
  8
\U+30EC\U+30A4\U+30E4\U+30FC 1
 62
    18
420
   196608
370
    18
100
AcDbVertex
100
AcDb2dVertex
 10
85.04200979861797
 20
-114.6755153793172
 30
0.0
  0
VERTEX
  5
D2
330
D0
100
AcDbEntity
  8
\U+30EC\U+30A4\U+30E4\U+30FC 1
 62
    18
420
   196608
370
    18
100
AcDbVertex
100
AcDb2dVertex
 10
87.46150035790893
 20
-114.6755153793172
 30
0.0
  0
SEQEND
  5
D3
330
D0
100
AcDbEntity
  8
\U+30EC\U+30A4\U+30E4\U+30FC 1
370
    18
  0
SPLINE
  5
D4
330
1F
100
AcDbEntity
  8
\U+30EC\U+30A4\U+30E4\U+30FC 1
 62
    18
420
   196608
370
    18
100
AcDbSpline
210
0.0
220
0.0
230
1.0
 70
     8
 71
     3
 72
    11
 73
     7
 74
     0
 42
0.0000000001
 43
0.0000000001
 40
0.0
 40
0.0
 40
0.0
 40
0.0
 40
1.0
 40
1.0
 40
1.0
 40
2.0
 40
2.0
 40
2.0
 40
2.0
 10
85.04200979861797
 20
-114.6755153793172
 30
0.0
 10
84.82755260466116
 20
-114.6755153793172
 30
0.0
 10
84.65323077310752
 20
-115.3483425275865
 30
0.0
 10
84.65323077310752
 20
-116.1789550490803
 30
0.0
 10
84.65323077310752
 20
-117.008878551477
 30
0.0
 10
84.82755260466116
 20
-117.6817056997462
 30
0.0
 10
85.04200979861797
 20
-117.6817056997462
 30
0.0
  0
POLYLINE
  5
D5
330
1F
100
AcDbEntity
  8
\U+30EC\U+30A4\U+30E4\U+30FC 1
 62
    18
420
   196608
370
    18
100
AcDb2dPolyline
 66
     1
 10
0.0
 20
0.0
 30
0.0
  0
VERTEX
  5
D6
330
D5
100
AcDbEntity
  8
\U+30EC\U+30A4\U+30E4\U+30FC 1
 62
    18
420
   196608
370
    18
100
AcDbVertex
100
AcDb2dVertex
 10
85.04200979861797
 20
-117.6817056997462
 30
0.0
  0
VERTEX
  5
D7
330
D5
100
AcDbEntity
  8
\U+30EC\U+30A4\U+30E4\U+30FC 1
 62
    18
420
   196608
370
    18
100
AcDbVertex
100
AcDb2dVertex
 10
87.46150035790893
 20
-117.6817056997462
 30
0.0
  0
SEQEND
  5
D8
330
D5
100
AcDbEntity
  8
\U+30EC\U+30A4\U+30E4\U+30FC 1
370
    18
  0
SPLINE
  5
D9
330
1F
100
AcDbEntity
  8
\U+30EC\U+30A4\U+30E4\U+30FC 1
 62
    18
420
   196608
370
    18
100
AcDbSpline
210
0.0
220
0.0
230
1.0
 70
     8
 71
     3
 72
    11
 73
     7
 74
     0
 42
0.0000000001
 43
0.0000000001
 40
0.0
 40
0.0
 40
0.0
 40
0.0
 40
1.0
 40
1.0
 40
1.0
 40
2.0
 40
2.0
 40
2.0
 40
2.0
 10
87.46150035790893
 20
-114.6755153793172
 30
0.0
 10
87.2466986544036
 20
-114.6755153793172
 30
0.0
 10
87.07237682284996
 20
-115.3483425275865
 30
0.0
 10
87.07237682284996
 20
-116.1789550490803
 30
0.0
 10
87.07237682284996
 20
-117.008878551477
 30
0.0
 10
87.2466986544036
 20
-117.6817056997462
 30
0.0
 10
87.46150035790893
 20
-117.6817056997462
 30
0.0
  0
SPLINE
  5
DA
330
1F
100
AcDbEntity
  8
\U+30EC\U+30A4\U+30E4\U+30FC 1
 62
    18
420
   196608
370
    18
100
AcDbSpline
210
0.0
220
0.0
230
1.0
 70
     8
 71
     3
 72
     8
 73
     4
 74
     0
 42
0.0000000001
 43
0.0000000001
 40
0.0
 40
0.0
 40
0.0
 40
0.0
 40
1.0
 40
1.0
 40
1.0
 40
1.0
 10
87.46150035790893
 20
-117.6817056997462
 30
0.0
 10
87.57226017775972
 20
-117.6817056997462
 30
0.0
 10
87.67768009960837
 20
-117.4994601485765
 30
0.0
 10
87.75140514299271
 20
-117.181477835288
 30
0.0
  0
SPLINE
  5
DB
330
1F
100
AcDbEntity
  8
\U+30EC\U+30A4\U+30E4\U+30FC 1
 62
    18
420
   196608
370
    18
100
AcDbSpline
210
0.0
220
0.0
230
1.0
 70
     8
 71
     3
 72
     8
 73
     4
 74
     0
 42
0.0000000001
 43
0.0000000001
 40
0.0
 40
0.0
 40
0.0
 40
0.0
 40
1.0
 40
1.0
 40
1.0
 40
1.0
 10
87.75140514299271
 20
-115.1767767724211
 30
0.0
 10
87.67768009960837
 20
-114.858449949584
 30
0.0
 10
87.57226017775972
 20
-114.6755153793172
 30
0.0
 10
87.46150035790893
 20
-114.6755153793172
 30
0.0
  0
SPLINE
  5
DC
330
1F
100
AcDbEntity
  8
\U+30EC\U+30A4\U+30E4\U+30FC 1
 62
    18
420
   196608
370
    18
100
AcDbSpline
210
0.0
220
0.0
230
1.0
 70
     8
 71
     3
 72
     8
 73
     4
 74
     0
 42
0.0000000001
 43
0.0000000001
 40
0.0
 40
0.0
 40
0.0
 40
0.0
 40
1.0
 40
1.0
 40
1.0
 40
1.0
 10
84.07445473158556
 20
-118.1829670928501
 30
0.0
 10
84.0889241326236
 20
-118.1829670928501
 30
0.0
 10
84.10322127888739
 20
-118.1795219973648
 30
0.0
 10
84.11803518947397
 20
-118.1722872968458
 30
0.0
  0
SPLINE
  5
DD
330
1F
100
AcDbEntity
  8
\U+30EC\U+30A4\U+30E4\U+30FC 1
 62
    18
420
   196608
370
    18
100
AcDbSpline
210
0.0
220
0.0
230
1.0
 70
     8
 71
     3
 72
     8
 73
     4
 74
     0
 42
0.0000000001
 43
0.0000000001
 40
0.0
 40
0.0
 40
0.0
 40
0.0
 40
1.0
 40
1.0
 40
1.0
 40
1.0
 10
83.74372556500157
 20
-116.9051811773709
 30
0.0
 10
83.74372556500157
 20
-117.6110812422986
 30
0.0
 10
83.89186467086732
 20
-118.1829670928501
 30
0.0
 10
84.07445473158556
 20
-118.1829670928501
 30
0.0
  0
POLYLINE
  5
DE
330
1F
100
AcDbEntity
  8
\U+30EC\U+30A4\U+30E4\U+30FC 1
 62
    18
420
   196608
370
    18
100
AcDb2dPolyline
 66
     1
 10
0.0
 20
0.0
 30
0.0
  0
VERTEX
  5
DF
330
DE
100
AcDbEntity
  8
\U+30EC\U+30A4\U+30E4\U+30FC 1
 62
    18
420
   196608
370
    18
100
AcDbVertex
100
AcDb2dVertex
 10
81.80827092138821
 20
-116.9051811773709
 30
0.0
  0
VERTEX
  5
E0
330
DE
100
AcDbEntity
  8
\U+30EC\U+30A4\U+30E4\U+30FC 1
 62
    18
420
   196608
370
    18
100
AcDbVertex
100
AcDb2dVertex
 10
83.74372556500157
 20
-116.9051811773709
 30
0.0
  0
SEQEND
  5
E1
330
DE
100
AcDbEntity
  8
\U+30EC\U+30A4\U+30E4\U+30FC 1
370
    18
  0
SPLINE
  5
E2
330
1F
100
AcDbEntity
  8
\U+30EC\U+30A4\U+30E4\U+30FC 1
 62
    18
420
   196608
370
    18
100
AcDbSpline
210
0.0
220
0.0
230
1.0
 70
     8
 71
     3
 72
     8
 73
     4
 74
     0
 42
0.0000000001
 43
0.0000000001
 40
0.0
 40
0.0
 40
0.0
 40
0.0
 40
1.0
 40
1.0
 40
1.0
 40
1.0
 10
81.80827092138821
 20
-116.9051811773709
 30
0.0
 10
81.80827092138821
 20
-117.5325330652349
 30
0.0
 10
81.9259209322095
 20
-118.0679009036428
 30
0.0
 10
82.08680689137066
 20
-118.1664306345209
 30
0.0
  0
SPLINE
  5
E3
330
1F
100
AcDbEntity
  8
\U+30EC\U+30A4\U+30E4\U+30FC 1
 62
    18
420
   196608
370
    18
100
AcDbSpline
210
0.0
220
0.0
230
1.0
 70
     8
 71
     3
 72
     8
 73
     4
 74
     0
 42
0.0000000001
 43
0.0000000001
 40
0.0
 40
0.0
 40
0.0
 40
0.0
 40
1.0
 40
1.0
 40
1.0
 40
1.0
 10
82.08680689137066
 20
-118.1664306345209
 30
0.0
 10
82.10368785924838
 20
-118.1777994496222
 30
0.0
 10
82.12160235577169
 20
-118.1829670928501
 30
0.0
 10
82.13900008797219
 20
-118.1829670928501
 30
0.0
  0
POLYLINE
  5
E4
330
1F
100
AcDbEntity
  8
\U+30EC\U+30A4\U+30E4\U+30FC 1
 62
    18
420
   196608
370
    18
100
AcDb2dPolyline
 66
     1
 10
0.0
 20
0.0
 30
0.0
  0
VERTEX
  5
E5
330
E4
100
AcDbEntity
  8
\U+30EC\U+30A4\U+30E4\U+30FC 1
 62
    18
420
   196608
370
    18
100
AcDbVertex
100
AcDb2dVertex
 10
83.74372556500157
 20
-115.4520399016925
 30
0.0
  0
VERTEX
  5
E6
330
E4
100
AcDbEntity
  8
\U+30EC\U+30A4\U+30E4\U+30FC 1
 62
    18
420
   196608
370
    18
100
AcDbVertex
100
AcDb2dVertex
 10
81.80827092138821
 20
-115.4520399016925
 30
0.0
  0
SEQEND
  5
E7
330
E4
100
AcDbEntity
  8
\U+30EC\U+30A4\U+30E4\U+30FC 1
370
    18
  0
POLYLINE
  5
E8
330
1F
100
AcDbEntity
  8
\U+30EC\U+30A4\U+30E4\U+30FC 1
 62
    18
420
   196608
370
    18
100
AcDb2dPolyline
 66
     1
 10
0.0
 20
0.0
 30
0.0
  0
VERTEX
  5
E9
330
E8
100
AcDbEntity
  8
\U+30EC\U+30A4\U+30E4\U+30FC 1
 62
    18
420
   196608
370
    18
100
AcDbVertex
100
AcDb2dVertex
 10
81.80827092138821
 20
-116.9051811773709
 30
0.0
  0
VERTEX
  5
EA
330
E8
100
AcDbEntity
  8
\U+30EC\U+30A4\U+30E4\U+30FC 1
 62
    18
420
   196608
370
    18
100
AcDbVertex
100
AcDb2dVertex
 10
81.80827092138821
 20
-115.4520399016925
 30
0.0
  0
SEQEND
  5
EB
330
E8
100
AcDbEntity
  8
\U+30EC\U+30A4\U+30E4\U+30FC 1
370
    18
  0
POLYLINE
  5
EC
330
1F
100
AcDbEntity
  8
\U+30EC\U+30A4\U+30E4\U+30FC 1
 62
    18
420
   196608
370
    18
100
AcDb2dPolyline
 66
     1
 10
0.0
 20
0.0
 30
0.0
  0
VERTEX
  5
ED
330
EC
100
AcDbEntity
  8
\U+30EC\U+30A4\U+30E4\U+30FC 1
 62
    18
420
   196608
370
    18
100
AcDbVertex
100
AcDb2dVertex
 10
83.74372556500157
 20
-116.9051811773709
 30
0.0
  0
VERTEX
  5
EE
330
EC
100
AcDbEntity
  8
\U+30EC\U+30A4\U+30E4\U+30FC 1
 62
    18
420
   196608
370
    18
100
AcDbVertex
100
AcDb2dVertex
 10
83.74372556500157
 20
-116.1789550490803
 30
0.0
  0
SEQEND
  5
EF
330
EC
100
AcDbEntity
  8
\U+30EC\U+30A4\U+30E4\U+30FC 1
370
    18
  0
POLYLINE
  5
F0
330
1F
100
AcDbEntity
  8
\U+30EC\U+30A4\U+30E4\U+30FC 1
 62
    18
420
   196608
370
    18
100
AcDb2dPolyline
 66
     1
 10
0.0
 20
0.0
 30
0.0
  0
VERTEX
  5
F1
330
F0
100
AcDbEntity
  8
\U+30EC\U+30A4\U+30E4\U+30FC 1
 62
    18
420
   196608
370
    18
100
AcDbVertex
100
AcDb2dVertex
 10
83.74372556500157
 20
-116.1789550490803
 30
0.0
  0
VERTEX
  5
F2
330
F0
100
AcDbEntity
  8
\U+30EC\U+30A4\U+30E4\U+30FC 1
 62
    18
420
   196608
370
    18
100
AcDbVertex
100
AcDb2dVertex
 10
83.74372556500157
 20
-115.4520399016925
 30
0.0
  0
SEQEND
  5
F3
330
F0
100
AcDbEntity
  8
\U+30EC\U+30A4\U+30E4\U+30FC 1
370
    18
  0
POLYLINE
  5
F4
330
1F
100
AcDbEntity
  8
\U+30EC\U+30A4\U+30E4\U+30FC 1
 62
    18
420
   196608
370
    18
100
AcDb2dPolyline
 66
     1
 10
0.0
 20
0.0
 30
0.0
  0
VERTEX
  5
F5
330
F4
100
AcDbEntity
  8
\U+30EC\U+30A4\U+30E4\U+30FC 1
 62
    18
420
   196608
370
    18
100
AcDbVertex
100
AcDb2dVertex
 10
80.89876571328226
 20
-116.5293212599302
 30
0.0
  0
VERTEX
  5
F6
330
F4
100
AcDbEntity
  8
\U+30EC\U+30A4\U+30E4\U+30FC 1
 62
    18
420
   196608
370
    18
100
AcDbVertex
100
AcDb2dVertex
 10
81.80827092138821
 20
-116.9051811773709
 30
0.0
  0
SEQEND
  5
F7
330
F4
100
AcDbEntity
  8
\U+30EC\U+30A4\U+30E4\U+30FC 1
370
    18
  0
SPLINE
  5
F8
330
1F
100
AcDbEntity
  8
\U+30EC\U+30A4\U+30E4\U+30FC 1
 62
    18
420
   196608
370
    18
100
AcDbSpline
210
0.0
220
0.0
230
1.0
 70
     8
 71
     3
 72
     8
 73
     4
 74
     0
 42
0.0000000001
 43
0.0000000001
 40
0.0
 40
0.0
 40
0.0
 40
0.0
 40
1.0
 40
1.0
 40
1.0
 40
1.0
 10
80.89876571328226
 20
-116.5293212599302
 30
0.0
 10
80.89876571328226
 20
-117.0464300922662
 30
0.0
 10
80.99643417028909
 20
-117.4863687857326
 30
0.0
 10
81.12838132737416
 20
-117.5683620582815
 30
0.0
  0
POLYLINE
  5
F9
330
1F
100
AcDbEntity
  8
\U+30EC\U+30A4\U+30E4\U+30FC 1
 62
    18
420
   196608
370
    18
100
AcDb2dPolyline
 66
     1
 10
0.0
 20
0.0
 30
0.0
  0
VERTEX
  5
FA
330
F9
100
AcDbEntity
  8
\U+30EC\U+30A4\U+30E4\U+30FC 1
 62
    18
420
   196608
370
    18
100
AcDbVertex
100
AcDb2dVertex
 10
80.89876571328226
 20
-116.5293212599302
 30
0.0
  0
VERTEX
  5
FB
330
F9
100
AcDbEntity
  8
\U+30EC\U+30A4\U+30E4\U+30FC 1
 62
    18
420
   196608
370
    18
100
AcDbVertex
100
AcDb2dVertex
 10
77.3182779754621
 20
-116.5293212599302
 30
0.0
  0
SEQEND
  5
FC
330
F9
100
AcDbEntity
  8
\U+30EC\U+30A4\U+30E4\U+30FC 1
370
    18
  0
SPLINE
  5
FD
330
1F
100
AcDbEntity
  8
\U+30EC\U+30A4\U+30E4\U+30FC 1
 62
    18
420
   196608
370
    18
100
AcDbSpline
210
0.0
220
0.0
230
1.0
 70
     8
 71
     3
 72
     8
 73
     4
 74
     0
 42
0.0000000001
 43
0.0000000001
 40
0.0
 40
0.0
 40
0.0
 40
0.0
 40
1.0
 40
1.0
 40
1.0
 40
1.0
 10
77.3182779754621
 20
-116.5293212599302
 30
0.0
 10
77.3182779754621
 20
-117.1108533778403
 30
0.0
 10
77.44023435563994
 20
-117.5814534211255
 30
0.0
 10
77.5906127735711
 20
-117.5814534211255
 30
0.0
  0
SPLINE
  5
FE
330
1F
100
AcDbEntity
  8
\U+30EC\U+30A4\U+30E4\U+30FC 1
 62
    18
420
   196608
370
    18
100
AcDbSpline
210
0.0
220
0.0
230
1.0
 70
     8
 71
     3
 72
    11
 73
     7
 74
     0
 42
0.0000000001
 43
0.0000000001
 40
0.0
 40
0.0
 40
0.0
 40
0.0
 40
1.0
 40
1.0
 40
1.0
 40
2.0
 40
2.0
 40
2.0
 40
2.0
 10
84.11803518947397
 20
-114.1866563299603
 30
0.0
 10
83.93716767649835
 20
-114.09329424231
 30
0.0
 10
83.77076956456078
 20
-114.5859428967007
 30
0.0
 10
83.7468261509383
 20
-115.2849527706579
 30
0.0
 10
83.7449313484214
 20
-115.3404188079705
 30
0.0
 10
83.74372556500157
 20
-115.3962293548315
 30
0.0
 10
83.74372556500157
 20
-115.4520399016925
 30
0.0
  0
SPLINE
  5
FF
330
1F
100
AcDbEntity
  8
\U+30EC\U+30A4\U+30E4\U+30FC 1
 62
    18
420
   196608
370
    18
100
AcDbSpline
210
0.0
220
0.0
230
1.0
 70
     8
 71
     3
 72
     8
 73
     4
 74
     0
 42
0.0000000001
 43
0.0000000001
 40
0.0
 40
0.0
 40
0.0
 40
0.0
 40
1.0
 40
1.0
 40
1.0
 40
1.0
 10
82.13900008797219
 20
-114.175287514859
 30
0.0
 10
82.12160235577169
 20
-114.175287514859
 30
0.0
 10
82.10368785924838
 20
-114.1804551580868
 30
0.0
 10
82.08680689137066
 20
-114.1918239731882
 30
0.0
  0
SPLINE
  5
100
330
1F
100
AcDbEntity
  8
\U+30EC\U+30A4\U+30E4\U+30FC 1
 62
    18
420
   196608
370
    18
100
AcDbSpline
210
0.0
220
0.0
230
1.0
 70
     8
 71
     3
 72
     8
 73
     4
 74
     0
 42
0.0000000001
 43
0.0000000001
 40
0.0
 40
0.0
 40
0.0
 40
0.0
 40
1.0
 40
1.0
 40
1.0
 40
1.0
 10
82.08680689137066
 20
-114.1918239731882
 30
0.0
 10
81.9259209322095
 20
-114.2903537040663
 30
0.0
 10
81.80827092138821
 20
-114.8253770329256
 30
0.0
 10
81.80827092138821
 20
-115.4520399016925
 30
0.0
  0
POLYLINE
  5
101
330
1F
100
AcDbEntity
  8
\U+30EC\U+30A4\U+30E4\U+30FC 1
 62
    18
420
   196608
370
    18
100
AcDb2dPolyline
 66
     1
 10
0.0
 20
0.0
 30
0.0
  0
VERTEX
  5
102
330
101
100
AcDbEntity
  8
\U+30EC\U+30A4\U+30E4\U+30FC 1
 62
    18
420
   196608
370
    18
100
AcDbVertex
100
AcDb2dVertex
 10
80.89876571328226
 20
-115.8278998191333
 30
0.0
  0
VERTEX
  5
103
330
101
100
AcDbEntity
  8
\U+30EC\U+30A4\U+30E4\U+30FC 1
 62
    18
420
   196608
370
    18
100
AcDbVertex
100
AcDb2dVertex
 10
81.80827092138821
 20
-115.4520399016925
 30
0.0
  0
SEQEND
  5
104
330
101
100
AcDbEntity
  8
\U+30EC\U+30A4\U+30E4\U+30FC 1
370
    18
  0
POLYLINE
  5
105
330
1F
100
AcDbEntity
  8
\U+30EC\U+30A4\U+30E4\U+30FC 1
 62
    18
420
   196608
370
    18
100
AcDb2dPolyline
 66
     1
 10
0.0
 20
0.0
 30
0.0
  0
VERTEX
  5
106
330
105
100
AcDbEntity
  8
\U+30EC\U+30A4\U+30E4\U+30FC 1
 62
    18
420
   196608
370
    18
100
AcDbVertex
100
AcDb2dVertex
 10
80.89876571328226
 20
-116.5293212599302
 30
0.0
  0
VERTEX
  5
107
330
105
100
AcDbEntity
  8
\U+30EC\U+30A4\U+30E4\U+30FC 1
 62
    18
420
   196608
370
    18
100
AcDbVertex
100
AcDb2dVertex
 10
80.89876571328226
 20
-115.8278998191333
 30
0.0
  0
SEQEND
  5
108
330
105
100
AcDbEntity
  8
\U+30EC\U+30A4\U+30E4\U+30FC 1
370
    18
  0
POLYLINE
  5
109
330
1F
100
AcDbEntity
  8
\U+30EC\U+30A4\U+30E4\U+30FC 1
 62
    18
420
   196608
370
    18
100
AcDb2dPolyline
 66
     1
 10
0.0
 20
0.0
 30
0.0
  0
VERTEX
  5
10A
330
109
100
AcDbEntity
  8
\U+30EC\U+30A4\U+30E4\U+30FC 1
 62
    18
420
   196608
370
    18
100
AcDbVertex
100
AcDb2dVertex
 10
77.3182779754621
 20
-115.8278998191333
 30
0.0
  0
VERTEX
  5
10B
330
109
100
AcDbEntity
  8
\U+30EC\U+30A4\U+30E4\U+30FC 1
 62
    18
420
   196608
370
    18
100
AcDbVertex
100
AcDb2dVertex
 10
80.89876571328226
 20
-115.8278998191333
 30
0.0
  0
SEQEND
  5
10C
330
109
100
AcDbEntity
  8
\U+30EC\U+30A4\U+30E4\U+30FC 1
370
    18
  0
POLYLINE
  5
10D
330
1F
100
AcDbEntity
  8
\U+30EC\U+30A4\U+30E4\U+30FC 1
 62
    18
420
   196608
370
    18
100
AcDb2dPolyline
 66
     1
 10
0.0
 20
0.0
 30
0.0
  0
VERTEX
  5
10E
330
10D
100
AcDbEntity
  8
\U+30EC\U+30A4\U+30E4\U+30FC 1
 62
    18
420
   196608
370
    18
100
AcDbVertex
100
AcDb2dVertex
 10
77.3182779754621
 20
-116.5293212599302
 30
0.0
  0
VERTEX
  5
10F
330
10D
100
AcDbEntity
  8
\U+30EC\U+30A4\U+30E4\U+30FC 1
 62
    18
420
   196608
370
    18
100
AcDbVertex
100
AcDb2dVertex
 10
77.3182779754621
 20
-115.8278998191333
 30
0.0
  0
SEQEND
  5
110
330
10D
100
AcDbEntity
  8
\U+30EC\U+30A4\U+30E4\U+30FC 1
370
    18
  0
POLYLINE
  5
111
330
1F
100
AcDbEntity
  8
\U+30EC\U+30A4\U+30E4\U+30FC 1
 62
    18
420
   196608
370
    18
100
AcDb2dPolyline
 66
     1
 10
0.0
 20
0.0
 30
0.0
  0
VERTEX
  5
112
330
111
100
AcDbEntity
  8
\U+30EC\U+30A4\U+30E4\U+30FC 1
 62
    18
420
   196608
370
    18
100
AcDbVertex
100
AcDb2dVertex
 10
76.0020792453224
 20
-117.0560763596249
 30
0.0
  0
VERTEX
  5
113
330
111
100
AcDbEntity
  8
\U+30EC\U+30A4\U+30E4\U+30FC 1
 62
    18
420
   196608
370
    18
100
AcDbVertex
100
AcDb2dVertex
 10
77.3182779754621
 20
-116.5293212599302
 30
0.0
  0
SEQEND
  5
114
330
111
100
AcDbEntity
  8
\U+30EC\U+30A4\U+30E4\U+30FC 1
370
    18
  0
SPLINE
  5
115
330
1F
100
AcDbEntity
  8
\U+30EC\U+30A4\U+30E4\U+30FC 1
 62
    18
420
   196608
370
    18
100
AcDbSpline
210
0.0
220
0.0
230
1.0
 70
     8
 71
     3
 72
     8
 73
     4
 74
     0
 42
0.0000000001
 43
0.0000000001
 40
0.0
 40
0.0
 40
0.0
 40
0.0
 40
1.0
 40
1.0
 40
1.0
 40
1.0
 10
76.0020792453224
 20
-117.0560763596249
 30
0.0
 10
76.0020792453224
 20
-117.760942895907
 30
0.0
 10
76.14987384163962
 20
-118.3328287464585
 30
0.0
 10
76.33280841190638
 20
-118.3328287464585
 30
0.0
  0
SPLINE
  5
116
330
1F
100
AcDbEntity
  8
\U+30EC\U+30A4\U+30E4\U+30FC 1
 62
    18
420
   196608
370
    18
100
AcDbSpline
210
0.0
220
0.0
230
1.0
 70
     8
 71
     3
 72
     8
 73
     4
 74
     0
 42
0.0000000001
 43
0.0000000001
 40
0.0
 40
0.0
 40
0.0
 40
0.0
 40
1.0
 40
1.0
 40
1.0
 40
1.0
 10
76.33280841190638
 20
-118.3328287464585
 30
0.0
 10
76.34934487023558
 20
-118.3328287464585
 30
0.0
 10
76.36605358333905
 20
-118.3283501223276
 30
0.0
 10
76.38293455121676
 20
-118.3180148358719
 30
0.0
  0
SPLINE
  5
117
330
1F
100
AcDbEntity
  8
\U+30EC\U+30A4\U+30E4\U+30FC 1
 62
    18
420
   196608
370
    18
100
AcDbSpline
210
0.0
220
0.0
230
1.0
 70
     8
 71
     3
 72
     8
 73
     4
 74
     0
 42
0.0000000001
 43
0.0000000001
 40
0.0
 40
0.0
 40
0.0
 40
0.0
 40
1.0
 40
1.0
 40
1.0
 40
1.0
 10
81.12838132737416
 20
-114.7898925494275
 30
0.0
 10
80.99643417028909
 20
-114.8708522933309
 30
0.0
 10
80.89876571328226
 20
-115.3107909867973
 30
0.0
 10
80.89876571328226
 20
-115.8278998191333
 30
0.0
  0
SPLINE
  5
118
330
1F
100
AcDbEntity
  8
\U+30EC\U+30A4\U+30E4\U+30FC 1
 62
    18
420
   196608
370
    18
100
AcDbSpline
210
0.0
220
0.0
230
1.0
 70
     8
 71
     3
 72
     8
 73
     4
 74
     0
 42
0.0000000001
 43
0.0000000001
 40
0.0
 40
0.0
 40
0.0
 40
0.0
 40
1.0
 40
1.0
 40
1.0
 40
1.0
 10
77.5906127735711
 20
-114.775767657938
 30
0.0
 10
77.44023435563994
 20
-114.775767657938
 30
0.0
 10
77.3182779754621
 20
-115.2474012298687
 30
0.0
 10
77.3182779754621
 20
-115.8278998191333
 30
0.0
  0
POLYLINE
  5
119
330
1F
100
AcDbEntity
  8
\U+30EC\U+30A4\U+30E4\U+30FC 1
 62
    18
420
   196608
370
    18
100
AcDb2dPolyline
 66
     1
 10
0.0
 20
0.0
 30
0.0
  0
VERTEX
  5
11A
330
119
100
AcDbEntity
  8
\U+30EC\U+30A4\U+30E4\U+30FC 1
 62
    18
420
   196608
370
    18
100
AcDbVertex
100
AcDb2dVertex
 10
76.0020792453224
 20
-115.3021782480842
 30
0.0
  0
VERTEX
  5
11B
330
119
100
AcDbEntity
  8
\U+30EC\U+30A4\U+30E4\U+30FC 1
 62
    18
420
   196608
370
    18
100
AcDbVertex
100
AcDb2dVertex
 10
77.3182779754621
 20
-115.8278998191333
 30
0.0
  0
SEQEND
  5
11C
330
119
100
AcDbEntity
  8
\U+30EC\U+30A4\U+30E4\U+30FC 1
370
    18
  0
POLYLINE
  5
11D
330
1F
100
AcDbEntity
  8
\U+30EC\U+30A4\U+30E4\U+30FC 1
 62
    18
420
   196608
370
    18
100
AcDb2dPolyline
 66
     1
 10
0.0
 20
0.0
 30
0.0
  0
VERTEX
  5
11E
330
11D
100
AcDbEntity
  8
\U+30EC\U+30A4\U+30E4\U+30FC 1
 62
    18
420
   196608
370
    18
100
AcDbVertex
100
AcDb2dVertex
 10
76.0020792453224
 20
-117.0560763596249
 30
0.0
  0
VERTEX
  5
11F
330
11D
100
AcDbEntity
  8
\U+30EC\U+30A4\U+30E4\U+30FC 1
 62
    18
420
   196608
370
    18
100
AcDbVertex
100
AcDb2dVertex
 10
76.0020792453224
 20
-115.3021782480842
 30
0.0
  0
SEQEND
  5
120
330
11D
100
AcDbEntity
  8
\U+30EC\U+30A4\U+30E4\U+30FC 1
370
    18
  0
POLYLINE
  5
121
330
1F
100
AcDbEntity
  8
\U+30EC\U+30A4\U+30E4\U+30FC 1
 62
    18
420
   196608
370
    18
100
AcDb2dPolyline
 66
     1
 10
0.0
 20
0.0
 30
0.0
  0
VERTEX
  5
122
330
121
100
AcDbEntity
  8
\U+30EC\U+30A4\U+30E4\U+30FC 1
 62
    18
420
   196608
370
    18
100
AcDbVertex
100
AcDb2dVertex
 10
76.0020792453224
 20
-117.0560763596249
 30
0.0
  0
VERTEX
  5
123
330
121
100
AcDbEntity
  8
\U+30EC\U+30A4\U+30E4\U+30FC 1
 62
    18
420
   196608
370
    18
100
AcDbVertex
100
AcDb2dVertex
 10
68.06647404982367
 20
-117.0560763596249
 30
0.0
  0
SEQEND
  5
124
330
121
100
AcDbEntity
  8
\U+30EC\U+30A4\U+30E4\U+30FC 1
370
    18
  0
SPLINE
  5
125
330
1F
100
AcDbEntity
  8
\U+30EC\U+30A4\U+30E4\U+30FC 1
 62
    18
420
   196608
370
    18
100
AcDbSpline
210
0.0
220
0.0
230
1.0
 70
     8
 71
     3
 72
     8
 73
     4
 74
     0
 42
0.0000000001
 43
0.0000000001
 40
0.0
 40
0.0
 40
0.0
 40
0.0
 40
1.0
 40
1.0
 40
1.0
 40
1.0
 10
76.33280841190638
 20
-114.0254258612506
 30
0.0
 10
76.14987384163962
 20
-114.0254258612506
 30
0.0
 10
76.0020792453224
 20
-114.5969672022535
 30
0.0
 10
76.0020792453224
 20
-115.3021782480842
 30
0.0
  0
SPLINE
  5
126
330
1F
100
AcDbEntity
  8
\U+30EC\U+30A4\U+30E4\U+30FC 1
 62
    18
420
   196608
370
    18
100
AcDbSpline
210
0.0
220
0.0
230
1.0
 70
     8
 71
     3
 72
     8
 73
     4
 74
     0
 42
0.0000000001
 43
0.0000000001
 40
0.0
 40
0.0
 40
0.0
 40
0.0
 40
1.0
 40
1.0
 40
1.0
 40
1.0
 10
76.38293455121676
 20
-114.0402397718372
 30
0.0
 10
76.36605358333905
 20
-114.0305935044785
 30
0.0
 10
76.34934487023558
 20
-114.0254258612506
 30
0.0
 10
76.33280841190638
 20
-114.0254258612506
 30
0.0
  0
POLYLINE
  5
127
330
1F
100
AcDbEntity
  8
\U+30EC\U+30A4\U+30E4\U+30FC 1
 62
    18
420
   196608
370
    18
100
AcDb2dPolyline
 66
     1
 10
0.0
 20
0.0
 30
0.0
  0
VERTEX
  5
128
330
127
100
AcDbEntity
  8
\U+30EC\U+30A4\U+30E4\U+30FC 1
 62
    18
420
   196608
370
    18
100
AcDbVertex
100
AcDb2dVertex
 10
76.0020792453224
 20
-115.3021782480842
 30
0.0
  0
VERTEX
  5
129
330
127
100
AcDbEntity
  8
\U+30EC\U+30A4\U+30E4\U+30FC 1
 62
    18
420
   196608
370
    18
100
AcDbVertex
100
AcDb2dVertex
 10
68.06647404982367
 20
-115.3021782480842
 30
0.0
  0
SEQEND
  5
12A
330
127
100
AcDbEntity
  8
\U+30EC\U+30A4\U+30E4\U+30FC 1
370
    18
  0
POLYLINE
  5
12B
330
1F
100
AcDbEntity
  8
\U+30EC\U+30A4\U+30E4\U+30FC 1
 62
    18
420
   196608
370
    18
100
AcDb2dPolyline
 66
     1
 10
0.0
 20
0.0
 30
0.0
  0
VERTEX
  5
12C
330
12B
100
AcDbEntity
  8
\U+30EC\U+30A4\U+30E4\U+30FC 1
 62
    18
420
   196608
370
    18
100
AcDbVertex
100
AcDb2dVertex
 10
68.06647404982367
 20
-117.0560763596249
 30
0.0
  0
VERTEX
  5
12D
330
12B
100
AcDbEntity
  8
\U+30EC\U+30A4\U+30E4\U+30FC 1
 62
    18
420
   196608
370
    18
100
AcDbVertex
100
AcDb2dVertex
 10
68.06647404982367
 20
-115.3021782480842
 30
0.0
  0
SEQEND
  5
12E
330
12B
100
AcDbEntity
  8
\U+30EC\U+30A4\U+30E4\U+30FC 1
370
    18
  0
SPLINE
  5
12F
330
1F
100
AcDbEntity
  8
\U+30EC\U+30A4\U+30E4\U+30FC 1
 62
    18
420
   196608
370
    18
100
AcDbSpline
210
0.0
220
0.0
230
1.0
 70
     8
 71
     3
 72
     8
 73
     4
 74
     0
 42
0.0000000001
 43
0.0000000001
 40
0.0
 40
0.0
 40
0.0
 40
0.0
 40
1.0
 40
1.0
 40
1.0
 40
1.0
 10
84.68682045408872
 20
-116.788392440421
 30
0.0
 10
84.37211098151114
 20
-116.8259439812102
 30
0.0
 10
84.05791827325636
 20
-116.8641845410965
 30
0.0
 10
83.74372556500157
 20
-116.9051811773709
 30
0.0
  0
SPLINE
  5
130
330
1F
100
AcDbEntity
  8
\U+30EC\U+30A4\U+30E4\U+30FC 1
 62
    18
420
   196608
370
    18
100
AcDbSpline
210
0.0
220
0.0
230
1.0
 70
     8
 71
     3
 72
     8
 73
     4
 74
     0
 42
0.0000000001
 43
0.0000000001
 40
0.0
 40
0.0
 40
0.0
 40
0.0
 40
1.0
 40
1.0
 40
1.0
 40
1.0
 10
83.74372556500157
 20
-115.4520399016925
 30
0.0
 10
84.05791827325636
 20
-115.493036537967
 30
0.0
 10
84.37211098151114
 20
-115.5323106264989
 30
0.0
 10
84.68682045408872
 20
-115.5698621672881
 30
0.0
  0
SPLINE
  5
131
330
1F
100
AcDbEntity
  8
\U+30EC\U+30A4\U+30E4\U+30FC 1
 62
    18
420
   196608
370
    18
100
AcDbSpline
210
0.0
220
0.0
230
1.0
 70
     8
 71
     3
 72
    11
 73
     7
 74
     0
 42
0.0000000001
 43
0.0000000001
 40
0.0
 40
0.0
 40
0.0
 40
0.0
 40
1.0
 40
1.0
 40
1.0
 40
2.0
 40
2.0
 40
2.0
 40
2.0
 10
87.46150035790893
 20
-115.1767767724211
 30
0.0
 10
87.31818438572255
 20
-115.1767767724211
 30
0.0
 10
87.20225692264388
 20
-115.6256727141491
 30
0.0
 10
87.20225692264388
 20
-116.1789550490803
 30
0.0
 10
87.20225692264388
 20
-116.7325818935599
 30
0.0
 10
87.31818438572255
 20
-117.181477835288
 30
0.0
 10
87.46150035790893
 20
-117.181477835288
 30
0.0
  0
POLYLINE
  5
132
330
1F
100
AcDbEntity
  8
\U+30EC\U+30A4\U+30E4\U+30FC 1
 62
    18
420
   196608
370
    18
100
AcDb2dPolyline
 66
     1
 10
0.0
 20
0.0
 30
0.0
  0
VERTEX
  5
133
330
132
100
AcDbEntity
  8
\U+30EC\U+30A4\U+30E4\U+30FC 1
 62
    18
420
   196608
370
    18
100
AcDbVertex
100
AcDb2dVertex
 10
87.46150035790893
 20
-117.181477835288
 30
0.0
  0
VERTEX
  5
134
330
132
100
AcDbEntity
  8
\U+30EC\U+30A4\U+30E4\U+30FC 1
 62
    18
420
   196608
370
    18
100
AcDbVertex
100
AcDb2dVertex
 10
253.1600856571961
 20
-117.181477835288
 30
0.0
  0
SEQEND
  5
135
330
132
100
AcDbEntity
  8
\U+30EC\U+30A4\U+30E4\U+30FC 1
370
    18
  0
POLYLINE
  5
136
330
1F
100
AcDbEntity
  8
\U+30EC\U+30A4\U+30E4\U+30FC 1
 62
    18
420
   196608
370
    18
100
AcDb2dPolyline
 66
     1
 10
0.0
 20
0.0
 30
0.0
  0
VERTEX
  5
137
330
136
100
AcDbEntity
  8
\U+30EC\U+30A4\U+30E4\U+30FC 1
 62
    18
420
   196608
370
    18
100
AcDbVertex
100
AcDb2dVertex
 10
87.46150035790893
 20
-115.1767767724211
 30
0.0
  0
VERTEX
  5
138
330
136
100
AcDbEntity
  8
\U+30EC\U+30A4\U+30E4\U+30FC 1
 62
    18
420
   196608
370
    18
100
AcDbVertex
100
AcDb2dVertex
 10
253.1600856571961
 20
-115.1767767724211
 30
0.0
  0
SEQEND
  5
139
330
136
100
AcDbEntity
  8
\U+30EC\U+30A4\U+30E4\U+30FC 1
370
    18
  0
POLYLINE
  5
13A
330
1F
100
AcDbEntity
  8
\U+30EC\U+30A4\U+30E4\U+30FC 1
 62
    18
420
   196608
370
    18
100
AcDb2dPolyline
 66
     1
 10
0.0
 20
0.0
 30
0.0
  0
VERTEX
  5
13B
330
13A
100
AcDbEntity
  8
\U+30EC\U+30A4\U+30E4\U+30FC 1
 62
    18
420
   196608
370
    18
100
AcDbVertex
100
AcDb2dVertex
 10
82.13900008797219
 20
-118.1829670928501
 30
0.0
  0
VERTEX
  5
13C
330
13A
100
AcDbEntity
  8
\U+30EC\U+30A4\U+30E4\U+30FC 1
 62
    18
420
   196608
370
    18
100
AcDbVertex
100
AcDb2dVertex
 10
84.07445473158556
 20
-118.1829670928501
 30
0.0
  0
SEQEND
  5
13D
330
13A
100
AcDbEntity
  8
\U+30EC\U+30A4\U+30E4\U+30FC 1
370
    18
  0
POLYLINE
  5
13E
330
1F
100
AcDbEntity
  8
\U+30EC\U+30A4\U+30E4\U+30FC 1
 62
    18
420
   196608
370
    18
100
AcDb2dPolyline
 66
     1
 10
0.0
 20
0.0
 30
0.0
  0
VERTEX
  5
13F
330
13E
100
AcDbEntity
  8
\U+30EC\U+30A4\U+30E4\U+30FC 1
 62
    18
420
   196608
370
    18
100
AcDbVertex
100
AcDb2dVertex
 10
81.12803681782563
 20
-117.5683620582815
 30
0.0
  0
VERTEX
  5
140
330
13E
100
AcDbEntity
  8
\U+30EC\U+30A4\U+30E4\U+30FC 1
 62
    18
420
   196608
370
    18
100
AcDbVertex
100
AcDb2dVertex
 10
82.08680689137066
 20
-118.1664306345209
 30
0.0
  0
SEQEND
  5
141
330
13E
100
AcDbEntity
  8
\U+30EC\U+30A4\U+30E4\U+30FC 1
370
    18
  0
POLYLINE
  5
142
330
1F
100
AcDbEntity
  8
\U+30EC\U+30A4\U+30E4\U+30FC 1
 62
    18
420
   196608
370
    18
100
AcDb2dPolyline
 66
     1
 10
0.0
 20
0.0
 30
0.0
  0
VERTEX
  5
143
330
142
100
AcDbEntity
  8
\U+30EC\U+30A4\U+30E4\U+30FC 1
 62
    18
420
   196608
370
    18
100
AcDbVertex
100
AcDb2dVertex
 10
81.14939640983418
 20
-117.5814534211255
 30
0.0
  0
VERTEX
  5
144
330
142
100
AcDbEntity
  8
\U+30EC\U+30A4\U+30E4\U+30FC 1
 62
    18
420
   196608
370
    18
100
AcDbVertex
100
AcDb2dVertex
 10
77.5906127735711
 20
-117.5814534211255
 30
0.0
  0
SEQEND
  5
145
330
142
100
AcDbEntity
  8
\U+30EC\U+30A4\U+30E4\U+30FC 1
370
    18
  0
POLYLINE
  5
146
330
1F
100
AcDbEntity
  8
\U+30EC\U+30A4\U+30E4\U+30FC 1
 62
    18
420
   196608
370
    18
100
AcDb2dPolyline
 66
     1
 10
0.0
 20
0.0
 30
0.0
  0
VERTEX
  5
147
330
146
100
AcDbEntity
  8
\U+30EC\U+30A4\U+30E4\U+30FC 1
 62
    18
420
   196608
370
    18
100
AcDbVertex
100
AcDb2dVertex
 10
84.07445473158556
 20
-114.175287514859
 30
0.0
  0
VERTEX
  5
148
330
146
100
AcDbEntity
  8
\U+30EC\U+30A4\U+30E4\U+30FC 1
 62
    18
420
   196608
370
    18
100
AcDbVertex
100
AcDb2dVertex
 10
82.13900008797219
 20
-114.175287514859
 30
0.0
  0
SEQEND
  5
149
330
146
100
AcDbEntity
  8
\U+30EC\U+30A4\U+30E4\U+30FC 1
370
    18
  0
POLYLINE
  5
14A
330
1F
100
AcDbEntity
  8
\U+30EC\U+30A4\U+30E4\U+30FC 1
 62
    18
420
   196608
370
    18
100
AcDb2dPolyline
 66
     1
 10
0.0
 20
0.0
 30
0.0
  0
VERTEX
  5
14B
330
14A
100
AcDbEntity
  8
\U+30EC\U+30A4\U+30E4\U+30FC 1
 62
    18
420
   196608
370
    18
100
AcDbVertex
100
AcDb2dVertex
 10
76.38293455121676
 20
-118.3180148358719
 30
0.0
  0
VERTEX
  5
14C
330
14A
100
AcDbEntity
  8
\U+30EC\U+30A4\U+30E4\U+30FC 1
 62
    18
420
   196608
370
    18
100
AcDbVertex
100
AcDb2dVertex
 10
77.61145560125686
 20
-117.5814534211255
 30
0.0
  0
SEQEND
  5
14D
330
14A
100
AcDbEntity
  8
\U+30EC\U+30A4\U+30E4\U+30FC 1
370
    18
  0
POLYLINE
  5
14E
330
1F
100
AcDbEntity
  8
\U+30EC\U+30A4\U+30E4\U+30FC 1
 62
    18
420
   196608
370
    18
100
AcDb2dPolyline
 66
     1
 10
0.0
 20
0.0
 30
0.0
  0
VERTEX
  5
14F
330
14E
100
AcDbEntity
  8
\U+30EC\U+30A4\U+30E4\U+30FC 1
 62
    18
420
   196608
370
    18
100
AcDbVertex
100
AcDb2dVertex
 10
81.12803681782563
 20
-114.7905815685246
 30
0.0
  0
VERTEX
  5
150
330
14E
100
AcDbEntity
  8
\U+30EC\U+30A4\U+30E4\U+30FC 1
 62
    18
420
   196608
370
    18
100
AcDbVertex
100
AcDb2dVertex
 10
82.08680689137066
 20
-114.1918239731882
 30
0.0
  0
SEQEND
  5
151
330
14E
100
AcDbEntity
  8
\U+30EC\U+30A4\U+30E4\U+30FC 1
370
    18
  0
POLYLINE
  5
152
330
1F
100
AcDbEntity
  8
\U+30EC\U+30A4\U+30E4\U+30FC 1
 62
    18
420
   196608
370
    18
100
AcDb2dPolyline
 66
     1
 10
0.0
 20
0.0
 30
0.0
  0
VERTEX
  5
153
330
152
100
AcDbEntity
  8
\U+30EC\U+30A4\U+30E4\U+30FC 1
 62
    18
420
   196608
370
    18
100
AcDbVertex
100
AcDb2dVertex
 10
77.5906127735711
 20
-114.775767657938
 30
0.0
  0
VERTEX
  5
154
330
152
100
AcDbEntity
  8
\U+30EC\U+30A4\U+30E4\U+30FC 1
 62
    18
420
   196608
370
    18
100
AcDbVertex
100
AcDb2dVertex
 10
81.14939640983418
 20
-114.775767657938
 30
0.0
  0
SEQEND
  5
155
330
152
100
AcDbEntity
  8
\U+30EC\U+30A4\U+30E4\U+30FC 1
370
    18
  0
POLYLINE
  5
156
330
1F
100
AcDbEntity
  8
\U+30EC\U+30A4\U+30E4\U+30FC 1
 62
    18
420
   196608
370
    18
100
AcDb2dPolyline
 66
     1
 10
0.0
 20
0.0
 30
0.0
  0
VERTEX
  5
157
330
156
100
AcDbEntity
  8
\U+30EC\U+30A4\U+30E4\U+30FC 1
 62
    18
420
   196608
370
    18
100
AcDbVertex
100
AcDb2dVertex
 10
76.33280841190638
 20
-118.3328287464585
 30
0.0
  0
VERTEX
  5
158
330
156
100
AcDbEntity
  8
\U+30EC\U+30A4\U+30E4\U+30FC 1
 62
    18
420
   196608
370
    18
100
AcDbVertex
100
AcDb2dVertex
 10
68.39720321640765
 20
-118.3328287464585
 30
0.0
  0
SEQEND
  5
159
330
156
100
AcDbEntity
  8
\U+30EC\U+30A4\U+30E4\U+30FC 1
370
    18
  0
POLYLINE
  5
15A
330
1F
100
AcDbEntity
  8
\U+30EC\U+30A4\U+30E4\U+30FC 1
 62
    18
420
   196608
370
    18
100
AcDb2dPolyline
 66
     1
 10
0.0
 20
0.0
 30
0.0
  0
VERTEX
  5
15B
330
15A
100
AcDbEntity
  8
\U+30EC\U+30A4\U+30E4\U+30FC 1
 62
    18
420
   196608
370
    18
100
AcDbVertex
100
AcDb2dVertex
 10
76.38293455121676
 20
-114.0402397718372
 30
0.0
  0
VERTEX
  5
15C
330
15A
100
AcDbEntity
  8
\U+30EC\U+30A4\U+30E4\U+30FC 1
 62
    18
420
   196608
370
    18
100
AcDbVertex
100
AcDb2dVertex
 10
77.61145560125686
 20
-114.775767657938
 30
0.0
  0
SEQEND
  5
15D
330
15A
100
AcDbEntity
  8
\U+30EC\U+30A4\U+30E4\U+30FC 1
370
    18
  0
POLYLINE
  5
15E
330
1F
100
AcDbEntity
  8
\U+30EC\U+30A4\U+30E4\U+30FC 1
 62
    18
420
   196608
370
    18
100
AcDb2dPolyline
 66
     1
 10
0.0
 20
0.0
 30
0.0
  0
VERTEX
  5
15F
330
15E
100
AcDbEntity
  8
\U+30EC\U+30A4\U+30E4\U+30FC 1
 62
    18
420
   196608
370
    18
100
AcDbVertex
100
AcDb2dVertex
 10
76.33280841190638
 20
-114.0254258612506
 30
0.0
  0
VERTEX
  5
160
330
15E
100
AcDbEntity
  8
\U+30EC\U+30A4\U+30E4\U+30FC 1
 62
    18
420
   196608
370
    18
100
AcDbVertex
100
AcDb2dVertex
 10
68.39720321640765
 20
-114.0254258612506
 30
0.0
  0
SEQEND
  5
161
330
15E
100
AcDbEntity
  8
\U+30EC\U+30A4\U+30E4\U+30FC 1
370
    18
  0
POLYLINE
  5
162
330
1F
100
AcDbEntity
  8
\U+30EC\U+30A4\U+30E4\U+30FC 1
 62
    18
420
   196608
370
    18
100
AcDb2dPolyline
 66
     1
 10
0.0
 20
0.0
 30
0.0
  0
VERTEX
  5
163
330
162
100
AcDbEntity
  8
\U+30EC\U+30A4\U+30E4\U+30FC 1
 62
    18
420
   196608
370
    18
100
AcDbVertex
100
AcDb2dVertex
 10
84.11803518947397
 20
-118.1715982777488
 30
0.0
  0
VERTEX
  5
164
330
162
100
AcDbEntity
  8
\U+30EC\U+30A4\U+30E4\U+30FC 1
 62
    18
420
   196608
370
    18
100
AcDbVertex
100
AcDb2dVertex
 10
85.06767575998309
 20
-117.6817056997462
 30
0.0
  0
SEQEND
  5
165
330
162
100
AcDbEntity
  8
\U+30EC\U+30A4\U+30E4\U+30FC 1
370
    18
  0
POLYLINE
  5
166
330
1F
100
AcDbEntity
  8
\U+30EC\U+30A4\U+30E4\U+30FC 1
 62
    18
420
   196608
370
    18
100
AcDb2dPolyline
 66
     1
 10
0.0
 20
0.0
 30
0.0
  0
VERTEX
  5
167
330
166
100
AcDbEntity
  8
\U+30EC\U+30A4\U+30E4\U+30FC 1
 62
    18
420
   196608
370
    18
100
AcDbVertex
100
AcDb2dVertex
 10
84.11803518947397
 20
-114.1873453490573
 30
0.0
  0
VERTEX
  5
168
330
166
100
AcDbEntity
  8
\U+30EC\U+30A4\U+30E4\U+30FC 1
 62
    18
420
   196608
370
    18
100
AcDbVertex
100
AcDb2dVertex
 10
85.06767575998309
 20
-114.6755153793172
 30
0.0
  0
SEQEND
  5
169
330
166
100
AcDbEntity
  8
\U+30EC\U+30A4\U+30E4\U+30FC 1
370
    18
  0
POLYLINE
  5
16A
330
1F
100
AcDbEntity
  8
\U+30EC\U+30A4\U+30E4\U+30FC 1
 62
    18
420
   196608
370
    18
100
AcDb2dPolyline
 66
     1
 10
0.0
 20
0.0
 30
0.0
  0
VERTEX
  5
16B
330
16A
100
AcDbEntity
  8
\U+30EC\U+30A4\U+30E4\U+30FC 1
 62
    18
420
   196608
370
    18
100
AcDbVertex
100
AcDb2dVertex
 10
253.1600856571961
 20
-123.6930528119587
 30
0.0
  0
VERTEX
  5
16C
330
16A
100
AcDbEntity
  8
\U+30EC\U+30A4\U+30E4\U+30FC 1
 62
    18
420
   196608
370
    18
100
AcDbVertex
100
AcDb2dVertex
 10
260.9873425996838
 20
-123.6930528119587
 30
0.0
  0
SEQEND
  5
16D
330
16A
100
AcDbEntity
  8
\U+30EC\U+30A4\U+30E4\U+30FC 1
370
    18
  0
SPLINE
  5
16E
330
1F
100
AcDbEntity
  8
\U+30EC\U+30A4\U+30E4\U+30FC 1
 62
    18
420
   196608
370
    18
100
AcDbSpline
210
0.0
220
0.0
230
1.0
 70
     8
 71
     3
 72
    11
 73
     7
 74
     0
 42
0.0000000001
 43
0.0000000001
 40
0.0
 40
0.0
 40
0.0
 40
0.0
 40
1.0
 40
1.0
 40
1.0
 40
2.0
 40
2.0
 40
2.0
 40
2.0
 10
253.1600856571961
 20
-123.6930528119587
 30
0.0
 10
253.0625894549635
 20
-123.6930528119587
 30
0.0
 10
252.9836967683513
 20
-123.9173285280485
 30
0.0
 10
252.9836967683513
 20
-124.1943142050625
 30
0.0
 10
252.9836967683513
 20
-124.4706108629796
 30
0.0
 10
253.0625894549635
 20
-124.6945420695208
 30
0.0
 10
253.1600856571961
 20
-124.6945420695208
 30
0.0
  0
POLYLINE
  5
16F
330
1F
100
AcDbEntity
  8
\U+30EC\U+30A4\U+30E4\U+30FC 1
 62
    18
420
   196608
370
    18
100
AcDb2dPolyline
 66
     1
 10
0.0
 20
0.0
 30
0.0
  0
VERTEX
  5
170
330
16F
100
AcDbEntity
  8
\U+30EC\U+30A4\U+30E4\U+30FC 1
 62
    18
420
   196608
370
    18
100
AcDbVertex
100
AcDb2dVertex
 10
253.1600856571961
 20
-124.6945420695208
 30
0.0
  0
VERTEX
  5
171
330
16F
100
AcDbEntity
  8
\U+30EC\U+30A4\U+30E4\U+30FC 1
 62
    18
420
   196608
370
    18
100
AcDbVertex
100
AcDb2dVertex
 10
260.9873425996838
 20
-124.6945420695208
 30
0.0
  0
SEQEND
  5
172
330
16F
100
AcDbEntity
  8
\U+30EC\U+30A4\U+30E4\U+30FC 1
370
    18
  0
SPLINE
  5
173
330
1F
100
AcDbEntity
  8
\U+30EC\U+30A4\U+30E4\U+30FC 1
 62
    18
420
   196608
370
    18
100
AcDbSpline
210
0.0
220
0.0
230
1.0
 70
     8
 71
     3
 72
    11
 73
     7
 74
     0
 42
0.0000000001
 43
0.0000000001
 40
0.0
 40
0.0
 40
0.0
 40
0.0
 40
1.0
 40
1.0
 40
1.0
 40
2.0
 40
2.0
 40
2.0
 40
2.0
 10
260.9873425996838
 20
-123.6930528119587
 30
0.0
 10
260.8912244356453
 20
-123.6930528119587
 30
0.0
 10
260.8119872394845
 20
-123.9173285280485
 30
0.0
 10
260.8119872394845
 20
-124.1943142050625
 30
0.0
 10
260.8119872394845
 20
-124.4706108629796
 30
0.0
 10
260.8912244356453
 20
-124.6945420695208
 30
0.0
 10
260.9873425996838
 20
-124.6945420695208
 30
0.0
  0
SPLINE
  5
174
330
1F
100
AcDbEntity
  8
\U+30EC\U+30A4\U+30E4\U+30FC 1
 62
    18
420
   196608
370
    18
100
AcDbSpline
210
0.0
220
0.0
230
1.0
 70
     8
 71
     3
 72
    11
 73
     7
 74
     0
 42
0.0000000001
 43
0.0000000001
 40
0.0
 40
0.0
 40
0.0
 40
0.0
 40
1.0
 40
1.0
 40
1.0
 40
2.0
 40
2.0
 40
2.0
 40
2.0
 10
260.9873425996838
 20
-124.6945420695208
 30
0.0
 10
261.0838052732707
 20
-124.6945420695208
 30
0.0
 10
261.1623534503344
 20
-124.4706108629796
 30
0.0
 10
261.1623534503344
 20
-124.1943142050625
 30
0.0
 10
261.1623534503344
 20
-123.9173285280485
 30
0.0
 10
261.0838052732707
 20
-123.6930528119587
 30
0.0
 10
260.9873425996838
 20
-123.6930528119587
 30
0.0
  0
SPLINE
  5
175
330
1F
100
AcDbEntity
  8
\U+30EC\U+30A4\U+30E4\U+30FC 1
 62
    18
420
   196608
370
    18
100
AcDbSpline
210
0.0
220
0.0
230
1.0
 70
     8
 71
     3
 72
    11
 73
     7
 74
     0
 42
0.0000000001
 43
0.0000000001
 40
0.0
 40
0.0
 40
0.0
 40
0.0
 40
1.0
 40
1.0
 40
1.0
 40
2.0
 40
2.0
 40
2.0
 40
2.0
 10
253.1600856571961
 20
-123.1928249475004
 30
0.0
 10
252.965782271828
 20
-123.1928249475004
 30
0.0
 10
252.8097194463462
 20
-123.6410318701314
 30
0.0
 10
252.8097194463462
 20
-124.1943142050625
 30
0.0
 10
252.8097194463462
 20
-124.7469075208966
 30
0.0
 10
252.965782271828
 20
-125.1958034626247
 30
0.0
 10
253.1600856571961
 20
-125.1958034626247
 30
0.0
  0
SPLINE
  5
176
330
1F
100
AcDbEntity
  8
\U+30EC\U+30A4\U+30E4\U+30FC 1
 62
    18
420
   196608
370
    18
100
AcDbSpline
210
0.0
220
0.0
230
1.0
 70
     8
 71
     3
 72
     8
 73
     4
 74
     0
 42
0.0000000001
 43
0.0000000001
 40
0.0
 40
0.0
 40
0.0
 40
0.0
 40
1.0
 40
1.0
 40
1.0
 40
1.0
 10
253.1600856571961
 20
-125.1958034626247
 30
0.0
 10
253.2844536042136
 20
-125.1958034626247
 30
0.0
 10
253.3998643029695
 20
-125.0049451727418
 30
0.0
 10
253.461876021704
 20
-124.6945420695208
 30
0.0
  0
SPLINE
  5
177
330
1F
100
AcDbEntity
  8
\U+30EC\U+30A4\U+30E4\U+30FC 1
 62
    18
420
   196608
370
    18
100
AcDbSpline
210
0.0
220
0.0
230
1.0
 70
     8
 71
     3
 72
     8
 73
     4
 74
     0
 42
0.0000000001
 43
0.0000000001
 40
0.0
 40
0.0
 40
0.0
 40
0.0
 40
1.0
 40
1.0
 40
1.0
 40
1.0
 10
253.461876021704
 20
-123.6930528119587
 30
0.0
 10
253.3998643029695
 20
-123.3829942182862
 30
0.0
 10
253.2844536042136
 20
-123.1928249475004
 30
0.0
 10
253.1600856571961
 20
-123.1928249475004
 30
0.0
  0
POLYLINE
  5
178
330
1F
100
AcDbEntity
  8
\U+30EC\U+30A4\U+30E4\U+30FC 1
 62
    18
420
   196608
370
    18
100
AcDb2dPolyline
 66
     1
 10
0.0
 20
0.0
 30
0.0
  0
VERTEX
  5
179
330
178
100
AcDbEntity
  8
\U+30EC\U+30A4\U+30E4\U+30FC 1
 62
    18
420
   196608
370
    18
100
AcDbVertex
100
AcDb2dVertex
 10
85.04200979861797
 20
-122.6908745352995
 30
0.0
  0
VERTEX
  5
17A
330
178
100
AcDbEntity
  8
\U+30EC\U+30A4\U+30E4\U+30FC 1
 62
    18
420
   196608
370
    18
100
AcDbVertex
100
AcDb2dVertex
 10
87.46150035790893
 20
-122.6908745352995
 30
0.0
  0
SEQEND
  5
17B
330
178
100
AcDbEntity
  8
\U+30EC\U+30A4\U+30E4\U+30FC 1
370
    18
  0
SPLINE
  5
17C
330
1F
100
AcDbEntity
  8
\U+30EC\U+30A4\U+30E4\U+30FC 1
 62
    18
420
   196608
370
    18
100
AcDbSpline
210
0.0
220
0.0
230
1.0
 70
     8
 71
     3
 72
    11
 73
     7
 74
     0
 42
0.0000000001
 43
0.0000000001
 40
0.0
 40
0.0
 40
0.0
 40
0.0
 40
1.0
 40
1.0
 40
1.0
 40
2.0
 40
2.0
 40
2.0
 40
2.0
 10
85.04200979861797
 20
-122.6908745352995
 30
0.0
 10
84.82755260466116
 20
-122.6908745352995
 30
0.0
 10
84.65323077310752
 20
-123.3647352122144
 30
0.0
 10
84.65323077310752
 20
-124.1943142050625
 30
0.0
 10
84.65323077310752
 20
-125.0242377074592
 30
0.0
 10
84.82755260466116
 20
-125.6970648557285
 30
0.0
 10
85.04200979861797
 20
-125.6970648557285
 30
0.0
  0
POLYLINE
  5
17D
330
1F
100
AcDbEntity
  8
\U+30EC\U+30A4\U+30E4\U+30FC 1
 62
    18
420
   196608
370
    18
100
AcDb2dPolyline
 66
     1
 10
0.0
 20
0.0
 30
0.0
  0
VERTEX
  5
17E
330
17D
100
AcDbEntity
  8
\U+30EC\U+30A4\U+30E4\U+30FC 1
 62
    18
420
   196608
370
    18
100
AcDbVertex
100
AcDb2dVertex
 10
85.04200979861797
 20
-125.6970648557285
 30
0.0
  0
VERTEX
  5
17F
330
17D
100
AcDbEntity
  8
\U+30EC\U+30A4\U+30E4\U+30FC 1
 62
    18
420
   196608
370
    18
100
AcDbVertex
100
AcDb2dVertex
 10
87.46150035790893
 20
-125.6970648557285
 30
0.0
  0
SEQEND
  5
180
330
17D
100
AcDbEntity
  8
\U+30EC\U+30A4\U+30E4\U+30FC 1
370
    18
  0
SPLINE
  5
181
330
1F
100
AcDbEntity
  8
\U+30EC\U+30A4\U+30E4\U+30FC 1
 62
    18
420
   196608
370
    18
100
AcDbSpline
210
0.0
220
0.0
230
1.0
 70
     8
 71
     3
 72
    11
 73
     7
 74
     0
 42
0.0000000001
 43
0.0000000001
 40
0.0
 40
0.0
 40
0.0
 40
0.0
 40
1.0
 40
1.0
 40
1.0
 40
2.0
 40
2.0
 40
2.0
 40
2.0
 10
87.46150035790893
 20
-122.6908745352995
 30
0.0
 10
87.2466986544036
 20
-122.6908745352995
 30
0.0
 10
87.07237682284996
 20
-123.3647352122144
 30
0.0
 10
87.07237682284996
 20
-124.1943142050625
 30
0.0
 10
87.07237682284996
 20
-125.0242377074592
 30
0.0
 10
87.2466986544036
 20
-125.6970648557285
 30
0.0
 10
87.46150035790893
 20
-125.6970648557285
 30
0.0
  0
SPLINE
  5
182
330
1F
100
AcDbEntity
  8
\U+30EC\U+30A4\U+30E4\U+30FC 1
 62
    18
420
   196608
370
    18
100
AcDbSpline
210
0.0
220
0.0
230
1.0
 70
     8
 71
     3
 72
     8
 73
     4
 74
     0
 42
0.0000000001
 43
0.0000000001
 40
0.0
 40
0.0
 40
0.0
 40
0.0
 40
1.0
 40
1.0
 40
1.0
 40
1.0
 10
87.46150035790893
 20
-125.6970648557285
 30
0.0
 10
87.57226017775972
 20
-125.6970648557285
 30
0.0
 10
87.67768009960837
 20
-125.5148193045588
 30
0.0
 10
87.75140514299271
 20
-125.1958034626247
 30
0.0
  0
SPLINE
  5
183
330
1F
100
AcDbEntity
  8
\U+30EC\U+30A4\U+30E4\U+30FC 1
 62
    18
420
   196608
370
    18
100
AcDbSpline
210
0.0
220
0.0
230
1.0
 70
     8
 71
     3
 72
     8
 73
     4
 74
     0
 42
0.0000000001
 43
0.0000000001
 40
0.0
 40
0.0
 40
0.0
 40
0.0
 40
1.0
 40
1.0
 40
1.0
 40
1.0
 10
87.75140514299271
 20
-123.1928249475004
 30
0.0
 10
87.67768009960837
 20
-122.8731200864692
 30
0.0
 10
87.57226017775972
 20
-122.6908745352995
 30
0.0
 10
87.46150035790893
 20
-122.6908745352995
 30
0.0
  0
SPLINE
  5
184
330
1F
100
AcDbEntity
  8
\U+30EC\U+30A4\U+30E4\U+30FC 1
 62
    18
420
   196608
370
    18
100
AcDbSpline
210
0.0
220
0.0
230
1.0
 70
     8
 71
     3
 72
     8
 73
     4
 74
     0
 42
0.0000000001
 43
0.0000000001
 40
0.0
 40
0.0
 40
0.0
 40
0.0
 40
1.0
 40
1.0
 40
1.0
 40
1.0
 10
84.07445473158556
 20
-126.1972927201868
 30
0.0
 10
84.0889241326236
 20
-126.1972927201868
 30
0.0
 10
84.10322127888739
 20
-126.1938476247015
 30
0.0
 10
84.11803518947397
 20
-126.186957433731
 30
0.0
  0
SPLINE
  5
185
330
1F
100
AcDbEntity
  8
\U+30EC\U+30A4\U+30E4\U+30FC 1
 62
    18
420
   196608
370
    18
100
AcDbSpline
210
0.0
220
0.0
230
1.0
 70
     8
 71
     3
 72
     8
 73
     4
 74
     0
 42
0.0000000001
 43
0.0000000001
 40
0.0
 40
0.0
 40
0.0
 40
0.0
 40
1.0
 40
1.0
 40
1.0
 40
1.0
 10
83.74372556500157
 20
-124.9205403333532
 30
0.0
 10
83.74372556500157
 20
-125.6254068696353
 30
0.0
 10
83.89186467086732
 20
-126.1972927201868
 30
0.0
 10
84.07445473158556
 20
-126.1972927201868
 30
0.0
  0
POLYLINE
  5
186
330
1F
100
AcDbEntity
  8
\U+30EC\U+30A4\U+30E4\U+30FC 1
 62
    18
420
   196608
370
    18
100
AcDb2dPolyline
 66
     1
 10
0.0
 20
0.0
 30
0.0
  0
VERTEX
  5
187
330
186
100
AcDbEntity
  8
\U+30EC\U+30A4\U+30E4\U+30FC 1
 62
    18
420
   196608
370
    18
100
AcDbVertex
100
AcDb2dVertex
 10
81.80827092138821
 20
-124.9205403333532
 30
0.0
  0
VERTEX
  5
188
330
186
100
AcDbEntity
  8
\U+30EC\U+30A4\U+30E4\U+30FC 1
 62
    18
420
   196608
370
    18
100
AcDbVertex
100
AcDb2dVertex
 10
83.74372556500157
 20
-124.9205403333532
 30
0.0
  0
SEQEND
  5
189
330
186
100
AcDbEntity
  8
\U+30EC\U+30A4\U+30E4\U+30FC 1
370
    18
  0
SPLINE
  5
18A
330
1F
100
AcDbEntity
  8
\U+30EC\U+30A4\U+30E4\U+30FC 1
 62
    18
420
   196608
370
    18
100
AcDbSpline
210
0.0
220
0.0
230
1.0
 70
     8
 71
     3
 72
     8
 73
     4
 74
     0
 42
0.0000000001
 43
0.0000000001
 40
0.0
 40
0.0
 40
0.0
 40
0.0
 40
1.0
 40
1.0
 40
1.0
 40
1.0
 10
81.80827092138821
 20
-124.9205403333532
 30
0.0
 10
81.80827092138821
 20
-125.5478922212172
 30
0.0
 10
81.9259209322095
 20
-126.0822265309795
 30
0.0
 10
82.08680689137066
 20
-126.1817897905032
 30
0.0
  0
SPLINE
  5
18B
330
1F
100
AcDbEntity
  8
\U+30EC\U+30A4\U+30E4\U+30FC 1
 62
    18
420
   196608
370
    18
100
AcDbSpline
210
0.0
220
0.0
230
1.0
 70
     8
 71
     3
 72
     8
 73
     4
 74
     0
 42
0.0000000001
 43
0.0000000001
 40
0.0
 40
0.0
 40
0.0
 40
0.0
 40
1.0
 40
1.0
 40
1.0
 40
1.0
 10
82.08680689137066
 20
-126.1817897905032
 30
0.0
 10
82.10368785924838
 20
-126.1921250769589
 30
0.0
 10
82.12160235577169
 20
-126.1972927201868
 30
0.0
 10
82.13900008797219
 20
-126.1972927201868
 30
0.0
  0
POLYLINE
  5
18C
330
1F
100
AcDbEntity
  8
\U+30EC\U+30A4\U+30E4\U+30FC 1
 62
    18
420
   196608
370
    18
100
AcDb2dPolyline
 66
     1
 10
0.0
 20
0.0
 30
0.0
  0
VERTEX
  5
18D
330
18C
100
AcDbEntity
  8
\U+30EC\U+30A4\U+30E4\U+30FC 1
 62
    18
420
   196608
370
    18
100
AcDbVertex
100
AcDb2dVertex
 10
83.74372556500157
 20
-123.4673990576748
 30
0.0
  0
VERTEX
  5
18E
330
18C
100
AcDbEntity
  8
\U+30EC\U+30A4\U+30E4\U+30FC 1
 62
    18
420
   196608
370
    18
100
AcDbVertex
100
AcDb2dVertex
 10
81.80827092138821
 20
-123.4673990576748
 30
0.0
  0
SEQEND
  5
18F
330
18C
100
AcDbEntity
  8
\U+30EC\U+30A4\U+30E4\U+30FC 1
370
    18
  0
POLYLINE
  5
190
330
1F
100
AcDbEntity
  8
\U+30EC\U+30A4\U+30E4\U+30FC 1
 62
    18
420
   196608
370
    18
100
AcDb2dPolyline
 66
     1
 10
0.0
 20
0.0
 30
0.0
  0
VERTEX
  5
191
330
190
100
AcDbEntity
  8
\U+30EC\U+30A4\U+30E4\U+30FC 1
 62
    18
420
   196608
370
    18
100
AcDbVertex
100
AcDb2dVertex
 10
81.80827092138821
 20
-124.9205403333532
 30
0.0
  0
VERTEX
  5
192
330
190
100
AcDbEntity
  8
\U+30EC\U+30A4\U+30E4\U+30FC 1
 62
    18
420
   196608
370
    18
100
AcDbVertex
100
AcDb2dVertex
 10
81.80827092138821
 20
-123.4673990576748
 30
0.0
  0
SEQEND
  5
193
330
190
100
AcDbEntity
  8
\U+30EC\U+30A4\U+30E4\U+30FC 1
370
    18
  0
POLYLINE
  5
194
330
1F
100
AcDbEntity
  8
\U+30EC\U+30A4\U+30E4\U+30FC 1
 62
    18
420
   196608
370
    18
100
AcDb2dPolyline
 66
     1
 10
0.0
 20
0.0
 30
0.0
  0
VERTEX
  5
195
330
194
100
AcDbEntity
  8
\U+30EC\U+30A4\U+30E4\U+30FC 1
 62
    18
420
   196608
370
    18
100
AcDbVertex
100
AcDb2dVertex
 10
83.74372556500157
 20
-124.9205403333532
 30
0.0
  0
VERTEX
  5
196
330
194
100
AcDbEntity
  8
\U+30EC\U+30A4\U+30E4\U+30FC 1
 62
    18
420
   196608
370
    18
100
AcDbVertex
100
AcDb2dVertex
 10
83.74372556500157
 20
-124.1943142050625
 30
0.0
  0
SEQEND
  5
197
330
194
100
AcDbEntity
  8
\U+30EC\U+30A4\U+30E4\U+30FC 1
370
    18
  0
POLYLINE
  5
198
330
1F
100
AcDbEntity
  8
\U+30EC\U+30A4\U+30E4\U+30FC 1
 62
    18
420
   196608
370
    18
100
AcDb2dPolyline
 66
     1
 10
0.0
 20
0.0
 30
0.0
  0
VERTEX
  5
199
330
198
100
AcDbEntity
  8
\U+30EC\U+30A4\U+30E4\U+30FC 1
 62
    18
420
   196608
370
    18
100
AcDbVertex
100
AcDb2dVertex
 10
83.74372556500157
 20
-124.1943142050625
 30
0.0
  0
VERTEX
  5
19A
330
198
100
AcDbEntity
  8
\U+30EC\U+30A4\U+30E4\U+30FC 1
 62
    18
420
   196608
370
    18
100
AcDbVertex
100
AcDb2dVertex
 10
83.74372556500157
 20
-123.4673990576748
 30
0.0
  0
SEQEND
  5
19B
330
198
100
AcDbEntity
  8
\U+30EC\U+30A4\U+30E4\U+30FC 1
370
    18
  0
POLYLINE
  5
19C
330
1F
100
AcDbEntity
  8
\U+30EC\U+30A4\U+30E4\U+30FC 1
 62
    18
420
   196608
370
    18
100
AcDb2dPolyline
 66
     1
 10
0.0
 20
0.0
 30
0.0
  0
VERTEX
  5
19D
330
19C
100
AcDbEntity
  8
\U+30EC\U+30A4\U+30E4\U+30FC 1
 62
    18
420
   196608
370
    18
100
AcDbVertex
100
AcDb2dVertex
 10
80.89876571328226
 20
-124.5446804159125
 30
0.0
  0
VERTEX
  5
19E
330
19C
100
AcDbEntity
  8
\U+30EC\U+30A4\U+30E4\U+30FC 1
 62
    18
420
   196608
370
    18
100
AcDbVertex
100
AcDb2dVertex
 10
81.80827092138821
 20
-124.9205403333532
 30
0.0
  0
SEQEND
  5
19F
330
19C
100
AcDbEntity
  8
\U+30EC\U+30A4\U+30E4\U+30FC 1
370
    18
  0
SPLINE
  5
1A0
330
1F
100
AcDbEntity
  8
\U+30EC\U+30A4\U+30E4\U+30FC 1
 62
    18
420
   196608
370
    18
100
AcDbSpline
210
0.0
220
0.0
230
1.0
 70
     8
 71
     3
 72
     8
 73
     4
 74
     0
 42
0.0000000001
 43
0.0000000001
 40
0.0
 40
0.0
 40
0.0
 40
0.0
 40
1.0
 40
1.0
 40
1.0
 40
1.0
 10
80.89876571328226
 20
-124.5446804159125
 30
0.0
 10
80.89876571328226
 20
-125.0617892482484
 30
0.0
 10
80.99643417028909
 20
-125.5017279417148
 30
0.0
 10
81.12838132737416
 20
-125.5837212142638
 30
0.0
  0
POLYLINE
  5
1A1
330
1F
100
AcDbEntity
  8
\U+30EC\U+30A4\U+30E4\U+30FC 1
 62
    18
420
   196608
370
    18
100
AcDb2dPolyline
 66
     1
 10
0.0
 20
0.0
 30
0.0
  0
VERTEX
  5
1A2
330
1A1
100
AcDbEntity
  8
\U+30EC\U+30A4\U+30E4\U+30FC 1
 62
    18
420
   196608
370
    18
100
AcDbVertex
100
AcDb2dVertex
 10
80.89876571328226
 20
-124.5446804159125
 30
0.0
  0
VERTEX
  5
1A3
330
1A1
100
AcDbEntity
  8
\U+30EC\U+30A4\U+30E4\U+30FC 1
 62
    18
420
   196608
370
    18
100
AcDbVertex
100
AcDb2dVertex
 10
77.3182779754621
 20
-124.5446804159125
 30
0.0
  0
SEQEND
  5
1A4
330
1A1
100
AcDbEntity
  8
\U+30EC\U+30A4\U+30E4\U+30FC 1
370
    18
  0
SPLINE
  5
1A5
330
1F
100
AcDbEntity
  8
\U+30EC\U+30A4\U+30E4\U+30FC 1
 62
    18
420
   196608
370
    18
100
AcDbSpline
210
0.0
220
0.0
230
1.0
 70
     8
 71
     3
 72
     8
 73
     4
 74
     0
 42
0.0000000001
 43
0.0000000001
 40
0.0
 40
0.0
 40
0.0
 40
0.0
 40
1.0
 40
1.0
 40
1.0
 40
1.0
 10
77.3182779754621
 20
-124.5446804159125
 30
0.0
 10
77.3182779754621
 20
-125.125179005177
 30
0.0
 10
77.44023435563994
 20
-125.5968125771077
 30
0.0
 10
77.5906127735711
 20
-125.5968125771077
 30
0.0
  0
SPLINE
  5
1A6
330
1F
100
AcDbEntity
  8
\U+30EC\U+30A4\U+30E4\U+30FC 1
 62
    18
420
   196608
370
    18
100
AcDbSpline
210
0.0
220
0.0
230
1.0
 70
     8
 71
     3
 72
    11
 73
     7
 74
     0
 42
0.0000000001
 43
0.0000000001
 40
0.0
 40
0.0
 40
0.0
 40
0.0
 40
1.0
 40
1.0
 40
1.0
 40
2.0
 40
2.0
 40
2.0
 40
2.0
 10
84.11803518947397
 20
-122.2020154859426
 30
0.0
 10
83.93716767649835
 20
-122.1086533982923
 30
0.0
 10
83.77076956456078
 20
-122.6002685240374
 30
0.0
 10
83.7468261509383
 20
-123.2999674170917
 30
0.0
 10
83.7449313484214
 20
-123.3557779639527
 30
0.0
 10
83.74372556500157
 20
-123.4115885108138
 30
0.0
 10
83.74372556500157
 20
-123.4673990576748
 30
0.0
  0
SPLINE
  5
1A7
330
1F
100
AcDbEntity
  8
\U+30EC\U+30A4\U+30E4\U+30FC 1
 62
    18
420
   196608
370
    18
100
AcDbSpline
210
0.0
220
0.0
230
1.0
 70
     8
 71
     3
 72
     8
 73
     4
 74
     0
 42
0.0000000001
 43
0.0000000001
 40
0.0
 40
0.0
 40
0.0
 40
0.0
 40
1.0
 40
1.0
 40
1.0
 40
1.0
 10
82.13900008797219
 20
-122.1896131421957
 30
0.0
 10
82.12160235577169
 20
-122.1896131421957
 30
0.0
 10
82.10368785924838
 20
-122.1958143140691
 30
0.0
 10
82.08680689137066
 20
-122.2061496005249
 30
0.0
  0
SPLINE
  5
1A8
330
1F
100
AcDbEntity
  8
\U+30EC\U+30A4\U+30E4\U+30FC 1
 62
    18
420
   196608
370
    18
100
AcDbSpline
210
0.0
220
0.0
230
1.0
 70
     8
 71
     3
 72
     8
 73
     4
 74
     0
 42
0.0000000001
 43
0.0000000001
 40
0.0
 40
0.0
 40
0.0
 40
0.0
 40
1.0
 40
1.0
 40
1.0
 40
1.0
 10
82.08680689137066
 20
-122.2061496005249
 30
0.0
 10
81.9259209322095
 20
-122.3064018791456
 30
0.0
 10
81.80827092138821
 20
-122.8400471698108
 30
0.0
 10
81.80827092138821
 20
-123.4673990576748
 30
0.0
  0
POLYLINE
  5
1A9
330
1F
100
AcDbEntity
  8
\U+30EC\U+30A4\U+30E4\U+30FC 1
 62
    18
420
   196608
370
    18
100
AcDb2dPolyline
 66
     1
 10
0.0
 20
0.0
 30
0.0
  0
VERTEX
  5
1AA
330
1A9
100
AcDbEntity
  8
\U+30EC\U+30A4\U+30E4\U+30FC 1
 62
    18
420
   196608
370
    18
100
AcDbVertex
100
AcDb2dVertex
 10
80.89876571328226
 20
-123.8439479942126
 30
0.0
  0
VERTEX
  5
1AB
330
1A9
100
AcDbEntity
  8
\U+30EC\U+30A4\U+30E4\U+30FC 1
 62
    18
420
   196608
370
    18
100
AcDbVertex
100
AcDb2dVertex
 10
81.80827092138821
 20
-123.4673990576748
 30
0.0
  0
SEQEND
  5
1AC
330
1A9
100
AcDbEntity
  8
\U+30EC\U+30A4\U+30E4\U+30FC 1
370
    18
  0
POLYLINE
  5
1AD
330
1F
100
AcDbEntity
  8
\U+30EC\U+30A4\U+30E4\U+30FC 1
 62
    18
420
   196608
370
    18
100
AcDb2dPolyline
 66
     1
 10
0.0
 20
0.0
 30
0.0
  0
VERTEX
  5
1AE
330
1AD
100
AcDbEntity
  8
\U+30EC\U+30A4\U+30E4\U+30FC 1
 62
    18
420
   196608
370
    18
100
AcDbVertex
100
AcDb2dVertex
 10
80.89876571328226
 20
-124.5446804159125
 30
0.0
  0
VERTEX
  5
1AF
330
1AD
100
AcDbEntity
  8
\U+30EC\U+30A4\U+30E4\U+30FC 1
 62
    18
420
   196608
370
    18
100
AcDbVertex
100
AcDb2dVertex
 10
80.89876571328226
 20
-123.8439479942126
 30
0.0
  0
SEQEND
  5
1B0
330
1AD
100
AcDbEntity
  8
\U+30EC\U+30A4\U+30E4\U+30FC 1
370
    18
  0
POLYLINE
  5
1B1
330
1F
100
AcDbEntity
  8
\U+30EC\U+30A4\U+30E4\U+30FC 1
 62
    18
420
   196608
370
    18
100
AcDb2dPolyline
 66
     1
 10
0.0
 20
0.0
 30
0.0
  0
VERTEX
  5
1B2
330
1B1
100
AcDbEntity
  8
\U+30EC\U+30A4\U+30E4\U+30FC 1
 62
    18
420
   196608
370
    18
100
AcDbVertex
100
AcDb2dVertex
 10
77.3182779754621
 20
-123.8439479942126
 30
0.0
  0
VERTEX
  5
1B3
330
1B1
100
AcDbEntity
  8
\U+30EC\U+30A4\U+30E4\U+30FC 1
 62
    18
420
   196608
370
    18
100
AcDbVertex
100
AcDb2dVertex
 10
80.89876571328226
 20
-123.8439479942126
 30
0.0
  0
SEQEND
  5
1B4
330
1B1
100
AcDbEntity
  8
\U+30EC\U+30A4\U+30E4\U+30FC 1
370
    18
  0
POLYLINE
  5
1B5
330
1F
100
AcDbEntity
  8
\U+30EC\U+30A4\U+30E4\U+30FC 1
 62
    18
420
   196608
370
    18
100
AcDb2dPolyline
 66
     1
 10
0.0
 20
0.0
 30
0.0
  0
VERTEX
  5
1B6
330
1B5
100
AcDbEntity
  8
\U+30EC\U+30A4\U+30E4\U+30FC 1
 62
    18
420
   196608
370
    18
100
AcDbVertex
100
AcDb2dVertex
 10
77.3182779754621
 20
-124.5446804159125
 30
0.0
  0
VERTEX
  5
1B7
330
1B5
100
AcDbEntity
  8
\U+30EC\U+30A4\U+30E4\U+30FC 1
 62
    18
420
   196608
370
    18
100
AcDbVertex
100
AcDb2dVertex
 10
77.3182779754621
 20
-123.8439479942126
 30
0.0
  0
SEQEND
  5
1B8
330
1B5
100
AcDbEntity
  8
\U+30EC\U+30A4\U+30E4\U+30FC 1
370
    18
  0
POLYLINE
  5
1B9
330
1F
100
AcDbEntity
  8
\U+30EC\U+30A4\U+30E4\U+30FC 1
 62
    18
420
   196608
370
    18
100
AcDb2dPolyline
 66
     1
 10
0.0
 20
0.0
 30
0.0
  0
VERTEX
  5
1BA
330
1B9
100
AcDbEntity
  8
\U+30EC\U+30A4\U+30E4\U+30FC 1
 62
    18
420
   196608
370
    18
100
AcDbVertex
100
AcDb2dVertex
 10
76.0020792453224
 20
-125.0704019869616
 30
0.0
  0
VERTEX
  5
1BB
330
1B9
100
AcDbEntity
  8
\U+30EC\U+30A4\U+30E4\U+30FC 1
 62
    18
420
   196608
370
    18
100
AcDbVertex
100
AcDb2dVertex
 10
77.3182779754621
 20
-124.5446804159125
 30
0.0
  0
SEQEND
  5
1BC
330
1B9
100
AcDbEntity
  8
\U+30EC\U+30A4\U+30E4\U+30FC 1
370
    18
  0
SPLINE
  5
1BD
330
1F
100
AcDbEntity
  8
\U+30EC\U+30A4\U+30E4\U+30FC 1
 62
    18
420
   196608
370
    18
100
AcDbSpline
210
0.0
220
0.0
230
1.0
 70
     8
 71
     3
 72
     8
 73
     4
 74
     0
 42
0.0000000001
 43
0.0000000001
 40
0.0
 40
0.0
 40
0.0
 40
0.0
 40
1.0
 40
1.0
 40
1.0
 40
1.0
 10
76.0020792453224
 20
-125.0704019869616
 30
0.0
 10
76.0020792453224
 20
-125.7763020518893
 30
0.0
 10
76.14987384163962
 20
-126.3481879024407
 30
0.0
 10
76.33280841190638
 20
-126.3481879024407
 30
0.0
  0
SPLINE
  5
1BE
330
1F
100
AcDbEntity
  8
\U+30EC\U+30A4\U+30E4\U+30FC 1
 62
    18
420
   196608
370
    18
100
AcDbSpline
210
0.0
220
0.0
230
1.0
 70
     8
 71
     3
 72
     8
 73
     4
 74
     0
 42
0.0000000001
 43
0.0000000001
 40
0.0
 40
0.0
 40
0.0
 40
0.0
 40
1.0
 40
1.0
 40
1.0
 40
1.0
 10
76.33280841190638
 20
-126.3481879024407
 30
0.0
 10
76.34934487023558
 20
-126.3481879024407
 30
0.0
 10
76.36605358333905
 20
-126.3430202592129
 30
0.0
 10
76.38293455121676
 20
-126.3333739918542
 30
0.0
  0
SPLINE
  5
1BF
330
1F
100
AcDbEntity
  8
\U+30EC\U+30A4\U+30E4\U+30FC 1
 62
    18
420
   196608
370
    18
100
AcDbSpline
210
0.0
220
0.0
230
1.0
 70
     8
 71
     3
 72
     8
 73
     4
 74
     0
 42
0.0000000001
 43
0.0000000001
 40
0.0
 40
0.0
 40
0.0
 40
0.0
 40
1.0
 40
1.0
 40
1.0
 40
1.0
 10
81.12838132737416
 20
-122.8042181767642
 30
0.0
 10
80.99643417028909
 20
-122.8869004684102
 30
0.0
 10
80.89876571328226
 20
-123.3261501427796
 30
0.0
 10
80.89876571328226
 20
-123.8439479942126
 30
0.0
  0
SPLINE
  5
1C0
330
1F
100
AcDbEntity
  8
\U+30EC\U+30A4\U+30E4\U+30FC 1
 62
    18
420
   196608
370
    18
100
AcDbSpline
210
0.0
220
0.0
230
1.0
 70
     8
 71
     3
 72
     8
 73
     4
 74
     0
 42
0.0000000001
 43
0.0000000001
 40
0.0
 40
0.0
 40
0.0
 40
0.0
 40
1.0
 40
1.0
 40
1.0
 40
1.0
 10
77.5906127735711
 20
-122.7918158330173
 30
0.0
 10
77.44023435563994
 20
-122.7918158330173
 30
0.0
 10
77.3182779754621
 20
-123.262760385851
 30
0.0
 10
77.3182779754621
 20
-123.8439479942126
 30
0.0
  0
POLYLINE
  5
1C1
330
1F
100
AcDbEntity
  8
\U+30EC\U+30A4\U+30E4\U+30FC 1
 62
    18
420
   196608
370
    18
100
AcDb2dPolyline
 66
     1
 10
0.0
 20
0.0
 30
0.0
  0
VERTEX
  5
1C2
330
1C1
100
AcDbEntity
  8
\U+30EC\U+30A4\U+30E4\U+30FC 1
 62
    18
420
   196608
370
    18
100
AcDbVertex
100
AcDb2dVertex
 10
76.0020792453224
 20
-123.3175374040665
 30
0.0
  0
VERTEX
  5
1C3
330
1C1
100
AcDbEntity
  8
\U+30EC\U+30A4\U+30E4\U+30FC 1
 62
    18
420
   196608
370
    18
100
AcDbVertex
100
AcDb2dVertex
 10
77.3182779754621
 20
-123.8439479942126
 30
0.0
  0
SEQEND
  5
1C4
330
1C1
100
AcDbEntity
  8
\U+30EC\U+30A4\U+30E4\U+30FC 1
370
    18
  0
POLYLINE
  5
1C5
330
1F
100
AcDbEntity
  8
\U+30EC\U+30A4\U+30E4\U+30FC 1
 62
    18
420
   196608
370
    18
100
AcDb2dPolyline
 66
     1
 10
0.0
 20
0.0
 30
0.0
  0
VERTEX
  5
1C6
330
1C5
100
AcDbEntity
  8
\U+30EC\U+30A4\U+30E4\U+30FC 1
 62
    18
420
   196608
370
    18
100
AcDbVertex
100
AcDb2dVertex
 10
76.0020792453224
 20
-125.0704019869616
 30
0.0
  0
VERTEX
  5
1C7
330
1C5
100
AcDbEntity
  8
\U+30EC\U+30A4\U+30E4\U+30FC 1
 62
    18
420
   196608
370
    18
100
AcDbVertex
100
AcDb2dVertex
 10
76.0020792453224
 20
-123.3175374040665
 30
0.0
  0
SEQEND
  5
1C8
330
1C5
100
AcDbEntity
  8
\U+30EC\U+30A4\U+30E4\U+30FC 1
370
    18
  0
POLYLINE
  5
1C9
330
1F
100
AcDbEntity
  8
\U+30EC\U+30A4\U+30E4\U+30FC 1
 62
    18
420
   196608
370
    18
100
AcDb2dPolyline
 66
     1
 10
0.0
 20
0.0
 30
0.0
  0
VERTEX
  5
1CA
330
1C9
100
AcDbEntity
  8
\U+30EC\U+30A4\U+30E4\U+30FC 1
 62
    18
420
   196608
370
    18
100
AcDbVertex
100
AcDb2dVertex
 10
76.0020792453224
 20
-125.0704019869616
 30
0.0
  0
VERTEX
  5
1CB
330
1C9
100
AcDbEntity
  8
\U+30EC\U+30A4\U+30E4\U+30FC 1
 62
    18
420
   196608
370
    18
100
AcDbVertex
100
AcDb2dVertex
 10
68.06647404982367
 20
-125.0704019869616
 30
0.0
  0
SEQEND
  5
1CC
330
1C9
100
AcDbEntity
  8
\U+30EC\U+30A4\U+30E4\U+30FC 1
370
    18
  0
SPLINE
  5
1CD
330
1F
100
AcDbEntity
  8
\U+30EC\U+30A4\U+30E4\U+30FC 1
 62
    18
420
   196608
370
    18
100
AcDbSpline
210
0.0
220
0.0
230
1.0
 70
     8
 71
     3
 72
     8
 73
     4
 74
     0
 42
0.0000000001
 43
0.0000000001
 40
0.0
 40
0.0
 40
0.0
 40
0.0
 40
1.0
 40
1.0
 40
1.0
 40
1.0
 10
76.33280841190638
 20
-122.0397514885873
 30
0.0
 10
76.14987384163962
 20
-122.0397514885873
 30
0.0
 10
76.0020792453224
 20
-122.6123263582358
 30
0.0
 10
76.0020792453224
 20
-123.3175374040665
 30
0.0
  0
SPLINE
  5
1CE
330
1F
100
AcDbEntity
  8
\U+30EC\U+30A4\U+30E4\U+30FC 1
 62
    18
420
   196608
370
    18
100
AcDbSpline
210
0.0
220
0.0
230
1.0
 70
     8
 71
     3
 72
     8
 73
     4
 74
     0
 42
0.0000000001
 43
0.0000000001
 40
0.0
 40
0.0
 40
0.0
 40
0.0
 40
1.0
 40
1.0
 40
1.0
 40
1.0
 10
76.38293455121676
 20
-122.0555989278194
 30
0.0
 10
76.36605358333905
 20
-122.0449191318152
 30
0.0
 10
76.34934487023558
 20
-122.0397514885873
 30
0.0
 10
76.33280841190638
 20
-122.0397514885873
 30
0.0
  0
POLYLINE
  5
1CF
330
1F
100
AcDbEntity
  8
\U+30EC\U+30A4\U+30E4\U+30FC 1
 62
    18
420
   196608
370
    18
100
AcDb2dPolyline
 66
     1
 10
0.0
 20
0.0
 30
0.0
  0
VERTEX
  5
1D0
330
1CF
100
AcDbEntity
  8
\U+30EC\U+30A4\U+30E4\U+30FC 1
 62
    18
420
   196608
370
    18
100
AcDbVertex
100
AcDb2dVertex
 10
76.0020792453224
 20
-123.3175374040665
 30
0.0
  0
VERTEX
  5
1D1
330
1CF
100
AcDbEntity
  8
\U+30EC\U+30A4\U+30E4\U+30FC 1
 62
    18
420
   196608
370
    18
100
AcDbVertex
100
AcDb2dVertex
 10
68.06647404982367
 20
-123.3175374040665
 30
0.0
  0
SEQEND
  5
1D2
330
1CF
100
AcDbEntity
  8
\U+30EC\U+30A4\U+30E4\U+30FC 1
370
    18
  0
POLYLINE
  5
1D3
330
1F
100
AcDbEntity
  8
\U+30EC\U+30A4\U+30E4\U+30FC 1
 62
    18
420
   196608
370
    18
100
AcDb2dPolyline
 66
     1
 10
0.0
 20
0.0
 30
0.0
  0
VERTEX
  5
1D4
330
1D3
100
AcDbEntity
  8
\U+30EC\U+30A4\U+30E4\U+30FC 1
 62
    18
420
   196608
370
    18
100
AcDbVertex
100
AcDb2dVertex
 10
68.06647404982367
 20
-125.0704019869616
 30
0.0
  0
VERTEX
  5
1D5
330
1D3
100
AcDbEntity
  8
\U+30EC\U+30A4\U+30E4\U+30FC 1
 62
    18
420
   196608
370
    18
100
AcDbVertex
100
AcDb2dVertex
 10
68.06647404982367
 20
-123.3175374040665
 30
0.0
  0
SEQEND
  5
1D6
330
1D3
100
AcDbEntity
  8
\U+30EC\U+30A4\U+30E4\U+30FC 1
370
    18
  0
SPLINE
  5
1D7
330
1F
100
AcDbEntity
  8
\U+30EC\U+30A4\U+30E4\U+30FC 1
 62
    18
420
   196608
370
    18
100
AcDbSpline
210
0.0
220
0.0
230
1.0
 70
     8
 71
     3
 72
     8
 73
     4
 74
     0
 42
0.0000000001
 43
0.0000000001
 40
0.0
 40
0.0
 40
0.0
 40
0.0
 40
1.0
 40
1.0
 40
1.0
 40
1.0
 10
84.68682045408872
 20
-124.8027180677577
 30
0.0
 10
84.37211098151114
 20
-124.8402696085469
 30
0.0
 10
84.05791827325636
 20
-124.8795436970787
 30
0.0
 10
83.74372556500157
 20
-124.9205403333532
 30
0.0
  0
SPLINE
  5
1D8
330
1F
100
AcDbEntity
  8
\U+30EC\U+30A4\U+30E4\U+30FC 1
 62
    18
420
   196608
370
    18
100
AcDbSpline
210
0.0
220
0.0
230
1.0
 70
     8
 71
     3
 72
     8
 73
     4
 74
     0
 42
0.0000000001
 43
0.0000000001
 40
0.0
 40
0.0
 40
0.0
 40
0.0
 40
1.0
 40
1.0
 40
1.0
 40
1.0
 10
83.74372556500157
 20
-123.4673990576748
 30
0.0
 10
84.05791827325636
 20
-123.5083956939493
 30
0.0
 10
84.37211098151114
 20
-123.5466362538356
 30
0.0
 10
84.68682045408872
 20
-123.5852213232704
 30
0.0
  0
SPLINE
  5
1D9
330
1F
100
AcDbEntity
  8
\U+30EC\U+30A4\U+30E4\U+30FC 1
 62
    18
420
   196608
370
    18
100
AcDbSpline
210
0.0
220
0.0
230
1.0
 70
     8
 71
     3
 72
    11
 73
     7
 74
     0
 42
0.0000000001
 43
0.0000000001
 40
0.0
 40
0.0
 40
0.0
 40
0.0
 40
1.0
 40
1.0
 40
1.0
 40
2.0
 40
2.0
 40
2.0
 40
2.0
 10
87.46150035790893
 20
-123.1928249475004
 30
0.0
 10
87.31818438572255
 20
-123.1928249475004
 30
0.0
 10
87.20225692264388
 20
-123.6410318701314
 30
0.0
 10
87.20225692264388
 20
-124.1943142050625
 30
0.0
 10
87.20225692264388
 20
-124.7469075208966
 30
0.0
 10
87.31818438572255
 20
-125.1958034626247
 30
0.0
 10
87.46150035790893
 20
-125.1958034626247
 30
0.0
  0
POLYLINE
  5
1DA
330
1F
100
AcDbEntity
  8
\U+30EC\U+30A4\U+30E4\U+30FC 1
 62
    18
420
   196608
370
    18
100
AcDb2dPolyline
 66
     1
 10
0.0
 20
0.0
 30
0.0
  0
VERTEX
  5
1DB
330
1DA
100
AcDbEntity
  8
\U+30EC\U+30A4\U+30E4\U+30FC 1
 62
    18
420
   196608
370
    18
100
AcDbVertex
100
AcDb2dVertex
 10
87.46150035790893
 20
-125.1958034626247
 30
0.0
  0
VERTEX
  5
1DC
330
1DA
100
AcDbEntity
  8
\U+30EC\U+30A4\U+30E4\U+30FC 1
 62
    18
420
   196608
370
    18
100
AcDbVertex
100
AcDb2dVertex
 10
253.1600856571961
 20
-125.1958034626247
 30
0.0
  0
SEQEND
  5
1DD
330
1DA
100
AcDbEntity
  8
\U+30EC\U+30A4\U+30E4\U+30FC 1
370
    18
  0
POLYLINE
  5
1DE
330
1F
100
AcDbEntity
  8
\U+30EC\U+30A4\U+30E4\U+30FC 1
 62
    18
420
   196608
370
    18
100
AcDb2dPolyline
 66
     1
 10
0.0
 20
0.0
 30
0.0
  0
VERTEX
  5
1DF
330
1DE
100
AcDbEntity
  8
\U+30EC\U+30A4\U+30E4\U+30FC 1
 62
    18
420
   196608
370
    18
100
AcDbVertex
100
AcDb2dVertex
 10
87.46150035790893
 20
-123.1928249475004
 30
0.0
  0
VERTEX
  5
1E0
330
1DE
100
AcDbEntity
  8
\U+30EC\U+30A4\U+30E4\U+30FC 1
 62
    18
420
   196608
370
    18
100
AcDbVertex
100
AcDb2dVertex
 10
253.1600856571961
 20
-123.1928249475004
 30
0.0
  0
SEQEND
  5
1E1
330
1DE
100
AcDbEntity
  8
\U+30EC\U+30A4\U+30E4\U+30FC 1
370
    18
  0
POLYLINE
  5
1E2
330
1F
100
AcDbEntity
  8
\U+30EC\U+30A4\U+30E4\U+30FC 1
 62
    18
420
   196608
370
    18
100
AcDb2dPolyline
 66
     1
 10
0.0
 20
0.0
 30
0.0
  0
VERTEX
  5
1E3
330
1E2
100
AcDbEntity
  8
\U+30EC\U+30A4\U+30E4\U+30FC 1
 62
    18
420
   196608
370
    18
100
AcDbVertex
100
AcDb2dVertex
 10
82.13900008797219
 20
-126.1972927201868
 30
0.0
  0
VERTEX
  5
1E4
330
1E2
100
AcDbEntity
  8
\U+30EC\U+30A4\U+30E4\U+30FC 1
 62
    18
420
   196608
370
    18
100
AcDbVertex
100
AcDb2dVertex
 10
84.07445473158556
 20
-126.1972927201868
 30
0.0
  0
SEQEND
  5
1E5
330
1E2
100
AcDbEntity
  8
\U+30EC\U+30A4\U+30E4\U+30FC 1
370
    18
  0
POLYLINE
  5
1E6
330
1F
100
AcDbEntity
  8
\U+30EC\U+30A4\U+30E4\U+30FC 1
 62
    18
420
   196608
370
    18
100
AcDb2dPolyline
 66
     1
 10
0.0
 20
0.0
 30
0.0
  0
VERTEX
  5
1E7
330
1E6
100
AcDbEntity
  8
\U+30EC\U+30A4\U+30E4\U+30FC 1
 62
    18
420
   196608
370
    18
100
AcDbVertex
100
AcDb2dVertex
 10
81.12803681782563
 20
-125.5837212142638
 30
0.0
  0
VERTEX
  5
1E8
330
1E6
100
AcDbEntity
  8
\U+30EC\U+30A4\U+30E4\U+30FC 1
 62
    18
420
   196608
370
    18
100
AcDbVertex
100
AcDb2dVertex
 10
82.08680689137066
 20
-126.1817897905032
 30
0.0
  0
SEQEND
  5
1E9
330
1E6
100
AcDbEntity
  8
\U+30EC\U+30A4\U+30E4\U+30FC 1
370
    18
  0
POLYLINE
  5
1EA
330
1F
100
AcDbEntity
  8
\U+30EC\U+30A4\U+30E4\U+30FC 1
 62
    18
420
   196608
370
    18
100
AcDb2dPolyline
 66
     1
 10
0.0
 20
0.0
 30
0.0
  0
VERTEX
  5
1EB
330
1EA
100
AcDbEntity
  8
\U+30EC\U+30A4\U+30E4\U+30FC 1
 62
    18
420
   196608
370
    18
100
AcDbVertex
100
AcDb2dVertex
 10
81.14939640983418
 20
-125.5968125771077
 30
0.0
  0
VERTEX
  5
1EC
330
1EA
100
AcDbEntity
  8
\U+30EC\U+30A4\U+30E4\U+30FC 1
 62
    18
420
   196608
370
    18
100
AcDbVertex
100
AcDb2dVertex
 10
77.5906127735711
 20
-125.5968125771077
 30
0.0
  0
SEQEND
  5
1ED
330
1EA
100
AcDbEntity
  8
\U+30EC\U+30A4\U+30E4\U+30FC 1
370
    18
  0
POLYLINE
  5
1EE
330
1F
100
AcDbEntity
  8
\U+30EC\U+30A4\U+30E4\U+30FC 1
 62
    18
420
   196608
370
    18
100
AcDb2dPolyline
 66
     1
 10
0.0
 20
0.0
 30
0.0
  0
VERTEX
  5
1EF
330
1EE
100
AcDbEntity
  8
\U+30EC\U+30A4\U+30E4\U+30FC 1
 62
    18
420
   196608
370
    18
100
AcDbVertex
100
AcDb2dVertex
 10
84.07445473158556
 20
-122.1896131421957
 30
0.0
  0
VERTEX
  5
1F0
330
1EE
100
AcDbEntity
  8
\U+30EC\U+30A4\U+30E4\U+30FC 1
 62
    18
420
   196608
370
    18
100
AcDbVertex
100
AcDb2dVertex
 10
82.13900008797219
 20
-122.1896131421957
 30
0.0
  0
SEQEND
  5
1F1
330
1EE
100
AcDbEntity
  8
\U+30EC\U+30A4\U+30E4\U+30FC 1
370
    18
  0
POLYLINE
  5
1F2
330
1F
100
AcDbEntity
  8
\U+30EC\U+30A4\U+30E4\U+30FC 1
 62
    18
420
   196608
370
    18
100
AcDb2dPolyline
 66
     1
 10
0.0
 20
0.0
 30
0.0
  0
VERTEX
  5
1F3
330
1F2
100
AcDbEntity
  8
\U+30EC\U+30A4\U+30E4\U+30FC 1
 62
    18
420
   196608
370
    18
100
AcDbVertex
100
AcDb2dVertex
 10
76.38293455121676
 20
-126.3333739918542
 30
0.0
  0
VERTEX
  5
1F4
330
1F2
100
AcDbEntity
  8
\U+30EC\U+30A4\U+30E4\U+30FC 1
 62
    18
420
   196608
370
    18
100
AcDbVertex
100
AcDb2dVertex
 10
77.61145560125686
 20
-125.5968125771077
 30
0.0
  0
SEQEND
  5
1F5
330
1F2
100
AcDbEntity
  8
\U+30EC\U+30A4\U+30E4\U+30FC 1
370
    18
  0
POLYLINE
  5
1F6
330
1F
100
AcDbEntity
  8
\U+30EC\U+30A4\U+30E4\U+30FC 1
 62
    18
420
   196608
370
    18
100
AcDb2dPolyline
 66
     1
 10
0.0
 20
0.0
 30
0.0
  0
VERTEX
  5
1F7
330
1F6
100
AcDbEntity
  8
\U+30EC\U+30A4\U+30E4\U+30FC 1
 62
    18
420
   196608
370
    18
100
AcDbVertex
100
AcDb2dVertex
 10
81.12803681782563
 20
-122.8049071958613
 30
0.0
  0
VERTEX
  5
1F8
330
1F6
100
AcDbEntity
  8
\U+30EC\U+30A4\U+30E4\U+30FC 1
 62
    18
420
   196608
370
    18
100
AcDbVertex
100
AcDb2dVertex
 10
82.08680689137066
 20
-122.2061496005249
 30
0.0
  0
SEQEND
  5
1F9
330
1F6
100
AcDbEntity
  8
\U+30EC\U+30A4\U+30E4\U+30FC 1
370
    18
  0
POLYLINE
  5
1FA
330
1F
100
AcDbEntity
  8
\U+30EC\U+30A4\U+30E4\U+30FC 1
 62
    18
420
   196608
370
    18
100
AcDb2dPolyline
 66
     1
 10
0.0
 20
0.0
 30
0.0
  0
VERTEX
  5
1FB
330
1FA
100
AcDbEntity
  8
\U+30EC\U+30A4\U+30E4\U+30FC 1
 62
    18
420
   196608
370
    18
100
AcDbVertex
100
AcDb2dVertex
 10
77.5906127735711
 20
-122.7918158330173
 30
0.0
  0
VERTEX
  5
1FC
330
1FA
100
AcDbEntity
  8
\U+30EC\U+30A4\U+30E4\U+30FC 1
 62
    18
420
   196608
370
    18
100
AcDbVertex
100
AcDb2dVertex
 10
81.14939640983418
 20
-122.7918158330173
 30
0.0
  0
SEQEND
  5
1FD
330
1FA
100
AcDbEntity
  8
\U+30EC\U+30A4\U+30E4\U+30FC 1
370
    18
  0
POLYLINE
  5
1FE
330
1F
100
AcDbEntity
  8
\U+30EC\U+30A4\U+30E4\U+30FC 1
 62
    18
420
   196608
370
    18
100
AcDb2dPolyline
 66
     1
 10
0.0
 20
0.0
 30
0.0
  0
VERTEX
  5
1FF
330
1FE
100
AcDbEntity
  8
\U+30EC\U+30A4\U+30E4\U+30FC 1
 62
    18
420
   196608
370
    18
100
AcDbVertex
100
AcDb2dVertex
 10
76.33280841190638
 20
-126.3481879024407
 30
0.0
  0
VERTEX
  5
200
330
1FE
100
AcDbEntity
  8
\U+30EC\U+30A4\U+30E4\U+30FC 1
 62
    18
420
   196608
370
    18
100
AcDbVertex
100
AcDb2dVertex
 10
68.39720321640765
 20
-126.3481879024407
 30
0.0
  0
SEQEND
  5
201
330
1FE
100
AcDbEntity
  8
\U+30EC\U+30A4\U+30E4\U+30FC 1
370
    18
  0
POLYLINE
  5
202
330
1F
100
AcDbEntity
  8
\U+30EC\U+30A4\U+30E4\U+30FC 1
 62
    18
420
   196608
370
    18
100
AcDb2dPolyline
 66
     1
 10
0.0
 20
0.0
 30
0.0
  0
VERTEX
  5
203
330
202
100
AcDbEntity
  8
\U+30EC\U+30A4\U+30E4\U+30FC 1
 62
    18
420
   196608
370
    18
100
AcDbVertex
100
AcDb2dVertex
 10
76.38293455121676
 20
-122.0555989278194
 30
0.0
  0
VERTEX
  5
204
330
202
100
AcDbEntity
  8
\U+30EC\U+30A4\U+30E4\U+30FC 1
 62
    18
420
   196608
370
    18
100
AcDbVertex
100
AcDb2dVertex
 10
77.61145560125686
 20
-122.7918158330173
 30
0.0
  0
SEQEND
  5
205
330
202
100
AcDbEntity
  8
\U+30EC\U+30A4\U+30E4\U+30FC 1
370
    18
  0
POLYLINE
  5
206
330
1F
100
AcDbEntity
  8
\U+30EC\U+30A4\U+30E4\U+30FC 1
 62
    18
420
   196608
370
    18
100
AcDb2dPolyline
 66
     1
 10
0.0
 20
0.0
 30
0.0
  0
VERTEX
  5
207
330
206
100
AcDbEntity
  8
\U+30EC\U+30A4\U+30E4\U+30FC 1
 62
    18
420
   196608
370
    18
100
AcDbVertex
100
AcDb2dVertex
 10
76.33280841190638
 20
-122.0397514885873
 30
0.0
  0
VERTEX
  5
208
330
206
100
AcDbEntity
  8
\U+30EC\U+30A4\U+30E4\U+30FC 1
 62
    18
420
   196608
370
    18
100
AcDbVertex
100
AcDb2dVertex
 10
68.39720321640765
 20
-122.0397514885873
 30
0.0
  0
SEQEND
  5
209
330
206
100
AcDbEntity
  8
\U+30EC\U+30A4\U+30E4\U+30FC 1
370
    18
  0
POLYLINE
  5
20A
330
1F
100
AcDbEntity
  8
\U+30EC\U+30A4\U+30E4\U+30FC 1
 62
    18
420
   196608
370
    18
100
AcDb2dPolyline
 66
     1
 10
0.0
 20
0.0
 30
0.0
  0
VERTEX
  5
20B
330
20A
100
AcDbEntity
  8
\U+30EC\U+30A4\U+30E4\U+30FC 1
 62
    18
420
   196608
370
    18
100
AcDbVertex
100
AcDb2dVertex
 10
84.11803518947397
 20
-126.186957433731
 30
0.0
  0
VERTEX
  5
20C
330
20A
100
AcDbEntity
  8
\U+30EC\U+30A4\U+30E4\U+30FC 1
 62
    18
420
   196608
370
    18
100
AcDbVertex
100
AcDb2dVertex
 10
85.06767575998309
 20
-125.6970648557285
 30
0.0
  0
SEQEND
  5
20D
330
20A
100
AcDbEntity
  8
\U+30EC\U+30A4\U+30E4\U+30FC 1
370
    18
  0
POLYLINE
  5
20E
330
1F
100
AcDbEntity
  8
\U+30EC\U+30A4\U+30E4\U+30FC 1
 62
    18
420
   196608
370
    18
100
AcDb2dPolyline
 66
     1
 10
0.0
 20
0.0
 30
0.0
  0
VERTEX
  5
20F
330
20E
100
AcDbEntity
  8
\U+30EC\U+30A4\U+30E4\U+30FC 1
 62
    18
420
   196608
370
    18
100
AcDbVertex
100
AcDb2dVertex
 10
84.11803518947397
 20
-122.2020154859426
 30
0.0
  0
VERTEX
  5
210
330
20E
100
AcDbEntity
  8
\U+30EC\U+30A4\U+30E4\U+30FC 1
 62
    18
420
   196608
370
    18
100
AcDbVertex
100
AcDb2dVertex
 10
85.06767575998309
 20
-122.6908745352995
 30
0.0
  0
SEQEND
  5
211
330
20E
100
AcDbEntity
  8
\U+30EC\U+30A4\U+30E4\U+30FC 1
370
    18
  0
POLYLINE
  5
212
330
1F
100
AcDbEntity
  8
\U+30EC\U+30A4\U+30E4\U+30FC 1
 62
    18
420
   196608
370
    18
100
AcDb2dPolyline
 66
     1
 10
0.0
 20
0.0
 30
0.0
  0
VERTEX
  5
213
330
212
100
AcDbEntity
  8
\U+30EC\U+30A4\U+30E4\U+30FC 1
 62
    18
420
   196608
370
    18
100
AcDbVertex
100
AcDb2dVertex
 10
76.99616154759124
 20
-120.1866346270714
 30
0.0
  0
VERTEX
  5
214
330
212
100
AcDbEntity
  8
\U+30EC\U+30A4\U+30E4\U+30FC 1
 62
    18
420
   196608
370
    18
100
AcDbVertex
100
AcDb2dVertex
 10
56.39345701715164
 20
-120.1866346270714
 30
0.0
  0
SEQEND
  5
215
330
212
100
AcDbEntity
  8
\U+30EC\U+30A4\U+30E4\U+30FC 1
370
    18
  0
POLYLINE
  5
216
330
1F
100
AcDbEntity
  8
\U+30EC\U+30A4\U+30E4\U+30FC 1
 62
    18
420
   196608
370
    18
100
AcDb2dPolyline
 66
     1
 10
0.0
 20
0.0
 30
0.0
  0
VERTEX
  5
217
330
216
100
AcDbEntity
  8
\U+30EC\U+30A4\U+30E4\U+30FC 1
 62
    18
420
   196608
370
    18
100
AcDbVertex
100
AcDb2dVertex
 10
56.39345701715164
 20
-120.1866346270714
 30
0.0
  0
VERTEX
  5
218
330
216
100
AcDbEntity
  8
\U+30EC\U+30A4\U+30E4\U+30FC 1
 62
    18
420
   196608
370
    18
100
AcDbVertex
100
AcDb2dVertex
 10
56.23532713437867
 20
-120.0560655081804
 30
0.0
  0
VERTEX
  5
219
330
216
100
AcDbEntity
  8
\U+30EC\U+30A4\U+30E4\U+30FC 1
 62
    18
420
   196608
370
    18
100
AcDbVertex
100
AcDb2dVertex
 10
56.07978107321964
 20
-119.9217067842557
 30
0.0
  0
VERTEX
  5
21A
330
216
100
AcDbEntity
  8
\U+30EC\U+30A4\U+30E4\U+30FC 1
 62
    18
420
   196608
370
    18
100
AcDbVertex
100
AcDb2dVertex
 10
55.92940265528848
 20
-119.7849364934913
 30
0.0
  0
VERTEX
  5
21B
330
216
100
AcDbEntity
  8
\U+30EC\U+30A4\U+30E4\U+30FC 1
 62
    18
420
   196608
370
    18
100
AcDbVertex
100
AcDb2dVertex
 10
55.78212482329405
 20
-119.643687578596
 30
0.0
  0
VERTEX
  5
21C
330
216
100
AcDbEntity
  8
\U+30EC\U+30A4\U+30E4\U+30FC 1
 62
    18
420
   196608
370
    18
100
AcDbVertex
100
AcDb2dVertex
 10
55.6400146345275
 20
-119.4989935682155
 30
0.0
  0
VERTEX
  5
21D
330
216
100
AcDbEntity
  8
\U+30EC\U+30A4\U+30E4\U+30FC 1
 62
    18
420
   196608
370
    18
100
AcDbVertex
100
AcDb2dVertex
 10
55.50272757944029
 20
-119.3508544623498
 30
0.0
  0
VERTEX
  5
21E
330
216
100
AcDbEntity
  8
\U+30EC\U+30A4\U+30E4\U+30FC 1
 62
    18
420
   196608
370
    18
100
AcDbVertex
100
AcDb2dVertex
 10
55.37112493190375
 20
-119.1999592800959
 30
0.0
  0
VERTEX
  5
21F
330
216
100
AcDbEntity
  8
\U+30EC\U+30A4\U+30E4\U+30FC 1
 62
    18
420
   196608
370
    18
100
AcDbVertex
100
AcDb2dVertex
 10
55.24434541804656
 20
-119.0449299832596
 30
0.0
  0
VERTEX
  5
220
330
216
100
AcDbEntity
  8
\U+30EC\U+30A4\U+30E4\U+30FC 1
 62
    18
420
   196608
370
    18
100
AcDbVertex
100
AcDb2dVertex
 10
55.12359482128855
 20
-118.8864555909381
 30
0.0
  0
VERTEX
  5
221
330
216
100
AcDbEntity
  8
\U+30EC\U+30A4\U+30E4\U+30FC 1
 62
    18
420
   196608
370
    18
100
AcDbVertex
100
AcDb2dVertex
 10
55.00801186775842
 20
-118.7248806126799
 30
0.0
  0
VERTEX
  5
222
330
216
100
AcDbEntity
  8
\U+30EC\U+30A4\U+30E4\U+30FC 1
 62
    18
420
   196608
370
    18
100
AcDbVertex
100
AcDb2dVertex
 10
54.89949135997305
 20
-118.560205048485
 30
0.0
  0
VERTEX
  5
223
330
216
100
AcDbEntity
  8
\U+30EC\U+30A4\U+30E4\U+30FC 1
 62
    18
420
   196608
370
    18
100
AcDbVertex
100
AcDb2dVertex
 10
54.79717202406113
 20
-118.3920843888048
 30
0.0
  0
VERTEX
  5
224
330
216
100
AcDbEntity
  8
\U+30EC\U+30A4\U+30E4\U+30FC 1
 62
    18
420
   196608
370
    18
100
AcDbVertex
100
AcDb2dVertex
 10
54.70208738866823
 20
-118.2212076527364
 30
0.0
  0
VERTEX
  5
225
330
216
100
AcDbEntity
  8
\U+30EC\U+30A4\U+30E4\U+30FC 1
 62
    18
420
   196608
370
    18
100
AcDbVertex
100
AcDb2dVertex
 10
54.61372068947157
 20
-118.0468858211827
 30
0.0
  0
VERTEX
  5
226
330
216
100
AcDbEntity
  8
\U+30EC\U+30A4\U+30E4\U+30FC 1
 62
    18
420
   196608
370
    18
100
AcDbVertex
100
AcDb2dVertex
 10
54.53258869079394
 20
-117.8708414418865
 30
0.0
  0
VERTEX
  5
227
330
216
100
AcDbEntity
  8
\U+30EC\U+30A4\U+30E4\U+30FC 1
 62
    18
420
   196608
370
    18
100
AcDbVertex
100
AcDb2dVertex
 10
54.45886364740959
 20
-117.692040986202
 30
0.0
  0
VERTEX
  5
228
330
216
100
AcDbEntity
  8
\U+30EC\U+30A4\U+30E4\U+30FC 1
 62
    18
420
   196608
370
    18
100
AcDbVertex
100
AcDb2dVertex
 10
54.39357908796411
 20
-117.5108289636779
 30
0.0
  0
VERTEX
  5
229
330
216
100
AcDbEntity
  8
\U+30EC\U+30A4\U+30E4\U+30FC 1
 62
    18
420
   196608
370
    18
100
AcDbVertex
100
AcDb2dVertex
 10
54.33656275768323
 20
-117.3268608647655
 30
0.0
  0
VERTEX
  5
22A
330
216
100
AcDbEntity
  8
\U+30EC\U+30A4\U+30E4\U+30FC 1
 62
    18
420
   196608
370
    18
100
AcDbVertex
100
AcDb2dVertex
 10
54.28729789224415
 20
-117.1422037467561
 30
0.0
  0
VERTEX
  5
22B
330
216
100
AcDbEntity
  8
\U+30EC\U+30A4\U+30E4\U+30FC 1
 62
    18
420
   196608
370
    18
100
AcDbVertex
100
AcDb2dVertex
 10
54.2466457655182
 20
-116.9558240810041
 30
0.0
  0
VERTEX
  5
22C
330
216
100
AcDbEntity
  8
\U+30EC\U+30A4\U+30E4\U+30FC 1
 62
    18
420
   196608
370
    18
100
AcDbVertex
100
AcDb2dVertex
 10
54.2149508870539
 20
-116.7673773579609
 30
0.0
  0
VERTEX
  5
22D
330
216
100
AcDbEntity
  8
\U+30EC\U+30A4\U+30E4\U+30FC 1
 62
    18
420
   196608
370
    18
100
AcDbVertex
100
AcDb2dVertex
 10
54.19135198297995
 20
-116.5782416158207
 30
0.0
  0
VERTEX
  5
22E
330
216
100
AcDbEntity
  8
\U+30EC\U+30A4\U+30E4\U+30FC 1
 62
    18
420
   196608
370
    18
100
AcDbVertex
100
AcDb2dVertex
 10
54.17705483671615
 20
-116.3891058736805
 30
0.0
  0
VERTEX
  5
22F
330
216
100
AcDbEntity
  8
\U+30EC\U+30A4\U+30E4\U+30FC 1
 62
    18
420
   196608
370
    18
100
AcDbVertex
100
AcDb2dVertex
 10
54.17171493871402
 20
-116.1992811124432
 30
0.0
  0
VERTEX
  5
230
330
216
100
AcDbEntity
  8
\U+30EC\U+30A4\U+30E4\U+30FC 1
 62
    18
420
   196608
370
    18
100
AcDbVertex
100
AcDb2dVertex
 10
54.17516003419927
 20
-116.0080783130119
 30
0.0
  0
VERTEX
  5
231
330
216
100
AcDbEntity
  8
\U+30EC\U+30A4\U+30E4\U+30FC 1
 62
    18
420
   196608
370
    18
100
AcDbVertex
100
AcDb2dVertex
 10
54.18790688749469
 20
-115.8189425708717
 30
0.0
  0
VERTEX
  5
232
330
216
100
AcDbEntity
  8
\U+30EC\U+30A4\U+30E4\U+30FC 1
 62
    18
420
   196608
370
    18
100
AcDbVertex
100
AcDb2dVertex
 10
54.20874971518045
 20
-115.630840357377
 30
0.0
  0
VERTEX
  5
233
330
216
100
AcDbEntity
  8
\U+30EC\U+30A4\U+30E4\U+30FC 1
 62
    18
420
   196608
370
    18
100
AcDbVertex
100
AcDb2dVertex
 10
54.23889430067639
 20
-115.4427381438824
 30
0.0
  0
VERTEX
  5
234
330
216
100
AcDbEntity
  8
\U+30EC\U+30A4\U+30E4\U+30FC 1
 62
    18
420
   196608
370
    18
100
AcDbVertex
100
AcDb2dVertex
 10
54.27816838920824
 20
-115.2542914208392
 30
0.0
  0
VERTEX
  5
235
330
216
100
AcDbEntity
  8
\U+30EC\U+30A4\U+30E4\U+30FC 1
 62
    18
420
   196608
370
    18
100
AcDbVertex
100
AcDb2dVertex
 10
54.3251939425819
 20
-115.0696343028298
 30
0.0
  0
VERTEX
  5
236
330
216
100
AcDbEntity
  8
\U+30EC\U+30A4\U+30E4\U+30FC 1
 62
    18
420
   196608
370
    18
100
AcDbVertex
100
AcDb2dVertex
 10
54.38100448944294
 20
-114.8856662039175
 30
0.0
  0
VERTEX
  5
237
330
216
100
AcDbEntity
  8
\U+30EC\U+30A4\U+30E4\U+30FC 1
 62
    18
420
   196608
370
    18
100
AcDbVertex
100
AcDb2dVertex
 10
54.44456650114581
 20
-114.7051432004904
 30
0.0
  0
VERTEX
  5
238
330
216
100
AcDbEntity
  8
\U+30EC\U+30A4\U+30E4\U+30FC 1
 62
    18
420
   196608
370
    18
100
AcDbVertex
100
AcDb2dVertex
 10
54.51691350633605
 20
-114.5246201970633
 30
0.0
  0
VERTEX
  5
239
330
216
100
AcDbEntity
  8
\U+30EC\U+30A4\U+30E4\U+30FC 1
 62
    18
420
   196608
370
    18
100
AcDbVertex
100
AcDb2dVertex
 10
54.59580619294827
 20
-114.34788679867
 30
0.0
  0
VERTEX
  5
23A
330
216
100
AcDbEntity
  8
\U+30EC\U+30A4\U+30E4\U+30FC 1
 62
    18
420
   196608
370
    18
100
AcDbVertex
100
AcDb2dVertex
 10
54.68245034440231
 20
-114.1725314384708
 30
0.0
  0
VERTEX
  5
23B
330
216
100
AcDbEntity
  8
\U+30EC\U+30A4\U+30E4\U+30FC 1
 62
    18
420
   196608
370
    18
100
AcDbVertex
100
AcDb2dVertex
 10
54.77667370592389
 20
-114.0016547024024
 30
0.0
  0
VERTEX
  5
23C
330
216
100
AcDbEntity
  8
\U+30EC\U+30A4\U+30E4\U+30FC 1
 62
    18
420
   196608
370
    18
100
AcDbVertex
100
AcDb2dVertex
 10
54.87778725841597
 20
-113.8335340427222
 30
0.0
  0
VERTEX
  5
23D
330
216
100
AcDbEntity
  8
\U+30EC\U+30A4\U+30E4\U+30FC 1
 62
    18
420
   196608
370
    18
100
AcDbVertex
100
AcDb2dVertex
 10
54.98458521845872
 20
-113.6678249498817
 30
0.0
  0
VERTEX
  5
23E
330
216
100
AcDbEntity
  8
\U+30EC\U+30A4\U+30E4\U+30FC 1
 62
    18
420
   196608
370
    18
100
AcDbVertex
100
AcDb2dVertex
 10
55.09879013379475
 20
-113.5048719334293
 30
0.0
  0
VERTEX
  5
23F
330
216
100
AcDbEntity
  8
\U+30EC\U+30A4\U+30E4\U+30FC 1
 62
    18
420
   196608
370
    18
100
AcDbVertex
100
AcDb2dVertex
 10
55.21850720190718
 20
-113.3470865602049
 30
0.0
  0
VERTEX
  5
240
330
216
100
AcDbEntity
  8
\U+30EC\U+30A4\U+30E4\U+30FC 1
 62
    18
420
   196608
370
    18
100
AcDbVertex
100
AcDb2dVertex
 10
55.34408093234454
 20
-113.1913682442716
 30
0.0
  0
VERTEX
  5
241
330
216
100
AcDbEntity
  8
\U+30EC\U+30A4\U+30E4\U+30FC 1
 62
    18
420
   196608
370
    18
100
AcDbVertex
100
AcDb2dVertex
 10
55.47430554168698
 20
-113.038750514275
 30
0.0
  0
VERTEX
  5
242
330
216
100
AcDbEntity
  8
\U+30EC\U+30A4\U+30E4\U+30FC 1
 62
    18
420
   196608
370
    18
100
AcDbVertex
100
AcDb2dVertex
 10
55.61124808722566
 20
-112.8895778797637
 30
0.0
  0
VERTEX
  5
243
330
216
100
AcDbEntity
  8
\U+30EC\U+30A4\U+30E4\U+30FC 1
 62
    18
420
   196608
370
    18
100
AcDbVertex
100
AcDb2dVertex
 10
55.75146347347533
 20
-112.7441948502862
 30
0.0
  0
VERTEX
  5
244
330
216
100
AcDbEntity
  8
\U+30EC\U+30A4\U+30E4\U+30FC 1
 62
    18
420
   196608
370
    18
100
AcDbVertex
100
AcDb2dVertex
 10
55.89753552204992
 20
-112.6029459353909
 30
0.0
  0
VERTEX
  5
245
330
216
100
AcDbEntity
  8
\U+30EC\U+30A4\U+30E4\U+30FC 1
 62
    18
420
   196608
370
    18
100
AcDbVertex
100
AcDb2dVertex
 10
56.04705266610976
 20
-112.4641085873354
 30
0.0
  0
VERTEX
  5
246
330
216
100
AcDbEntity
  8
\U+30EC\U+30A4\U+30E4\U+30FC 1
 62
    18
420
   196608
370
    18
100
AcDbVertex
100
AcDb2dVertex
 10
56.20173745339748
 20
-112.3290608443136
 30
0.0
  0
VERTEX
  5
247
330
216
100
AcDbEntity
  8
\U+30EC\U+30A4\U+30E4\U+30FC 1
 62
    18
420
   196608
370
    18
100
AcDbVertex
100
AcDb2dVertex
 10
56.35986733617045
 20
-112.1991807445197
 30
0.0
  0
VERTEX
  5
248
330
216
100
AcDbEntity
  8
\U+30EC\U+30A4\U+30E4\U+30FC 1
 62
    18
420
   196608
370
    18
100
AcDbVertex
100
AcDb2dVertex
 10
56.52195907875146
 20
-112.0703341733713
 30
0.0
  0
VERTEX
  5
249
330
216
100
AcDbEntity
  8
\U+30EC\U+30A4\U+30E4\U+30FC 1
 62
    18
420
   196608
370
    18
100
AcDbVertex
100
AcDb2dVertex
 10
56.68715140726918
 20
-111.9466552454508
 30
0.0
  0
VERTEX
  5
24A
330
216
100
AcDbEntity
  8
\U+30EC\U+30A4\U+30E4\U+30FC 1
 62
    18
420
   196608
370
    18
100
AcDbVertex
100
AcDb2dVertex
 10
56.85630559559495
 20
-111.8264214130156
 30
0.0
  0
VERTEX
  5
24B
330
216
100
AcDbEntity
  8
\U+30EC\U+30A4\U+30E4\U+30FC 1
 62
    18
420
   196608
370
    18
100
AcDbVertex
100
AcDb2dVertex
 10
57.02804360553466
 20
-111.7085991474201
 30
0.0
  0
VERTEX
  5
24C
330
216
100
AcDbEntity
  8
\U+30EC\U+30A4\U+30E4\U+30FC 1
 62
    18
420
   196608
370
    18
100
AcDbVertex
100
AcDb2dVertex
 10
57.20357122050814
 20
-111.5945664868583
 30
0.0
  0
VERTEX
  5
24D
330
216
100
AcDbEntity
  8
\U+30EC\U+30A4\U+30E4\U+30FC 1
 62
    18
420
   196608
370
    18
100
AcDbVertex
100
AcDb2dVertex
 10
57.38099363799851
 20
-111.4836344122333
 30
0.0
  0
VERTEX
  5
24E
330
216
100
AcDbEntity
  8
\U+30EC\U+30A4\U+30E4\U+30FC 1
 62
    18
420
   196608
370
    18
100
AcDbVertex
100
AcDb2dVertex
 10
57.5615166414256
 20
-111.376491942642
 30
0.0
  0
VERTEX
  5
24F
330
216
100
AcDbEntity
  8
\U+30EC\U+30A4\U+30E4\U+30FC 1
 62
    18
420
   196608
370
    18
100
AcDbVertex
100
AcDb2dVertex
 10
57.74445121169236
 20
-111.272794568536
 30
0.0
  0
VERTEX
  5
250
330
216
100
AcDbEntity
  8
\U+30EC\U+30A4\U+30E4\U+30FC 1
 62
    18
420
   196608
370
    18
100
AcDbVertex
100
AcDb2dVertex
 10
57.92962509402454
 20
-111.1718532708181
 30
0.0
  0
VERTEX
  5
251
330
216
100
AcDbEntity
  8
\U+30EC\U+30A4\U+30E4\U+30FC 1
 62
    18
420
   196608
370
    18
100
AcDbVertex
100
AcDb2dVertex
 10
58.11703828842213
 20
-111.07332353994
 30
0.0
  0
VERTEX
  5
252
330
216
100
AcDbEntity
  8
\U+30EC\U+30A4\U+30E4\U+30FC 1
 62
    18
420
   196608
370
    18
100
AcDbVertex
100
AcDb2dVertex
 10
58.30669079488514
 20
-110.9789279236442
 30
0.0
  0
VERTEX
  5
253
330
216
100
AcDbEntity
  8
\U+30EC\U+30A4\U+30E4\U+30FC 1
 62
    18
420
   196608
370
    18
100
AcDbVertex
100
AcDb2dVertex
 10
58.49841035863929
 20
-110.887632893285
 30
0.0
  0
VERTEX
  5
254
330
216
100
AcDbEntity
  8
\U+30EC\U+30A4\U+30E4\U+30FC 1
 62
    18
420
   196608
370
    18
100
AcDbVertex
100
AcDb2dVertex
 10
58.69185247013607
 20
-110.7987494297656
 30
0.0
  0
VERTEX
  5
255
330
216
100
AcDbEntity
  8
\U+30EC\U+30A4\U+30E4\U+30FC 1
 62
    18
420
   196608
370
    18
100
AcDbVertex
100
AcDb2dVertex
 10
58.88718938414974
 20
-110.7122775330858
 30
0.0
  0
VERTEX
  5
256
330
216
100
AcDbEntity
  8
\U+30EC\U+30A4\U+30E4\U+30FC 1
 62
    18
420
   196608
370
    18
100
AcDbVertex
100
AcDb2dVertex
 10
59.08407659113176
 20
-110.6295952414398
 30
0.0
  0
VERTEX
  5
257
330
216
100
AcDbEntity
  8
\U+30EC\U+30A4\U+30E4\U+30FC 1
 62
    18
420
   196608
370
    18
100
AcDbVertex
100
AcDb2dVertex
 10
59.28285860063068
 20
-110.5503580452791
 30
0.0
  0
VERTEX
  5
258
330
216
100
AcDbEntity
  8
\U+30EC\U+30A4\U+30E4\U+30FC 1
 62
    18
420
   196608
370
    18
100
AcDbVertex
100
AcDb2dVertex
 10
59.48284639354943
 20
-110.4724988873124
 30
0.0
  0
VERTEX
  5
259
330
216
100
AcDbEntity
  8
\U+30EC\U+30A4\U+30E4\U+30FC 1
 62
    18
420
   196608
370
    18
100
AcDbVertex
100
AcDb2dVertex
 10
59.68386771511376
 20
-110.3984293343796
 30
0.0
  0
VERTEX
  5
25A
330
216
100
AcDbEntity
  8
\U+30EC\U+30A4\U+30E4\U+30FC 1
 62
    18
420
   196608
370
    18
100
AcDbVertex
100
AcDb2dVertex
 10
59.88695609396924
 20
-110.3271158578349
 30
0.0
  0
VERTEX
  5
25B
330
216
100
AcDbEntity
  8
\U+30EC\U+30A4\U+30E4\U+30FC 1
 62
    18
420
   196608
370
    18
100
AcDbVertex
100
AcDb2dVertex
 10
60.09038898237324
 20
-110.2575249290328
 30
0.0
  0
VERTEX
  5
25C
330
216
100
AcDbEntity
  8
\U+30EC\U+30A4\U+30E4\U+30FC 1
 62
    18
420
   196608
370
    18
100
AcDbVertex
100
AcDb2dVertex
 10
60.29519990897134
 20
-110.1910345861675
 30
0.0
  0
VERTEX
  5
25D
330
216
100
AcDbEntity
  8
\U+30EC\U+30A4\U+30E4\U+30FC 1
 62
    18
420
   196608
370
    18
100
AcDbVertex
100
AcDb2dVertex
 10
60.50138887376355
 20
-110.1276448292389
 30
0.0
  0
VERTEX
  5
25E
330
216
100
AcDbEntity
  8
\U+30EC\U+30A4\U+30E4\U+30FC 1
 62
    18
420
   196608
370
    18
100
AcDbVertex
100
AcDb2dVertex
 10
60.70878362197558
 20
-110.0663221296015
 30
0.0
  0
VERTEX
  5
25F
330
216
100
AcDbEntity
  8
\U+30EC\U+30A4\U+30E4\U+30FC 1
 62
    18
420
   196608
370
    18
100
AcDbVertex
100
AcDb2dVertex
 10
60.91669513451041
 20
-110.0070664872552
 30
0.0
  0
VERTEX
  5
260
330
216
100
AcDbEntity
  8
\U+30EC\U+30A4\U+30E4\U+30FC 1
 62
    18
420
   196608
370
    18
100
AcDbVertex
100
AcDb2dVertex
 10
61.33544649074253
 20
-109.8975124508242
 30
0.0
  0
VERTEX
  5
261
330
216
100
AcDbEntity
  8
\U+30EC\U+30A4\U+30E4\U+30FC 1
 62
    18
420
   196608
370
    18
100
AcDbVertex
100
AcDb2dVertex
 10
61.75781519723416
 20
-109.7962266435579
 30
0.0
  0
VERTEX
  5
262
330
216
100
AcDbEntity
  8
\U+30EC\U+30A4\U+30E4\U+30FC 1
 62
    18
420
   196608
370
    18
100
AcDbVertex
100
AcDb2dVertex
 10
62.18190645146841
 20
-109.7056206322958
 30
0.0
  0
VERTEX
  5
263
330
216
100
AcDbEntity
  8
\U+30EC\U+30A4\U+30E4\U+30FC 1
 62
    18
420
   196608
370
    18
100
AcDbVertex
100
AcDb2dVertex
 10
62.60944280118792
 20
-109.6236273597469
 30
0.0
  0
VERTEX
  5
264
330
216
100
AcDbEntity
  8
\U+30EC\U+30A4\U+30E4\U+30FC 1
 62
    18
420
   196608
370
    18
100
AcDbVertex
100
AcDb2dVertex
 10
63.03904620819858
 20
-109.5505913354596
 30
0.0
  0
VERTEX
  5
265
330
216
100
AcDbEntity
  8
\U+30EC\U+30A4\U+30E4\U+30FC 1
 62
    18
420
   196608
370
    18
100
AcDbVertex
100
AcDb2dVertex
 10
63.47002765340333
 20
-109.4858235403369
 30
0.0
  0
VERTEX
  5
266
330
216
100
AcDbEntity
  8
\U+30EC\U+30A4\U+30E4\U+30FC 1
 62
    18
420
   196608
370
    18
100
AcDbVertex
100
AcDb2dVertex
 10
63.90290390112497
 20
-109.4303575030244
 30
0.0
  0
VERTEX
  5
267
330
216
100
AcDbEntity
  8
\U+30EC\U+30A4\U+30E4\U+30FC 1
 62
    18
420
   196608
370
    18
100
AcDbVertex
100
AcDb2dVertex
 10
64.33681367749219
 20
-109.3821261662309
 30
0.0
  0
VERTEX
  5
268
330
216
100
AcDbEntity
  8
\U+30EC\U+30A4\U+30E4\U+30FC 1
 62
    18
420
   196608
370
    18
100
AcDbVertex
100
AcDb2dVertex
 10
64.77175698250498
 20
-109.3431965872475
 30
0.0
  0
VERTEX
  5
269
330
216
100
AcDbEntity
  8
\U+30EC\U+30A4\U+30E4\U+30FC 1
 62
    18
420
   196608
370
    18
100
AcDbVertex
100
AcDb2dVertex
 10
65.20807832571187
 20
-109.3115017087832
 30
0.0
  0
VERTEX
  5
26A
330
216
100
AcDbEntity
  8
\U+30EC\U+30A4\U+30E4\U+30FC 1
 62
    18
420
   196608
370
    18
100
AcDbVertex
100
AcDb2dVertex
 10
65.64474417846729
 20
-109.2891085881291
 30
0.0
  0
VERTEX
  5
26B
330
216
100
AcDbEntity
  8
\U+30EC\U+30A4\U+30E4\U+30FC 1
 62
    18
420
   196608
370
    18
100
AcDbVertex
100
AcDb2dVertex
 10
66.0819267955455
 20
-109.2742946775425
 30
0.0
  0
VERTEX
  5
26C
330
216
100
AcDbEntity
  8
\U+30EC\U+30A4\U+30E4\U+30FC 1
 62
    18
420
   196608
370
    18
100
AcDbVertex
100
AcDb2dVertex
 10
66.51945392217222
 20
-109.2670599770235
 30
0.0
  0
VERTEX
  5
26D
330
216
100
AcDbEntity
  8
\U+30EC\U+30A4\U+30E4\U+30FC 1
 62
    18
420
   196608
370
    18
100
AcDbVertex
100
AcDb2dVertex
 10
66.95698104879895
 20
-109.2680935056691
 30
0.0
  0
VERTEX
  5
26E
330
216
100
AcDbEntity
  8
\U+30EC\U+30A4\U+30E4\U+30FC 1
 62
    18
420
   196608
370
    18
100
AcDbVertex
100
AcDb2dVertex
 10
67.39399141110289
 20
-109.2767062443822
 30
0.0
  0
VERTEX
  5
26F
330
216
100
AcDbEntity
  8
\U+30EC\U+30A4\U+30E4\U+30FC 1
 62
    18
420
   196608
370
    18
100
AcDbVertex
100
AcDb2dVertex
 10
67.8311740281811
 20
-109.2925536836144
 30
0.0
  0
VERTEX
  5
270
330
216
100
AcDbEntity
  8
\U+30EC\U+30A4\U+30E4\U+30FC 1
 62
    18
420
   196608
370
    18
100
AcDbVertex
100
AcDb2dVertex
 10
68.26783988093652
 20
-109.3170138615596
 30
0.0
  0
VERTEX
  5
271
330
216
100
AcDbEntity
  8
\U+30EC\U+30A4\U+30E4\U+30FC 1
 62
    18
420
   196608
370
    18
100
AcDbVertex
100
AcDb2dVertex
 10
68.70364445982062
 20
-109.350086778218
 30
0.0
  0
VERTEX
  5
272
330
216
100
AcDbEntity
  8
\U+30EC\U+30A4\U+30E4\U+30FC 1
 62
    18
420
   196608
370
    18
100
AcDbVertex
100
AcDb2dVertex
 10
69.13858776483342
 20
-109.3917724335896
 30
0.0
  0
VERTEX
  5
273
330
216
100
AcDbEntity
  8
\U+30EC\U+30A4\U+30E4\U+30FC 1
 62
    18
420
   196608
370
    18
100
AcDbVertex
100
AcDb2dVertex
 10
69.5721530316521
 20
-109.4406927894801
 30
0.0
  0
VERTEX
  5
274
330
216
100
AcDbEntity
  8
\U+30EC\U+30A4\U+30E4\U+30FC 1
 62
    18
420
   196608
370
    18
100
AcDbVertex
100
AcDb2dVertex
 10
70.00502927937374
 20
-109.4982258840838
 30
0.0
  0
VERTEX
  5
275
330
216
100
AcDbEntity
  8
\U+30EC\U+30A4\U+30E4\U+30FC 1
 62
    18
420
   196608
370
    18
100
AcDbVertex
100
AcDb2dVertex
 10
70.43549396025571
 20
-109.5643717174006
 30
0.0
  0
VERTEX
  5
276
330
216
100
AcDbEntity
  8
\U+30EC\U+30A4\U+30E4\U+30FC 1
 62
    18
420
   196608
370
    18
100
AcDbVertex
100
AcDb2dVertex
 10
70.86475285771785
 20
-109.6384412703334
 30
0.0
  0
VERTEX
  5
277
330
216
100
AcDbEntity
  8
\U+30EC\U+30A4\U+30E4\U+30FC 1
 62
    18
420
   196608
370
    18
100
AcDbVertex
100
AcDb2dVertex
 10
71.29142793356604
 20
-109.7231906192706
 30
0.0
  0
VERTEX
  5
278
330
216
100
AcDbEntity
  8
\U+30EC\U+30A4\U+30E4\U+30FC 1
 62
    18
420
   196608
370
    18
100
AcDbVertex
100
AcDb2dVertex
 10
71.71586369734881
 20
-109.8155191782753
 30
0.0
  0
VERTEX
  5
279
330
216
100
AcDbEntity
  8
\U+30EC\U+30A4\U+30E4\U+30FC 1
 62
    18
420
   196608
370
    18
100
AcDbVertex
100
AcDb2dVertex
 10
72.13685436564634
 20
-109.9181830237357
 30
0.0
  0
VERTEX
  5
27A
330
216
100
AcDbEntity
  8
\U+30EC\U+30A4\U+30E4\U+30FC 1
 62
    18
420
   196608
370
    18
100
AcDbVertex
100
AcDb2dVertex
 10
72.55526121232994
 20
-110.0298041174578
 30
0.0
  0
VERTEX
  5
27B
330
216
100
AcDbEntity
  8
\U+30EC\U+30A4\U+30E4\U+30FC 1
 62
    18
420
   196608
370
    18
100
AcDbVertex
100
AcDb2dVertex
 10
72.76265596054198
 20
-110.0900932884497
 30
0.0
  0
VERTEX
  5
27C
330
216
100
AcDbEntity
  8
\U+30EC\U+30A4\U+30E4\U+30FC 1
 62
    18
420
   196608
370
    18
100
AcDbVertex
100
AcDb2dVertex
 10
72.96970619920549
 20
-110.1517604976357
 30
0.0
  0
VERTEX
  5
27D
330
216
100
AcDbEntity
  8
\U+30EC\U+30A4\U+30E4\U+30FC 1
 62
    18
420
   196608
370
    18
100
AcDbVertex
100
AcDb2dVertex
 10
73.17537839967491
 20
-110.2172173118554
 30
0.0
  0
VERTEX
  5
27E
330
216
100
AcDbEntity
  8
\U+30EC\U+30A4\U+30E4\U+30FC 1
 62
    18
420
   196608
370
    18
100
AcDbVertex
100
AcDb2dVertex
 10
73.3793280524017
 20
-110.2843966738178
 30
0.0
  0
VERTEX
  5
27F
330
216
100
AcDbEntity
  8
\U+30EC\U+30A4\U+30E4\U+30FC 1
 62
    18
420
   196608
370
    18
100
AcDbVertex
100
AcDb2dVertex
 10
73.5832777051285
 20
-110.3539876026198
 30
0.0
  0
VERTEX
  5
280
330
216
100
AcDbEntity
  8
\U+30EC\U+30A4\U+30E4\U+30FC 1
 62
    18
420
   196608
370
    18
100
AcDbVertex
100
AcDb2dVertex
 10
73.78516030056413
 20
-110.4273681364557
 30
0.0
  0
VERTEX
  5
281
330
216
100
AcDbEntity
  8
\U+30EC\U+30A4\U+30E4\U+30FC 1
 62
    18
420
   196608
370
    18
100
AcDbVertex
100
AcDb2dVertex
 10
73.9860093673542
 20
-110.5021267084856
 30
0.0
  0
VERTEX
  5
282
330
216
100
AcDbEntity
  8
\U+30EC\U+30A4\U+30E4\U+30FC 1
 62
    18
420
   196608
370
    18
100
AcDbVertex
100
AcDb2dVertex
 10
74.18513588640164
 20
-110.5806748855493
 30
0.0
  0
VERTEX
  5
283
330
216
100
AcDbEntity
  8
\U+30EC\U+30A4\U+30E4\U+30FC 1
 62
    18
420
   196608
370
    18
100
AcDbVertex
100
AcDb2dVertex
 10
74.38357338635203
 20
-110.6616346294526
 30
0.0
  0
VERTEX
  5
284
330
216
100
AcDbEntity
  8
\U+30EC\U+30A4\U+30E4\U+30FC 1
 62
    18
420
   196608
370
    18
100
AcDbVertex
100
AcDb2dVertex
 10
74.57959931946274
 20
-110.7453504497442
 30
0.0
  0
VERTEX
  5
285
330
216
100
AcDbEntity
  8
\U+30EC\U+30A4\U+30E4\U+30FC 1
 62
    18
420
   196608
370
    18
100
AcDbVertex
100
AcDb2dVertex
 10
74.77390270483083
 20
-110.832511365521
 30
0.0
  0
VERTEX
  5
286
330
216
100
AcDbEntity
  8
\U+30EC\U+30A4\U+30E4\U+30FC 1
 62
    18
420
   196608
370
    18
100
AcDbVertex
100
AcDb2dVertex
 10
74.96700030677908
 20
-110.9231173767831
 30
0.0
  0
VERTEX
  5
287
330
216
100
AcDbEntity
  8
\U+30EC\U+30A4\U+30E4\U+30FC 1
 62
    18
420
   196608
370
    18
100
AcDbVertex
100
AcDb2dVertex
 10
75.1575140871134
 20
-111.0157904453363
 30
0.0
  0
VERTEX
  5
288
330
216
100
AcDbEntity
  8
\U+30EC\U+30A4\U+30E4\U+30FC 1
 62
    18
420
   196608
370
    18
100
AcDbVertex
100
AcDb2dVertex
 10
75.34699433880215
 20
-111.1122531189233
 30
0.0
  0
VERTEX
  5
289
330
216
100
AcDbEntity
  8
\U+30EC\U+30A4\U+30E4\U+30FC 1
 62
    18
420
   196608
370
    18
100
AcDbVertex
100
AcDb2dVertex
 10
75.53320174977989
 20
-111.2107828498015
 30
0.0
  0
VERTEX
  5
28A
330
216
100
AcDbEntity
  8
\U+30EC\U+30A4\U+30E4\U+30FC 1
 62
    18
420
   196608
370
    18
100
AcDbVertex
100
AcDb2dVertex
 10
75.71785886778929
 20
-111.3137912048104
 30
0.0
  0
VERTEX
  5
28B
330
216
100
AcDbEntity
  8
\U+30EC\U+30A4\U+30E4\U+30FC 1
 62
    18
420
   196608
370
    18
100
AcDbVertex
100
AcDb2dVertex
 10
75.900104418959
 20
-111.4181775980135
 30
0.0
  0
VERTEX
  5
28C
330
216
100
AcDbEntity
  8
\U+30EC\U+30A4\U+30E4\U+30FC 1
 62
    18
420
   196608
370
    18
100
AcDbVertex
100
AcDb2dVertex
 10
76.07959389374052
 20
-111.5273871248959
 30
0.0
  0
VERTEX
  5
28D
330
216
100
AcDbEntity
  8
\U+30EC\U+30A4\U+30E4\U+30FC 1
 62
    18
420
   196608
370
    18
100
AcDbVertex
100
AcDb2dVertex
 10
76.25615503735958
 20
-111.639008218618
 30
0.0
  0
VERTEX
  5
28E
330
216
100
AcDbEntity
  8
\U+30EC\U+30A4\U+30E4\U+30FC 1
 62
    18
420
   196608
370
    18
100
AcDbVertex
100
AcDb2dVertex
 10
76.43047686891322
 20
-111.7547634269224
 30
0.0
  0
VERTEX
  5
28F
330
216
100
AcDbEntity
  8
\U+30EC\U+30A4\U+30E4\U+30FC 1
 62
    18
420
   196608
370
    18
100
AcDbVertex
100
AcDb2dVertex
 10
76.60083684065883
 20
-111.873274711615
 30
0.0
  0
VERTEX
  5
290
330
216
100
AcDbEntity
  8
\U+30EC\U+30A4\U+30E4\U+30FC 1
 62
    18
420
   196608
370
    18
100
AcDbVertex
100
AcDb2dVertex
 10
76.76861299079049
 20
-111.9952310917929
 30
0.0
  0
VERTEX
  5
291
330
216
100
AcDbEntity
  8
\U+30EC\U+30A4\U+30E4\U+30FC 1
 62
    18
420
   196608
370
    18
100
AcDbVertex
100
AcDb2dVertex
 10
76.93294404543691
 20
-112.1216660961015
 30
0.0
  0
VERTEX
  5
292
330
216
100
AcDbEntity
  8
\U+30EC\U+30A4\U+30E4\U+30FC 1
 62
    18
420
   196608
370
    18
100
AcDbVertex
100
AcDb2dVertex
 10
77.09383000459808
 20
-112.2498236481528
 30
0.0
  0
VERTEX
  5
293
330
216
100
AcDbEntity
  8
\U+30EC\U+30A4\U+30E4\U+30FC 1
 62
    18
420
   196608
370
    18
100
AcDbVertex
100
AcDb2dVertex
 10
77.24972057530563
 20
-112.383148843432
 30
0.0
  0
VERTEX
  5
294
330
216
100
AcDbEntity
  8
\U+30EC\U+30A4\U+30E4\U+30FC 1
 62
    18
420
   196608
370
    18
100
AcDbVertex
100
AcDb2dVertex
 10
77.40268281485072
 20
-112.5181965864538
 30
0.0
  0
VERTEX
  5
295
330
216
100
AcDbEntity
  8
\U+30EC\U+30A4\U+30E4\U+30FC 1
 62
    18
420
   196608
370
    18
100
AcDbVertex
100
AcDb2dVertex
 10
77.55099417549073
 20
-112.6577229536064
 30
0.0
  0
VERTEX
  5
296
330
216
100
AcDbEntity
  8
\U+30EC\U+30A4\U+30E4\U+30FC 1
 62
    18
420
   196608
370
    18
100
AcDbVertex
100
AcDb2dVertex
 10
77.69465465722564
 20
-112.8017279448898
 30
0.0
  0
VERTEX
  5
297
330
216
100
AcDbEntity
  8
\U+30EC\U+30A4\U+30E4\U+30FC 1
 62
    18
420
   196608
370
    18
100
AcDbVertex
100
AcDb2dVertex
 10
77.83383651482974
 20
-112.948144503013
 30
0.0
  0
VERTEX
  5
298
330
216
100
AcDbEntity
  8
\U+30EC\U+30A4\U+30E4\U+30FC 1
 62
    18
420
   196608
370
    18
100
AcDbVertex
100
AcDb2dVertex
 10
77.96836749352875
 20
-113.0986951757184
 30
0.0
  0
VERTEX
  5
299
330
216
100
AcDbEntity
  8
\U+30EC\U+30A4\U+30E4\U+30FC 1
 62
    18
420
   196608
370
    18
100
AcDbVertex
100
AcDb2dVertex
 10
78.09652504558004
 20
-113.2523464343605
 30
0.0
  0
VERTEX
  5
29A
330
216
100
AcDbEntity
  8
\U+30EC\U+30A4\U+30E4\U+30FC 1
 62
    18
420
   196608
370
    18
100
AcDbVertex
100
AcDb2dVertex
 10
78.21985946395198
 20
-113.410131807585
 30
0.0
  0
VERTEX
  5
29B
330
216
100
AcDbEntity
  8
\U+30EC\U+30A4\U+30E4\U+30FC 1
 62
    18
420
   196608
370
    18
100
AcDbVertex
100
AcDb2dVertex
 10
78.33716496522474
 20
-113.5686061999065
 30
0.0
  0
VERTEX
  5
29C
330
216
100
AcDbEntity
  8
\U+30EC\U+30A4\U+30E4\U+30FC 1
 62
    18
420
   196608
370
    18
100
AcDbVertex
100
AcDb2dVertex
 10
78.44861380417257
 20
-113.7325927450044
 30
0.0
  0
VERTEX
  5
29D
330
216
100
AcDbEntity
  8
\U+30EC\U+30A4\U+30E4\U+30FC 1
 62
    18
420
   196608
370
    18
100
AcDbVertex
100
AcDb2dVertex
 10
78.55334470692416
 20
-113.8989908569419
 30
0.0
  0
VERTEX
  5
29E
330
216
100
AcDbEntity
  8
\U+30EC\U+30A4\U+30E4\U+30FC 1
 62
    18
420
   196608
370
    18
100
AcDbVertex
100
AcDb2dVertex
 10
78.65170218302805
 20
-114.0698675930103
 30
0.0
  0
VERTEX
  5
29F
330
216
100
AcDbEntity
  8
\U+30EC\U+30A4\U+30E4\U+30FC 1
 62
    18
420
   196608
370
    18
100
AcDbVertex
100
AcDb2dVertex
 10
78.74248044906439
 20
-114.2424668768213
 30
0.0
  0
VERTEX
  5
2A0
330
216
100
AcDbEntity
  8
\U+30EC\U+30A4\U+30E4\U+30FC 1
 62
    18
420
   196608
370
    18
100
AcDbVertex
100
AcDb2dVertex
 10
78.826885288453
 20
-114.417477727472
 30
0.0
  0
VERTEX
  5
2A1
330
216
100
AcDbEntity
  8
\U+30EC\U+30A4\U+30E4\U+30FC 1
 62
    18
420
   196608
370
    18
100
AcDbVertex
100
AcDb2dVertex
 10
78.90284964390277
 20
-114.5952446545109
 30
0.0
  0
VERTEX
  5
2A2
330
216
100
AcDbEntity
  8
\U+30EC\U+30A4\U+30E4\U+30FC 1
 62
    18
420
   196608
370
    18
100
AcDbVertex
100
AcDb2dVertex
 10
78.9715792988335
 20
-114.775767657938
 30
0.0
  0
SEQEND
  5
2A3
330
216
100
AcDbEntity
  8
\U+30EC\U+30A4\U+30E4\U+30FC 1
370
    18
  0
SPLINE
  5
2A4
330
1F
100
AcDbEntity
  8
\U+30EC\U+30A4\U+30E4\U+30FC 1
 62
    18
420
   196608
370
    18
100
AcDbSpline
210
0.0
220
0.0
230
1.0
 70
     8
 71
     3
 72
     8
 73
     4
 74
     0
 42
0.0000000001
 43
0.0000000001
 40
0.0
 40
0.0
 40
0.0
 40
0.0
 40
1.0
 40
1.0
 40
1.0
 40
1.0
 10
76.99616154759124
 20
-120.1866346270714
 30
0.0
 10
77.96233857642956
 20
-119.4135552001813
 30
0.0
 10
78.63482121515032
 20
-118.5271321318266
 30
0.0
 10
78.9715792988335
 20
-117.5824869497711
 30
0.0
  0
POLYLINE
  5
2A5
330
1F
100
AcDbEntity
  8
\U+30EC\U+30A4\U+30E4\U+30FC 1
 62
    18
420
   196608
370
    18
100
AcDb2dPolyline
 66
     1
 10
0.0
 20
0.0
 30
0.0
  0
VERTEX
  5
2A6
330
2A5
100
AcDbEntity
  8
\U+30EC\U+30A4\U+30E4\U+30FC 1
 62
    18
420
   196608
370
    18
100
AcDbVertex
100
AcDb2dVertex
 10
56.39345701715164
 20
-120.1866346270714
 30
0.0
  0
VERTEX
  5
2A7
330
2A5
100
AcDbEntity
  8
\U+30EC\U+30A4\U+30E4\U+30FC 1
 62
    18
420
   196608
370
    18
100
AcDbVertex
100
AcDb2dVertex
 10
56.23532713437867
 20
-120.3165147268653
 30
0.0
  0
VERTEX
  5
2A8
330
2A5
100
AcDbEntity
  8
\U+30EC\U+30A4\U+30E4\U+30FC 1
 62
    18
420
   196608
370
    18
100
AcDbVertex
100
AcDb2dVertex
 10
56.07978107321964
 20
-120.4508734507901
 30
0.0
  0
VERTEX
  5
2A9
330
2A5
100
AcDbEntity
  8
\U+30EC\U+30A4\U+30E4\U+30FC 1
 62
    18
420
   196608
370
    18
100
AcDbVertex
100
AcDb2dVertex
 10
55.92940265528848
 20
-120.5886772702001
 30
0.0
  0
VERTEX
  5
2AA
330
2A5
100
AcDbEntity
  8
\U+30EC\U+30A4\U+30E4\U+30FC 1
 62
    18
420
   196608
370
    18
100
AcDbVertex
100
AcDb2dVertex
 10
55.78212482329405
 20
-120.7295816755468
 30
0.0
  0
VERTEX
  5
2AB
330
2A5
100
AcDbEntity
  8
\U+30EC\U+30A4\U+30E4\U+30FC 1
 62
    18
420
   196608
370
    18
100
AcDbVertex
100
AcDb2dVertex
 10
55.6400146345275
 20
-120.8735866668302
 30
0.0
  0
VERTEX
  5
2AC
330
2A5
100
AcDbEntity
  8
\U+30EC\U+30A4\U+30E4\U+30FC 1
 62
    18
420
   196608
370
    18
100
AcDbVertex
100
AcDb2dVertex
 10
55.50272757944029
 20
-121.021725772696
 30
0.0
  0
VERTEX
  5
2AD
330
2A5
100
AcDbEntity
  8
\U+30EC\U+30A4\U+30E4\U+30FC 1
 62
    18
420
   196608
370
    18
100
AcDbVertex
100
AcDb2dVertex
 10
55.37112493190375
 20
-121.173309974047
 30
0.0
  0
VERTEX
  5
2AE
330
2A5
100
AcDbEntity
  8
\U+30EC\U+30A4\U+30E4\U+30FC 1
 62
    18
420
   196608
370
    18
100
AcDbVertex
100
AcDb2dVertex
 10
55.24434541804656
 20
-121.3286837804317
 30
0.0
  0
VERTEX
  5
2AF
330
2A5
100
AcDbEntity
  8
\U+30EC\U+30A4\U+30E4\U+30FC 1
 62
    18
420
   196608
370
    18
100
AcDbVertex
100
AcDb2dVertex
 10
55.12359482128855
 20
-121.4864691536562
 30
0.0
  0
VERTEX
  5
2B0
330
2A5
100
AcDbEntity
  8
\U+30EC\U+30A4\U+30E4\U+30FC 1
 62
    18
420
   196608
370
    18
100
AcDbVertex
100
AcDb2dVertex
 10
55.00801186775842
 20
-121.6483886414629
 30
0.0
  0
VERTEX
  5
2B1
330
2A5
100
AcDbEntity
  8
\U+30EC\U+30A4\U+30E4\U+30FC 1
 62
    18
420
   196608
370
    18
100
AcDbVertex
100
AcDb2dVertex
 10
54.89949135997305
 20
-121.8123751865608
 30
0.0
  0
VERTEX
  5
2B2
330
2A5
100
AcDbEntity
  8
\U+30EC\U+30A4\U+30E4\U+30FC 1
 62
    18
420
   196608
370
    18
100
AcDbVertex
100
AcDb2dVertex
 10
54.79717202406113
 20
-121.9815293748866
 30
0.0
  0
VERTEX
  5
2B3
330
2A5
100
AcDbEntity
  8
\U+30EC\U+30A4\U+30E4\U+30FC 1
 62
    18
420
   196608
370
    18
100
AcDbVertex
100
AcDb2dVertex
 10
54.70208738866823
 20
-122.1513725823094
 30
0.0
  0
VERTEX
  5
2B4
330
2A5
100
AcDbEntity
  8
\U+30EC\U+30A4\U+30E4\U+30FC 1
 62
    18
420
   196608
370
    18
100
AcDbVertex
100
AcDb2dVertex
 10
54.61372068947157
 20
-122.3263834329601
 30
0.0
  0
VERTEX
  5
2B5
330
2A5
100
AcDbEntity
  8
\U+30EC\U+30A4\U+30E4\U+30FC 1
 62
    18
420
   196608
370
    18
100
AcDbVertex
100
AcDb2dVertex
 10
54.53258869079394
 20
-122.5027723218049
 30
0.0
  0
VERTEX
  5
2B6
330
2A5
100
AcDbEntity
  8
\U+30EC\U+30A4\U+30E4\U+30FC 1
 62
    18
420
   196608
370
    18
100
AcDbVertex
100
AcDb2dVertex
 10
54.45886364740959
 20
-122.6812282679408
 30
0.0
  0
VERTEX
  5
2B7
330
2A5
100
AcDbEntity
  8
\U+30EC\U+30A4\U+30E4\U+30FC 1
 62
    18
420
   196608
370
    18
100
AcDbVertex
100
AcDb2dVertex
 10
54.39357908796411
 20
-122.8624402904649
 30
0.0
  0
VERTEX
  5
2B8
330
2A5
100
AcDbEntity
  8
\U+30EC\U+30A4\U+30E4\U+30FC 1
 62
    18
420
   196608
370
    18
100
AcDbVertex
100
AcDb2dVertex
 10
54.33656275768323
 20
-123.0457193702802
 30
0.0
  0
VERTEX
  5
2B9
330
2A5
100
AcDbEntity
  8
\U+30EC\U+30A4\U+30E4\U+30FC 1
 62
    18
420
   196608
370
    18
100
AcDbVertex
100
AcDb2dVertex
 10
54.28729789224415
 20
-123.2314100169352
 30
0.0
  0
VERTEX
  5
2BA
330
2A5
100
AcDbEntity
  8
\U+30EC\U+30A4\U+30E4\U+30FC 1
 62
    18
420
   196608
370
    18
100
AcDbVertex
100
AcDb2dVertex
 10
54.2466457655182
 20
-123.4177896826872
 30
0.0
  0
VERTEX
  5
2BB
330
2A5
100
AcDbEntity
  8
\U+30EC\U+30A4\U+30E4\U+30FC 1
 62
    18
420
   196608
370
    18
100
AcDbVertex
100
AcDb2dVertex
 10
54.2149508870539
 20
-123.6058918961819
 30
0.0
  0
VERTEX
  5
2BC
330
2A5
100
AcDbEntity
  8
\U+30EC\U+30A4\U+30E4\U+30FC 1
 62
    18
420
   196608
370
    18
100
AcDbVertex
100
AcDb2dVertex
 10
54.19135198297995
 20
-123.7950276383221
 30
0.0
  0
VERTEX
  5
2BD
330
2A5
100
AcDbEntity
  8
\U+30EC\U+30A4\U+30E4\U+30FC 1
 62
    18
420
   196608
370
    18
100
AcDbVertex
100
AcDb2dVertex
 10
54.17705483671615
 20
-123.9845078900108
 30
0.0
  0
VERTEX
  5
2BE
330
2A5
100
AcDbEntity
  8
\U+30EC\U+30A4\U+30E4\U+30FC 1
 62
    18
420
   196608
370
    18
100
AcDbVertex
100
AcDb2dVertex
 10
54.17171493871402
 20
-124.1743326512481
 30
0.0
  0
VERTEX
  5
2BF
330
2A5
100
AcDbEntity
  8
\U+30EC\U+30A4\U+30E4\U+30FC 1
 62
    18
420
   196608
370
    18
100
AcDbVertex
100
AcDb2dVertex
 10
54.17516003419927
 20
-124.3645019220339
 30
0.0
  0
VERTEX
  5
2C0
330
2A5
100
AcDbEntity
  8
\U+30EC\U+30A4\U+30E4\U+30FC 1
 62
    18
420
   196608
370
    18
100
AcDbVertex
100
AcDb2dVertex
 10
54.18790688749469
 20
-124.5536376641741
 30
0.0
  0
VERTEX
  5
2C1
330
2A5
100
AcDbEntity
  8
\U+30EC\U+30A4\U+30E4\U+30FC 1
 62
    18
420
   196608
370
    18
100
AcDbVertex
100
AcDb2dVertex
 10
54.20874971518045
 20
-124.7427734063143
 30
0.0
  0
VERTEX
  5
2C2
330
2A5
100
AcDbEntity
  8
\U+30EC\U+30A4\U+30E4\U+30FC 1
 62
    18
420
   196608
370
    18
100
AcDbVertex
100
AcDb2dVertex
 10
54.23889430067639
 20
-124.930875619809
 30
0.0
  0
VERTEX
  5
2C3
330
2A5
100
AcDbEntity
  8
\U+30EC\U+30A4\U+30E4\U+30FC 1
 62
    18
420
   196608
370
    18
100
AcDbVertex
100
AcDb2dVertex
 10
54.27816838920824
 20
-125.1182888142066
 30
0.0
  0
VERTEX
  5
2C4
330
2A5
100
AcDbEntity
  8
\U+30EC\U+30A4\U+30E4\U+30FC 1
 62
    18
420
   196608
370
    18
100
AcDbVertex
100
AcDb2dVertex
 10
54.3251939425819
 20
-125.3029459322159
 30
0.0
  0
VERTEX
  5
2C5
330
2A5
100
AcDbEntity
  8
\U+30EC\U+30A4\U+30E4\U+30FC 1
 62
    18
420
   196608
370
    18
100
AcDbVertex
100
AcDb2dVertex
 10
54.38100448944294
 20
-125.4879475597739
 30
0.0
  0
VERTEX
  5
2C6
330
2A5
100
AcDbEntity
  8
\U+30EC\U+30A4\U+30E4\U+30FC 1
 62
    18
420
   196608
370
    18
100
AcDbVertex
100
AcDb2dVertex
 10
54.44456650114581
 20
-125.669159582298
 30
0.0
  0
VERTEX
  5
2C7
330
2A5
100
AcDbEntity
  8
\U+30EC\U+30A4\U+30E4\U+30FC 1
 62
    18
420
   196608
370
    18
100
AcDbVertex
100
AcDb2dVertex
 10
54.51691350633605
 20
-125.8486490570795
 30
0.0
  0
VERTEX
  5
2C8
330
2A5
100
AcDbEntity
  8
\U+30EC\U+30A4\U+30E4\U+30FC 1
 62
    18
420
   196608
370
    18
100
AcDbVertex
100
AcDb2dVertex
 10
54.59580619294827
 20
-126.0246934363758
 30
0.0
  0
VERTEX
  5
2C9
330
2A5
100
AcDbEntity
  8
\U+30EC\U+30A4\U+30E4\U+30FC 1
 62
    18
420
   196608
370
    18
100
AcDbVertex
100
AcDb2dVertex
 10
54.68245034440231
 20
-126.200048796575
 30
0.0
  0
VERTEX
  5
2CA
330
2A5
100
AcDbEntity
  8
\U+30EC\U+30A4\U+30E4\U+30FC 1
 62
    18
420
   196608
370
    18
100
AcDbVertex
100
AcDb2dVertex
 10
54.77667370592389
 20
-126.3709255326434
 30
0.0
  0
VERTEX
  5
2CB
330
2A5
100
AcDbEntity
  8
\U+30EC\U+30A4\U+30E4\U+30FC 1
 62
    18
420
   196608
370
    18
100
AcDbVertex
100
AcDb2dVertex
 10
54.87778725841597
 20
-126.5407687400662
 30
0.0
  0
VERTEX
  5
2CC
330
2A5
100
AcDbEntity
  8
\U+30EC\U+30A4\U+30E4\U+30FC 1
 62
    18
420
   196608
370
    18
100
AcDbVertex
100
AcDb2dVertex
 10
54.98458521845872
 20
-126.7054443042611
 30
0.0
  0
VERTEX
  5
2CD
330
2A5
100
AcDbEntity
  8
\U+30EC\U+30A4\U+30E4\U+30FC 1
 62
    18
420
   196608
370
    18
100
AcDbVertex
100
AcDb2dVertex
 10
55.09879013379475
 20
-126.8683973207135
 30
0.0
  0
VERTEX
  5
2CE
330
2A5
100
AcDbEntity
  8
\U+30EC\U+30A4\U+30E4\U+30FC 1
 62
    18
420
   196608
370
    18
100
AcDbVertex
100
AcDb2dVertex
 10
55.21850720190718
 20
-127.0272162225835
 30
0.0
  0
VERTEX
  5
2CF
330
2A5
100
AcDbEntity
  8
\U+30EC\U+30A4\U+30E4\U+30FC 1
 62
    18
420
   196608
370
    18
100
AcDbVertex
100
AcDb2dVertex
 10
55.34408093234454
 20
-127.1822455194197
 30
0.0
  0
VERTEX
  5
2D0
330
2A5
100
AcDbEntity
  8
\U+30EC\U+30A4\U+30E4\U+30FC 1
 62
    18
420
   196608
370
    18
100
AcDbVertex
100
AcDb2dVertex
 10
55.47430554168698
 20
-127.3348632494163
 30
0.0
  0
VERTEX
  5
2D1
330
2A5
100
AcDbEntity
  8
\U+30EC\U+30A4\U+30E4\U+30FC 1
 62
    18
420
   196608
370
    18
100
AcDbVertex
100
AcDb2dVertex
 10
55.61124808722566
 20
-127.4836913743791
 30
0.0
  0
VERTEX
  5
2D2
330
2A5
100
AcDbEntity
  8
\U+30EC\U+30A4\U+30E4\U+30FC 1
 62
    18
420
   196608
370
    18
100
AcDbVertex
100
AcDb2dVertex
 10
55.75146347347533
 20
-127.6283853847596
 30
0.0
  0
VERTEX
  5
2D3
330
2A5
100
AcDbEntity
  8
\U+30EC\U+30A4\U+30E4\U+30FC 1
 62
    18
420
   196608
370
    18
100
AcDbVertex
100
AcDb2dVertex
 10
55.89753552204992
 20
-127.7706678283004
 30
0.0
  0
VERTEX
  5
2D4
330
2A5
100
AcDbEntity
  8
\U+30EC\U+30A4\U+30E4\U+30FC 1
 62
    18
420
   196608
370
    18
100
AcDbVertex
100
AcDb2dVertex
 10
56.04705266610976
 20
-127.9084716477104
 30
0.0
  0
VERTEX
  5
2D5
330
2A5
100
AcDbEntity
  8
\U+30EC\U+30A4\U+30E4\U+30FC 1
 62
    18
420
   196608
370
    18
100
AcDbVertex
100
AcDb2dVertex
 10
56.20173745339748
 20
-128.0435193907322
 30
0.0
  0
VERTEX
  5
2D6
330
2A5
100
AcDbEntity
  8
\U+30EC\U+30A4\U+30E4\U+30FC 1
 62
    18
420
   196608
370
    18
100
AcDbVertex
100
AcDb2dVertex
 10
56.35986733617045
 20
-128.1740885096231
 30
0.0
  0
VERTEX
  5
2D7
330
2A5
100
AcDbEntity
  8
\U+30EC\U+30A4\U+30E4\U+30FC 1
 62
    18
420
   196608
370
    18
100
AcDbVertex
100
AcDb2dVertex
 10
56.52195907875146
 20
-128.3022460616745
 30
0.0
  0
VERTEX
  5
2D8
330
2A5
100
AcDbEntity
  8
\U+30EC\U+30A4\U+30E4\U+30FC 1
 62
    18
420
   196608
370
    18
100
AcDbVertex
100
AcDb2dVertex
 10
56.68715140726918
 20
-128.4259249895949
 30
0.0
  0
VERTEX
  5
2D9
330
2A5
100
AcDbEntity
  8
\U+30EC\U+30A4\U+30E4\U+30FC 1
 62
    18
420
   196608
370
    18
100
AcDbVertex
100
AcDb2dVertex
 10
56.85630559559495
 20
-128.5471923506757
 30
0.0
  0
VERTEX
  5
2DA
330
2A5
100
AcDbEntity
  8
\U+30EC\U+30A4\U+30E4\U+30FC 1
 62
    18
420
   196608
370
    18
100
AcDbVertex
100
AcDb2dVertex
 10
57.02804360553466
 20
-128.6650146162713
 30
0.0
  0
VERTEX
  5
2DB
330
2A5
100
AcDbEntity
  8
\U+30EC\U+30A4\U+30E4\U+30FC 1
 62
    18
420
   196608
370
    18
100
AcDbVertex
100
AcDb2dVertex
 10
57.20357122050814
 20
-128.778358257736
 30
0.0
  0
VERTEX
  5
2DC
330
2A5
100
AcDbEntity
  8
\U+30EC\U+30A4\U+30E4\U+30FC 1
 62
    18
420
   196608
370
    18
100
AcDbVertex
100
AcDb2dVertex
 10
57.38099363799851
 20
-128.8889458228125
 30
0.0
  0
VERTEX
  5
2DD
330
2A5
100
AcDbEntity
  8
\U+30EC\U+30A4\U+30E4\U+30FC 1
 62
    18
420
   196608
370
    18
100
AcDbVertex
100
AcDb2dVertex
 10
57.5615166414256
 20
-128.9971218210493
 30
0.0
  0
VERTEX
  5
2DE
330
2A5
100
AcDbEntity
  8
\U+30EC\U+30A4\U+30E4\U+30FC 1
 62
    18
420
   196608
370
    18
100
AcDbVertex
100
AcDb2dVertex
 10
57.74445121169236
 20
-129.0997856665098
 30
0.0
  0
VERTEX
  5
2DF
330
2A5
100
AcDbEntity
  8
\U+30EC\U+30A4\U+30E4\U+30FC 1
 62
    18
420
   196608
370
    18
100
AcDbVertex
100
AcDb2dVertex
 10
57.92962509402454
 20
-129.2017604928732
 30
0.0
  0
VERTEX
  5
2E0
330
2A5
100
AcDbEntity
  8
\U+30EC\U+30A4\U+30E4\U+30FC 1
 62
    18
420
   196608
370
    18
100
AcDbVertex
100
AcDb2dVertex
 10
58.11703828842213
 20
-129.2992566951058
 30
0.0
  0
VERTEX
  5
2E1
330
2A5
100
AcDbEntity
  8
\U+30EC\U+30A4\U+30E4\U+30FC 1
 62
    18
420
   196608
370
    18
100
AcDbVertex
100
AcDb2dVertex
 10
58.30669079488514
 20
-129.3943413304986
 30
0.0
  0
VERTEX
  5
2E2
330
2A5
100
AcDbEntity
  8
\U+30EC\U+30A4\U+30E4\U+30FC 1
 62
    18
420
   196608
370
    18
100
AcDbVertex
100
AcDb2dVertex
 10
58.49841035863929
 20
-129.4859808704063
 30
0.0
  0
VERTEX
  5
2E3
330
2A5
100
AcDbEntity
  8
\U+30EC\U+30A4\U+30E4\U+30FC 1
 62
    18
420
   196608
370
    18
100
AcDbVertex
100
AcDb2dVertex
 10
58.69185247013607
 20
-129.5748643339257
 30
0.0
  0
VERTEX
  5
2E4
330
2A5
100
AcDbEntity
  8
\U+30EC\U+30A4\U+30E4\U+30FC 1
 62
    18
420
   196608
370
    18
100
AcDbVertex
100
AcDb2dVertex
 10
58.88718938414974
 20
-129.6603027019599
 30
0.0
  0
VERTEX
  5
2E5
330
2A5
100
AcDbEntity
  8
\U+30EC\U+30A4\U+30E4\U+30FC 1
 62
    18
420
   196608
370
    18
100
AcDbVertex
100
AcDb2dVertex
 10
59.08407659113176
 20
-129.7429849936059
 30
0.0
  0
VERTEX
  5
2E6
330
2A5
100
AcDbEntity
  8
\U+30EC\U+30A4\U+30E4\U+30FC 1
 62
    18
420
   196608
370
    18
100
AcDbVertex
100
AcDb2dVertex
 10
59.28285860063068
 20
-129.8232557184122
 30
0.0
  0
VERTEX
  5
2E7
330
2A5
100
AcDbEntity
  8
\U+30EC\U+30A4\U+30E4\U+30FC 1
 62
    18
420
   196608
370
    18
100
AcDbVertex
100
AcDb2dVertex
 10
59.48284639354943
 20
-129.9000813477333
 30
0.0
  0
VERTEX
  5
2E8
330
2A5
100
AcDbEntity
  8
\U+30EC\U+30A4\U+30E4\U+30FC 1
 62
    18
420
   196608
370
    18
100
AcDbVertex
100
AcDb2dVertex
 10
59.68386771511376
 20
-129.9748399197632
 30
0.0
  0
VERTEX
  5
2E9
330
2A5
100
AcDbEntity
  8
\U+30EC\U+30A4\U+30E4\U+30FC 1
 62
    18
420
   196608
370
    18
100
AcDbVertex
100
AcDb2dVertex
 10
59.88695609396924
 20
-130.0471869249535
 30
0.0
  0
VERTEX
  5
2EA
330
2A5
100
AcDbEntity
  8
\U+30EC\U+30A4\U+30E4\U+30FC 1
 62
    18
420
   196608
370
    18
100
AcDbVertex
100
AcDb2dVertex
 10
60.09038898237324
 20
-130.1160888346585
 30
0.0
  0
VERTEX
  5
2EB
330
2A5
100
AcDbEntity
  8
\U+30EC\U+30A4\U+30E4\U+30FC 1
 62
    18
420
   196608
370
    18
100
AcDbVertex
100
AcDb2dVertex
 10
60.29519990897134
 20
-130.1822346679753
 30
0.0
  0
VERTEX
  5
2EC
330
2A5
100
AcDbEntity
  8
\U+30EC\U+30A4\U+30E4\U+30FC 1
 62
    18
420
   196608
370
    18
100
AcDbVertex
100
AcDb2dVertex
 10
60.50138887376355
 20
-130.2449354058068
 30
0.0
  0
VERTEX
  5
2ED
330
2A5
100
AcDbEntity
  8
\U+30EC\U+30A4\U+30E4\U+30FC 1
 62
    18
420
   196608
370
    18
100
AcDbVertex
100
AcDb2dVertex
 10
60.70878362197558
 20
-130.3079806531869
 30
0.0
  0
VERTEX
  5
2EE
330
2A5
100
AcDbEntity
  8
\U+30EC\U+30A4\U+30E4\U+30FC 1
 62
    18
420
   196608
370
    18
100
AcDbVertex
100
AcDb2dVertex
 10
60.91669513451041
 20
-130.3662027668876
 30
0.0
  0
VERTEX
  5
2EF
330
2A5
100
AcDbEntity
  8
\U+30EC\U+30A4\U+30E4\U+30FC 1
 62
    18
420
   196608
370
    18
100
AcDbVertex
100
AcDb2dVertex
 10
61.33544649074253
 20
-130.4761013128671
 30
0.0
  0
VERTEX
  5
2F0
330
2A5
100
AcDbEntity
  8
\U+30EC\U+30A4\U+30E4\U+30FC 1
 62
    18
420
   196608
370
    18
100
AcDbVertex
100
AcDb2dVertex
 10
61.75781519723416
 20
-130.5763535914879
 30
0.0
  0
VERTEX
  5
2F1
330
2A5
100
AcDbEntity
  8
\U+30EC\U+30A4\U+30E4\U+30FC 1
 62
    18
420
   196608
370
    18
100
AcDbVertex
100
AcDb2dVertex
 10
62.18190645146841
 20
-130.6679931313955
 30
0.0
  0
VERTEX
  5
2F2
330
2A5
100
AcDbEntity
  8
\U+30EC\U+30A4\U+30E4\U+30FC 1
 62
    18
420
   196608
370
    18
100
AcDbVertex
100
AcDb2dVertex
 10
62.60944280118792
 20
-130.7496418943959
 30
0.0
  0
VERTEX
  5
2F3
330
2A5
100
AcDbEntity
  8
\U+30EC\U+30A4\U+30E4\U+30FC 1
 62
    18
420
   196608
370
    18
100
AcDbVertex
100
AcDb2dVertex
 10
63.03904620819858
 20
-130.8230224282318
 30
0.0
  0
VERTEX
  5
2F4
330
2A5
100
AcDbEntity
  8
\U+30EC\U+30A4\U+30E4\U+30FC 1
 62
    18
420
   196608
370
    18
100
AcDbVertex
100
AcDb2dVertex
 10
63.47002765340333
 20
-130.8874457138059
 30
0.0
  0
VERTEX
  5
2F5
330
2A5
100
AcDbEntity
  8
\U+30EC\U+30A4\U+30E4\U+30FC 1
 62
    18
420
   196608
370
    18
100
AcDbVertex
100
AcDb2dVertex
 10
63.90290390112497
 20
-130.943256260667
 30
0.0
  0
VERTEX
  5
2F6
330
2A5
100
AcDbEntity
  8
\U+30EC\U+30A4\U+30E4\U+30FC 1
 62
    18
420
   196608
370
    18
100
AcDbVertex
100
AcDb2dVertex
 10
64.33681367749219
 20
-130.9904540688149
 30
0.0
  0
VERTEX
  5
2F7
330
2A5
100
AcDbEntity
  8
\U+30EC\U+30A4\U+30E4\U+30FC 1
 62
    18
420
   196608
370
    18
100
AcDbVertex
100
AcDb2dVertex
 10
64.77175698250498
 20
-131.0293836477982
 30
0.0
  0
VERTEX
  5
2F8
330
2A5
100
AcDbEntity
  8
\U+30EC\U+30A4\U+30E4\U+30FC 1
 62
    18
420
   196608
370
    18
100
AcDbVertex
100
AcDb2dVertex
 10
65.20807832571187
 20
-131.0610785262625
 30
0.0
  0
VERTEX
  5
2F9
330
2A5
100
AcDbEntity
  8
\U+30EC\U+30A4\U+30E4\U+30FC 1
 62
    18
420
   196608
370
    18
100
AcDbVertex
100
AcDb2dVertex
 10
65.64474417846729
 20
-131.0845051755622
 30
0.0
  0
VERTEX
  5
2FA
330
2A5
100
AcDbEntity
  8
\U+30EC\U+30A4\U+30E4\U+30FC 1
 62
    18
420
   196608
370
    18
100
AcDbVertex
100
AcDb2dVertex
 10
66.0819267955455
 20
-131.1000081052458
 30
0.0
  0
VERTEX
  5
2FB
330
2A5
100
AcDbEntity
  8
\U+30EC\U+30A4\U+30E4\U+30FC 1
 62
    18
420
   196608
370
    18
100
AcDbVertex
100
AcDb2dVertex
 10
66.51945392217222
 20
-131.1062092771193
 30
0.0
  0
VERTEX
  5
2FC
330
2A5
100
AcDbEntity
  8
\U+30EC\U+30A4\U+30E4\U+30FC 1
 62
    18
420
   196608
370
    18
100
AcDbVertex
100
AcDb2dVertex
 10
66.95698104879895
 20
-131.1055202580222
 30
0.0
  0
VERTEX
  5
2FD
330
2A5
100
AcDbEntity
  8
\U+30EC\U+30A4\U+30E4\U+30FC 1
 62
    18
420
   196608
370
    18
100
AcDbVertex
100
AcDb2dVertex
 10
67.39399141110289
 20
-131.0965630097606
 30
0.0
  0
VERTEX
  5
2FE
330
2A5
100
AcDbEntity
  8
\U+30EC\U+30A4\U+30E4\U+30FC 1
 62
    18
420
   196608
370
    18
100
AcDbVertex
100
AcDb2dVertex
 10
67.8311740281811
 20
-131.0800265514314
 30
0.0
  0
VERTEX
  5
2FF
330
2A5
100
AcDbEntity
  8
\U+30EC\U+30A4\U+30E4\U+30FC 1
 62
    18
420
   196608
370
    18
100
AcDbVertex
100
AcDb2dVertex
 10
68.26783988093652
 20
-131.0555663734861
 30
0.0
  0
VERTEX
  5
300
330
2A5
100
AcDbEntity
  8
\U+30EC\U+30A4\U+30E4\U+30FC 1
 62
    18
420
   196608
370
    18
100
AcDbVertex
100
AcDb2dVertex
 10
68.70364445982062
 20
-131.0224934568277
 30
0.0
  0
VERTEX
  5
301
330
2A5
100
AcDbEntity
  8
\U+30EC\U+30A4\U+30E4\U+30FC 1
 62
    18
420
   196608
370
    18
100
AcDbVertex
100
AcDb2dVertex
 10
69.13858776483342
 20
-130.9825303491988
 30
0.0
  0
VERTEX
  5
302
330
2A5
100
AcDbEntity
  8
\U+30EC\U+30A4\U+30E4\U+30FC 1
 62
    18
420
   196608
370
    18
100
AcDbVertex
100
AcDb2dVertex
 10
69.5721530316521
 20
-130.9329209742112
 30
0.0
  0
VERTEX
  5
303
330
2A5
100
AcDbEntity
  8
\U+30EC\U+30A4\U+30E4\U+30FC 1
 62
    18
420
   196608
370
    18
100
AcDbVertex
100
AcDb2dVertex
 10
70.00502927937374
 20
-130.8753878796076
 30
0.0
  0
VERTEX
  5
304
330
2A5
100
AcDbEntity
  8
\U+30EC\U+30A4\U+30E4\U+30FC 1
 62
    18
420
   196608
370
    18
100
AcDbVertex
100
AcDb2dVertex
 10
70.43549396025571
 20
-130.8088975367422
 30
0.0
  0
VERTEX
  5
305
330
2A5
100
AcDbEntity
  8
\U+30EC\U+30A4\U+30E4\U+30FC 1
 62
    18
420
   196608
370
    18
100
AcDbVertex
100
AcDb2dVertex
 10
70.86475285771785
 20
-130.7341389647123
 30
0.0
  0
VERTEX
  5
306
330
2A5
100
AcDbEntity
  8
\U+30EC\U+30A4\U+30E4\U+30FC 1
 62
    18
420
   196608
370
    18
100
AcDbVertex
100
AcDb2dVertex
 10
71.29142793356604
 20
-130.6504231444207
 30
0.0
  0
VERTEX
  5
307
330
2A5
100
AcDbEntity
  8
\U+30EC\U+30A4\U+30E4\U+30FC 1
 62
    18
420
   196608
370
    18
100
AcDbVertex
100
AcDb2dVertex
 10
71.71586369734881
 20
-130.558094585416
 30
0.0
  0
VERTEX
  5
308
330
2A5
100
AcDbEntity
  8
\U+30EC\U+30A4\U+30E4\U+30FC 1
 62
    18
420
   196608
370
    18
100
AcDbVertex
100
AcDb2dVertex
 10
72.13685436564634
 20
-130.4550862304071
 30
0.0
  0
VERTEX
  5
309
330
2A5
100
AcDbEntity
  8
\U+30EC\U+30A4\U+30E4\U+30FC 1
 62
    18
420
   196608
370
    18
100
AcDbVertex
100
AcDb2dVertex
 10
72.55526121232994
 20
-130.3427761175879
 30
0.0
  0
VERTEX
  5
30A
330
2A5
100
AcDbEntity
  8
\U+30EC\U+30A4\U+30E4\U+30FC 1
 62
    18
420
   196608
370
    18
100
AcDbVertex
100
AcDb2dVertex
 10
72.76265596054198
 20
-130.2835204752416
 30
0.0
  0
VERTEX
  5
30B
330
2A5
100
AcDbEntity
  8
\U+30EC\U+30A4\U+30E4\U+30FC 1
 62
    18
420
   196608
370
    18
100
AcDbVertex
100
AcDb2dVertex
 10
72.96970619920549
 20
-130.2215087565071
 30
0.0
  0
VERTEX
  5
30C
330
2A5
100
AcDbEntity
  8
\U+30EC\U+30A4\U+30E4\U+30FC 1
 62
    18
420
   196608
370
    18
100
AcDbVertex
100
AcDb2dVertex
 10
73.17537839967491
 20
-130.1560519422874
 30
0.0
  0
VERTEX
  5
30D
330
2A5
100
AcDbEntity
  8
\U+30EC\U+30A4\U+30E4\U+30FC 1
 62
    18
420
   196608
370
    18
100
AcDbVertex
100
AcDb2dVertex
 10
73.3793280524017
 20
-130.088183561228
 30
0.0
  0
VERTEX
  5
30E
330
2A5
100
AcDbEntity
  8
\U+30EC\U+30A4\U+30E4\U+30FC 1
 62
    18
420
   196608
370
    18
100
AcDbVertex
100
AcDb2dVertex
 10
73.5832777051285
 20
-130.0185926324259
 30
0.0
  0
VERTEX
  5
30F
330
2A5
100
AcDbEntity
  8
\U+30EC\U+30A4\U+30E4\U+30FC 1
 62
    18
420
   196608
370
    18
100
AcDbVertex
100
AcDb2dVertex
 10
73.78516030056413
 20
-129.9462456272357
 30
0.0
  0
VERTEX
  5
310
330
2A5
100
AcDbEntity
  8
\U+30EC\U+30A4\U+30E4\U+30FC 1
 62
    18
420
   196608
370
    18
100
AcDbVertex
100
AcDb2dVertex
 10
73.9860093673542
 20
-129.8704535265602
 30
0.0
  0
VERTEX
  5
311
330
2A5
100
AcDbEntity
  8
\U+30EC\U+30A4\U+30E4\U+30FC 1
 62
    18
420
   196608
370
    18
100
AcDbVertex
100
AcDb2dVertex
 10
74.18513588640164
 20
-129.7919053494965
 30
0.0
  0
VERTEX
  5
312
330
2A5
100
AcDbEntity
  8
\U+30EC\U+30A4\U+30E4\U+30FC 1
 62
    18
420
   196608
370
    18
100
AcDbVertex
100
AcDb2dVertex
 10
74.38357338635203
 20
-129.7116346246902
 30
0.0
  0
VERTEX
  5
313
330
2A5
100
AcDbEntity
  8
\U+30EC\U+30A4\U+30E4\U+30FC 1
 62
    18
420
   196608
370
    18
100
AcDbVertex
100
AcDb2dVertex
 10
74.57959931946274
 20
-129.6272297853015
 30
0.0
  0
VERTEX
  5
314
330
2A5
100
AcDbEntity
  8
\U+30EC\U+30A4\U+30E4\U+30FC 1
 62
    18
420
   196608
370
    18
100
AcDbVertex
100
AcDb2dVertex
 10
74.77390270483083
 20
-129.5400688695247
 30
0.0
  0
VERTEX
  5
315
330
2A5
100
AcDbEntity
  8
\U+30EC\U+30A4\U+30E4\U+30FC 1
 62
    18
420
   196608
370
    18
100
AcDbVertex
100
AcDb2dVertex
 10
74.96700030677908
 20
-129.4511854060053
 30
0.0
  0
VERTEX
  5
316
330
2A5
100
AcDbEntity
  8
\U+30EC\U+30A4\U+30E4\U+30FC 1
 62
    18
420
   196608
370
    18
100
AcDbVertex
100
AcDb2dVertex
 10
75.1575140871134
 20
-129.357823318355
 30
0.0
  0
VERTEX
  5
317
330
2A5
100
AcDbEntity
  8
\U+30EC\U+30A4\U+30E4\U+30FC 1
 62
    18
420
   196608
370
    18
100
AcDbVertex
100
AcDb2dVertex
 10
75.34699433880215
 20
-129.262049663865
 30
0.0
  0
VERTEX
  5
318
330
2A5
100
AcDbEntity
  8
\U+30EC\U+30A4\U+30E4\U+30FC 1
 62
    18
420
   196608
370
    18
100
AcDbVertex
100
AcDb2dVertex
 10
75.53320174977989
 20
-129.1624864043413
 30
0.0
  0
VERTEX
  5
319
330
2A5
100
AcDbEntity
  8
\U+30EC\U+30A4\U+30E4\U+30FC 1
 62
    18
420
   196608
370
    18
100
AcDbVertex
100
AcDb2dVertex
 10
75.71785886778929
 20
-129.0605115779779
 30
0.0
  0
VERTEX
  5
31A
330
2A5
100
AcDbEntity
  8
\U+30EC\U+30A4\U+30E4\U+30FC 1
 62
    18
420
   196608
370
    18
100
AcDbVertex
100
AcDb2dVertex
 10
75.900104418959
 20
-128.9544026370322
 30
0.0
  0
VERTEX
  5
31B
330
2A5
100
AcDbEntity
  8
\U+30EC\U+30A4\U+30E4\U+30FC 1
 62
    18
420
   196608
370
    18
100
AcDbVertex
100
AcDb2dVertex
 10
76.07959389374052
 20
-128.8462266387954
 30
0.0
  0
VERTEX
  5
31C
330
2A5
100
AcDbEntity
  8
\U+30EC\U+30A4\U+30E4\U+30FC 1
 62
    18
420
   196608
370
    18
100
AcDbVertex
100
AcDb2dVertex
 10
76.25615503735958
 20
-128.7335720164277
 30
0.0
  0
VERTEX
  5
31D
330
2A5
100
AcDbEntity
  8
\U+30EC\U+30A4\U+30E4\U+30FC 1
 62
    18
420
   196608
370
    18
100
AcDbVertex
100
AcDb2dVertex
 10
76.43047686891322
 20
-128.6188503367689
 30
0.0
  0
VERTEX
  5
31E
330
2A5
100
AcDbEntity
  8
\U+30EC\U+30A4\U+30E4\U+30FC 1
 62
    18
420
   196608
370
    18
100
AcDbVertex
100
AcDb2dVertex
 10
76.60083684065883
 20
-128.4999945425278
 30
0.0
  0
VERTEX
  5
31F
330
2A5
100
AcDbEntity
  8
\U+30EC\U+30A4\U+30E4\U+30FC 1
 62
    18
420
   196608
370
    18
100
AcDbVertex
100
AcDb2dVertex
 10
76.76861299079049
 20
-128.37803816235
 30
0.0
  0
VERTEX
  5
320
330
2A5
100
AcDbEntity
  8
\U+30EC\U+30A4\U+30E4\U+30FC 1
 62
    18
420
   196608
370
    18
100
AcDbVertex
100
AcDb2dVertex
 10
76.93294404543691
 20
-128.2526366866869
 30
0.0
  0
VERTEX
  5
321
330
2A5
100
AcDbEntity
  8
\U+30EC\U+30A4\U+30E4\U+30FC 1
 62
    18
420
   196608
370
    18
100
AcDbVertex
100
AcDb2dVertex
 10
77.09383000459808
 20
-128.1227565868929
 30
0.0
  0
VERTEX
  5
322
330
2A5
100
AcDbEntity
  8
\U+30EC\U+30A4\U+30E4\U+30FC 1
 62
    18
420
   196608
370
    18
100
AcDbVertex
100
AcDb2dVertex
 10
77.24972057530563
 20
-127.9901204107108
 30
0.0
  0
VERTEX
  5
323
330
2A5
100
AcDbEntity
  8
\U+30EC\U+30A4\U+30E4\U+30FC 1
 62
    18
420
   196608
370
    18
100
AcDbVertex
100
AcDb2dVertex
 10
77.40268281485072
 20
-127.854383648592
 30
0.0
  0
VERTEX
  5
324
330
2A5
100
AcDbEntity
  8
\U+30EC\U+30A4\U+30E4\U+30FC 1
 62
    18
420
   196608
370
    18
100
AcDbVertex
100
AcDb2dVertex
 10
77.55099417549073
 20
-127.7148572814394
 30
0.0
  0
VERTEX
  5
325
330
2A5
100
AcDbEntity
  8
\U+30EC\U+30A4\U+30E4\U+30FC 1
 62
    18
420
   196608
370
    18
100
AcDbVertex
100
AcDb2dVertex
 10
77.69465465722564
 20
-127.5708522901559
 30
0.0
  0
VERTEX
  5
326
330
2A5
100
AcDbEntity
  8
\U+30EC\U+30A4\U+30E4\U+30FC 1
 62
    18
420
   196608
370
    18
100
AcDbVertex
100
AcDb2dVertex
 10
77.83383651482974
 20
-127.4254692606784
 30
0.0
  0
VERTEX
  5
327
330
2A5
100
AcDbEntity
  8
\U+30EC\U+30A4\U+30E4\U+30FC 1
 62
    18
420
   196608
370
    18
100
AcDbVertex
100
AcDb2dVertex
 10
77.96836749352875
 20
-127.2745740784244
 30
0.0
  0
VERTEX
  5
328
330
2A5
100
AcDbEntity
  8
\U+30EC\U+30A4\U+30E4\U+30FC 1
 62
    18
420
   196608
370
    18
100
AcDbVertex
100
AcDb2dVertex
 10
78.09652504558004
 20
-127.1223008579764
 30
0.0
  0
VERTEX
  5
329
330
2A5
100
AcDbEntity
  8
\U+30EC\U+30A4\U+30E4\U+30FC 1
 62
    18
420
   196608
370
    18
100
AcDbVertex
100
AcDb2dVertex
 10
78.21985946395198
 20
-126.9645154847519
 30
0.0
  0
VERTEX
  5
32A
330
2A5
100
AcDbEntity
  8
\U+30EC\U+30A4\U+30E4\U+30FC 1
 62
    18
420
   196608
370
    18
100
AcDbVertex
100
AcDb2dVertex
 10
78.33716496522474
 20
-126.8039740351393
 30
0.0
  0
VERTEX
  5
32B
330
2A5
100
AcDbEntity
  8
\U+30EC\U+30A4\U+30E4\U+30FC 1
 62
    18
420
   196608
370
    18
100
AcDbVertex
100
AcDb2dVertex
 10
78.44861380417257
 20
-126.6399874900414
 30
0.0
  0
VERTEX
  5
32C
330
2A5
100
AcDbEntity
  8
\U+30EC\U+30A4\U+30E4\U+30FC 1
 62
    18
420
   196608
370
    18
100
AcDbVertex
100
AcDb2dVertex
 10
78.55334470692416
 20
-126.4735893781038
 30
0.0
  0
VERTEX
  5
32D
330
2A5
100
AcDbEntity
  8
\U+30EC\U+30A4\U+30E4\U+30FC 1
 62
    18
420
   196608
370
    18
100
AcDbVertex
100
AcDb2dVertex
 10
78.65170218302805
 20
-126.303746170681
 30
0.0
  0
VERTEX
  5
32E
330
2A5
100
AcDbEntity
  8
\U+30EC\U+30A4\U+30E4\U+30FC 1
 62
    18
420
   196608
370
    18
100
AcDbVertex
100
AcDb2dVertex
 10
78.74248044906439
 20
-126.13114688687
 30
0.0
  0
VERTEX
  5
32F
330
2A5
100
AcDbEntity
  8
\U+30EC\U+30A4\U+30E4\U+30FC 1
 62
    18
420
   196608
370
    18
100
AcDbVertex
100
AcDb2dVertex
 10
78.826885288453
 20
-125.9551025075737
 30
0.0
  0
VERTEX
  5
330
330
2A5
100
AcDbEntity
  8
\U+30EC\U+30A4\U+30E4\U+30FC 1
 62
    18
420
   196608
370
    18
100
AcDbVertex
100
AcDb2dVertex
 10
78.90284964390277
 20
-125.7780245996319
 30
0.0
  0
VERTEX
  5
331
330
2A5
100
AcDbEntity
  8
\U+30EC\U+30A4\U+30E4\U+30FC 1
 62
    18
420
   196608
370
    18
100
AcDbVertex
100
AcDb2dVertex
 10
78.9715792988335
 20
-125.5968125771077
 30
0.0
  0
SEQEND
  5
332
330
2A5
100
AcDbEntity
  8
\U+30EC\U+30A4\U+30E4\U+30FC 1
370
    18
  0
SPLINE
  5
333
330
1F
100
AcDbEntity
  8
\U+30EC\U+30A4\U+30E4\U+30FC 1
 62
    18
420
   196608
370
    18
100
AcDbSpline
210
0.0
220
0.0
230
1.0
 70
     8
 71
     3
 72
     8
 73
     4
 74
     0
 42
0.0000000001
 43
0.0000000001
 40
0.0
 40
0.0
 40
0.0
 40
0.0
 40
1.0
 40
1.0
 40
1.0
 40
1.0
 10
78.9715792988335
 20
-122.7918158330173
 30
0.0
 10
78.63482121515032
 20
-121.8454481032192
 30
0.0
 10
77.96233857642956
 20
-120.9590250348644
 30
0.0
 10
76.99616154759124
 20
-120.1866346270714
 30
0.0
  0
POLYLINE
  5
334
330
1F
100
AcDbEntity
  8
\U+30EC\U+30A4\U+30E4\U+30FC 1
 62
    18
420
   196608
370
    18
100
AcDb2dPolyline
 66
     1
 10
0.0
 20
0.0
 30
0.0
  0
VERTEX
  5
335
330
334
100
AcDbEntity
  8
\U+30EC\U+30A4\U+30E4\U+30FC 1
 62
    18
420
   196608
370
    18
100
AcDbVertex
100
AcDb2dVertex
 10
149.2491156310905
 20
-54.67659368207738
 30
0.0
  0
VERTEX
  5
336
330
334
100
AcDbEntity
  8
\U+30EC\U+30A4\U+30E4\U+30FC 1
 62
    18
420
   196608
370
    18
100
AcDbVertex
100
AcDb2dVertex
 10
167.2817789295337
 20
-54.67659368207738
 30
0.0
  0
SEQEND
  5
337
330
334
100
AcDbEntity
  8
\U+30EC\U+30A4\U+30E4\U+30FC 1
370
    18
  0
POLYLINE
  5
338
330
1F
100
AcDbEntity
  8
\U+30EC\U+30A4\U+30E4\U+30FC 1
 62
    18
420
   196608
370
    18
100
AcDb2dPolyline
 66
     1
 10
0.0
 20
0.0
 30
0.0
  0
VERTEX
  5
339
330
338
100
AcDbEntity
  8
\U+30EC\U+30A4\U+30E4\U+30FC 1
 62
    18
420
   196608
370
    18
100
AcDbVertex
100
AcDb2dVertex
 10
149.2491156310905
 20
-54.07525226512702
 30
0.0
  0
VERTEX
  5
33A
330
338
100
AcDbEntity
  8
\U+30EC\U+30A4\U+30E4\U+30FC 1
 62
    18
420
   196608
370
    18
100
AcDbVertex
100
AcDb2dVertex
 10
167.2817789295337
 20
-54.07525226512702
 30
0.0
  0
SEQEND
  5
33B
330
338
100
AcDbEntity
  8
\U+30EC\U+30A4\U+30E4\U+30FC 1
370
    18
  0
POLYLINE
  5
33C
330
1F
100
AcDbEntity
  8
\U+30EC\U+30A4\U+30E4\U+30FC 1
 62
    18
420
   196608
370
    18
100
AcDb2dPolyline
 66
     1
 10
0.0
 20
0.0
 30
0.0
  0
VERTEX
  5
33D
330
33C
100
AcDbEntity
  8
\U+30EC\U+30A4\U+30E4\U+30FC 1
 62
    18
420
   196608
370
    18
100
AcDbVertex
100
AcDb2dVertex
 10
165.7965982658425
 20
-56.61153156136795
 30
0.0
  0
VERTEX
  5
33E
330
33C
100
AcDbEntity
  8
\U+30EC\U+30A4\U+30E4\U+30FC 1
 62
    18
420
   196608
370
    18
100
AcDbVertex
100
AcDb2dVertex
 10
165.2781113953124
 20
-54.67659368207738
 30
0.0
  0
VERTEX
  5
33F
330
33C
100
AcDbEntity
  8
\U+30EC\U+30A4\U+30E4\U+30FC 1
 62
    18
420
   196608
370
    18
100
AcDbVertex
100
AcDb2dVertex
 10
164.7592800152338
 20
-56.61153156136795
 30
0.0
  0
SEQEND
  5
340
330
33C
100
AcDbEntity
  8
\U+30EC\U+30A4\U+30E4\U+30FC 1
370
    18
  0
POLYLINE
  5
341
330
1F
100
AcDbEntity
  8
\U+30EC\U+30A4\U+30E4\U+30FC 1
 62
    18
420
   196608
370
    18
100
AcDb2dPolyline
 66
     1
 10
0.0
 20
0.0
 30
0.0
  0
VERTEX
  5
342
330
341
100
AcDbEntity
  8
\U+30EC\U+30A4\U+30E4\U+30FC 1
 62
    18
420
   196608
370
    18
100
AcDbVertex
100
AcDb2dVertex
 10
164.7592800152338
 20
-52.13928085719088
 30
0.0
  0
VERTEX
  5
343
330
341
100
AcDbEntity
  8
\U+30EC\U+30A4\U+30E4\U+30FC 1
 62
    18
420
   196608
370
    18
100
AcDbVertex
100
AcDb2dVertex
 10
165.2781113953124
 20
-54.07525226512702
 30
0.0
  0
VERTEX
  5
344
330
341
100
AcDbEntity
  8
\U+30EC\U+30A4\U+30E4\U+30FC 1
 62
    18
420
   196608
370
    18
100
AcDbVertex
100
AcDb2dVertex
 10
165.7965982658425
 20
-52.13928085719088
 30
0.0
  0
SEQEND
  5
345
330
341
100
AcDbEntity
  8
\U+30EC\U+30A4\U+30E4\U+30FC 1
370
    18
  0
POLYLINE
  5
346
330
1F
100
AcDbEntity
  8
\U+30EC\U+30A4\U+30E4\U+30FC 1
 62
    18
420
   196608
370
    18
100
AcDb2dPolyline
 66
     1
 10
0.0
 20
0.0
 30
0.0
  0
VERTEX
  5
347
330
346
100
AcDbEntity
  8
\U+30EC\U+30A4\U+30E4\U+30FC 1
 62
    18
420
   196608
370
    18
100
AcDbVertex
100
AcDb2dVertex
 10
165.2781113953124
 20
-66.67499998333125
 30
0.0
  0
VERTEX
  5
348
330
346
100
AcDbEntity
  8
\U+30EC\U+30A4\U+30E4\U+30FC 1
 62
    18
420
   196608
370
    18
100
AcDbVertex
100
AcDb2dVertex
 10
165.2781113953124
 20
-35.63055554664792
 30
0.0
  0
SEQEND
  5
349
330
346
100
AcDbEntity
  8
\U+30EC\U+30A4\U+30E4\U+30FC 1
370
    18
  0
POLYLINE
  5
34A
330
1F
100
AcDbEntity
  8
\U+30EC\U+30A4\U+30E4\U+30FC 1
 62
    18
420
   196608
370
    18
100
AcDb2dPolyline
 66
     1
 10
0.0
 20
0.0
 30
0.0
  0
VERTEX
  5
34B
330
34A
100
AcDbEntity
  8
\U+30EC\U+30A4\U+30E4\U+30FC 1
 62
    18
420
   196608
370
    18
100
AcDbVertex
100
AcDb2dVertex
 10
59.18088377426728
 20
-54.67659368207738
 30
0.0
  0
VERTEX
  5
34C
330
34A
100
AcDbEntity
  8
\U+30EC\U+30A4\U+30E4\U+30FC 1
 62
    18
420
   196608
370
    18
100
AcDbVertex
100
AcDb2dVertex
 10
61.08447128464208
 20
-54.67659368207738
 30
0.0
  0
SEQEND
  5
34D
330
34A
100
AcDbEntity
  8
\U+30EC\U+30A4\U+30E4\U+30FC 1
370
    18
  0
POLYLINE
  5
34E
330
1F
100
AcDbEntity
  8
\U+30EC\U+30A4\U+30E4\U+30FC 1
 62
    18
420
   196608
370
    18
100
AcDb2dPolyline
 66
     1
 10
0.0
 20
0.0
 30
0.0
  0
VERTEX
  5
34F
330
34E
100
AcDbEntity
  8
\U+30EC\U+30A4\U+30E4\U+30FC 1
 62
    18
420
   196608
370
    18
100
AcDbVertex
100
AcDb2dVertex
 10
61.08447128464208
 20
-54.67659368207738
 30
0.0
  0
VERTEX
  5
350
330
34E
100
AcDbEntity
  8
\U+30EC\U+30A4\U+30E4\U+30FC 1
 62
    18
420
   196608
370
    18
100
AcDbVertex
100
AcDb2dVertex
 10
67.73143851388312
 20
-54.67659368207738
 30
0.0
  0
SEQEND
  5
351
330
34E
100
AcDbEntity
  8
\U+30EC\U+30A4\U+30E4\U+30FC 1
370
    18
  0
POLYLINE
  5
352
330
1F
100
AcDbEntity
  8
\U+30EC\U+30A4\U+30E4\U+30FC 1
 62
    18
420
   196608
370
    18
100
AcDb2dPolyline
 66
     1
 10
0.0
 20
0.0
 30
0.0
  0
VERTEX
  5
353
330
352
100
AcDbEntity
  8
\U+30EC\U+30A4\U+30E4\U+30FC 1
 62
    18
420
   196608
370
    18
100
AcDbVertex
100
AcDb2dVertex
 10
148.2483153926254
 20
-54.07525226512702
 30
0.0
  0
VERTEX
  5
354
330
352
100
AcDbEntity
  8
\U+30EC\U+30A4\U+30E4\U+30FC 1
 62
    18
420
   196608
370
    18
100
AcDbVertex
100
AcDb2dVertex
 10
148.2483153926254
 20
-54.67659368207738
 30
0.0
  0
SEQEND
  5
355
330
352
100
AcDbEntity
  8
\U+30EC\U+30A4\U+30E4\U+30FC 1
370
    18
  0
POLYLINE
  5
356
330
1F
100
AcDbEntity
  8
\U+30EC\U+30A4\U+30E4\U+30FC 1
 62
    18
420
   196608
370
    18
100
AcDb2dPolyline
 66
     1
 10
0.0
 20
0.0
 30
0.0
  0
VERTEX
  5
357
330
356
100
AcDbEntity
  8
\U+30EC\U+30A4\U+30E4\U+30FC 1
 62
    18
420
   196608
370
    18
100
AcDbVertex
100
AcDb2dVertex
 10
147.2461371159663
 20
-54.67659368207738
 30
0.0
  0
VERTEX
  5
358
330
356
100
AcDbEntity
  8
\U+30EC\U+30A4\U+30E4\U+30FC 1
 62
    18
420
   196608
370
    18
100
AcDbVertex
100
AcDb2dVertex
 10
148.2483153926254
 20
-54.67659368207738
 30
0.0
  0
SEQEND
  5
359
330
356
100
AcDbEntity
  8
\U+30EC\U+30A4\U+30E4\U+30FC 1
370
    18
  0
POLYLINE
  5
35A
330
1F
100
AcDbEntity
  8
\U+30EC\U+30A4\U+30E4\U+30FC 1
 62
    18
420
   196608
370
    18
100
AcDb2dPolyline
 66
     1
 10
0.0
 20
0.0
 30
0.0
  0
VERTEX
  5
35B
330
35A
100
AcDbEntity
  8
\U+30EC\U+30A4\U+30E4\U+30FC 1
 62
    18
420
   196608
370
    18
100
AcDbVertex
100
AcDb2dVertex
 10
147.2461371159663
 20
-54.07525226512702
 30
0.0
  0
VERTEX
  5
35C
330
35A
100
AcDbEntity
  8
\U+30EC\U+30A4\U+30E4\U+30FC 1
 62
    18
420
   196608
370
    18
100
AcDbVertex
100
AcDb2dVertex
 10
148.2483153926254
 20
-54.07525226512702
 30
0.0
  0
SEQEND
  5
35D
330
35A
100
AcDbEntity
  8
\U+30EC\U+30A4\U+30E4\U+30FC 1
370
    18
  0
POLYLINE
  5
35E
330
1F
100
AcDbEntity
  8
\U+30EC\U+30A4\U+30E4\U+30FC 1
 62
    18
420
   196608
370
    18
100
AcDb2dPolyline
 66
     1
 10
0.0
 20
0.0
 30
0.0
  0
VERTEX
  5
35F
330
35E
100
AcDbEntity
  8
\U+30EC\U+30A4\U+30E4\U+30FC 1
 62
    18
420
   196608
370
    18
100
AcDbVertex
100
AcDb2dVertex
 10
147.2461371159663
 20
-54.07525226512702
 30
0.0
  0
VERTEX
  5
360
330
35E
100
AcDbEntity
  8
\U+30EC\U+30A4\U+30E4\U+30FC 1
 62
    18
420
   196608
370
    18
100
AcDbVertex
100
AcDb2dVertex
 10
147.2461371159663
 20
-54.67659368207738
 30
0.0
  0
SEQEND
  5
361
330
35E
100
AcDbEntity
  8
\U+30EC\U+30A4\U+30E4\U+30FC 1
370
    18
  0
POLYLINE
  5
362
330
1F
100
AcDbEntity
  8
\U+30EC\U+30A4\U+30E4\U+30FC 1
 62
    18
420
   196608
370
    18
100
AcDb2dPolyline
 66
     1
 10
0.0
 20
0.0
 30
0.0
  0
VERTEX
  5
363
330
362
100
AcDbEntity
  8
\U+30EC\U+30A4\U+30E4\U+30FC 1
 62
    18
420
   196608
370
    18
100
AcDbVertex
100
AcDb2dVertex
 10
97.15203719359394
 20
-54.07525226512702
 30
0.0
  0
VERTEX
  5
364
330
362
100
AcDbEntity
  8
\U+30EC\U+30A4\U+30E4\U+30FC 1
 62
    18
420
   196608
370
    18
100
AcDbVertex
100
AcDb2dVertex
 10
98.15404321547885
 20
-54.07525226512702
 30
0.0
  0
SEQEND
  5
365
330
362
100
AcDbEntity
  8
\U+30EC\U+30A4\U+30E4\U+30FC 1
370
    18
  0
POLYLINE
  5
366
330
1F
100
AcDbEntity
  8
\U+30EC\U+30A4\U+30E4\U+30FC 1
 62
    18
420
   196608
370
    18
100
AcDb2dPolyline
 66
     1
 10
0.0
 20
0.0
 30
0.0
  0
VERTEX
  5
367
330
366
100
AcDbEntity
  8
\U+30EC\U+30A4\U+30E4\U+30FC 1
 62
    18
420
   196608
370
    18
100
AcDbVertex
100
AcDb2dVertex
 10
97.15203719359394
 20
-54.07525226512702
 30
0.0
  0
VERTEX
  5
368
330
366
100
AcDbEntity
  8
\U+30EC\U+30A4\U+30E4\U+30FC 1
 62
    18
420
   196608
370
    18
100
AcDbVertex
100
AcDb2dVertex
 10
97.15203719359394
 20
-54.67659368207738
 30
0.0
  0
SEQEND
  5
369
330
366
100
AcDbEntity
  8
\U+30EC\U+30A4\U+30E4\U+30FC 1
370
    18
  0
POLYLINE
  5
36A
330
1F
100
AcDbEntity
  8
\U+30EC\U+30A4\U+30E4\U+30FC 1
 62
    18
420
   196608
370
    18
100
AcDb2dPolyline
 66
     1
 10
0.0
 20
0.0
 30
0.0
  0
VERTEX
  5
36B
330
36A
100
AcDbEntity
  8
\U+30EC\U+30A4\U+30E4\U+30FC 1
 62
    18
420
   196608
370
    18
100
AcDbVertex
100
AcDb2dVertex
 10
97.15203719359394
 20
-54.67659368207738
 30
0.0
  0
VERTEX
  5
36C
330
36A
100
AcDbEntity
  8
\U+30EC\U+30A4\U+30E4\U+30FC 1
 62
    18
420
   196608
370
    18
100
AcDbVertex
100
AcDb2dVertex
 10
98.15404321547885
 20
-54.67659368207738
 30
0.0
  0
SEQEND
  5
36D
330
36A
100
AcDbEntity
  8
\U+30EC\U+30A4\U+30E4\U+30FC 1
370
    18
  0
POLYLINE
  5
36E
330
1F
100
AcDbEntity
  8
\U+30EC\U+30A4\U+30E4\U+30FC 1
 62
    18
420
   196608
370
    18
100
AcDb2dPolyline
 66
     1
 10
0.0
 20
0.0
 30
0.0
  0
VERTEX
  5
36F
330
36E
100
AcDbEntity
  8
\U+30EC\U+30A4\U+30E4\U+30FC 1
 62
    18
420
   196608
370
    18
100
AcDbVertex
100
AcDb2dVertex
 10
98.15404321547885
 20
-54.07525226512702
 30
0.0
  0
VERTEX
  5
370
330
36E
100
AcDbEntity
  8
\U+30EC\U+30A4\U+30E4\U+30FC 1
 62
    18
420
   196608
370
    18
100
AcDbVertex
100
AcDb2dVertex
 10
98.15404321547885
 20
-54.67659368207738
 30
0.0
  0
SEQEND
  5
371
330
36E
100
AcDbEntity
  8
\U+30EC\U+30A4\U+30E4\U+30FC 1
370
    18
  0
POLYLINE
  5
372
330
1F
100
AcDbEntity
  8
\U+30EC\U+30A4\U+30E4\U+30FC 1
 62
    18
420
   196608
370
    18
100
AcDb2dPolyline
 66
     1
 10
0.0
 20
0.0
 30
0.0
  0
VERTEX
  5
373
330
372
100
AcDbEntity
  8
\U+30EC\U+30A4\U+30E4\U+30FC 1
 62
    18
420
   196608
370
    18
100
AcDbVertex
100
AcDb2dVertex
 10
147.2461371159663
 20
-54.67659368207738
 30
0.0
  0
VERTEX
  5
374
330
372
100
AcDbEntity
  8
\U+30EC\U+30A4\U+30E4\U+30FC 1
 62
    18
420
   196608
370
    18
100
AcDbVertex
100
AcDb2dVertex
 10
104.3655503753843
 20
-54.67659368207738
 30
0.0
  0
SEQEND
  5
375
330
372
100
AcDbEntity
  8
\U+30EC\U+30A4\U+30E4\U+30FC 1
370
    18
  0
POLYLINE
  5
376
330
1F
100
AcDbEntity
  8
\U+30EC\U+30A4\U+30E4\U+30FC 1
 62
    18
420
   196608
370
    18
100
AcDb2dPolyline
 66
     1
 10
0.0
 20
0.0
 30
0.0
  0
VERTEX
  5
377
330
376
100
AcDbEntity
  8
\U+30EC\U+30A4\U+30E4\U+30FC 1
 62
    18
420
   196608
370
    18
100
AcDbVertex
100
AcDb2dVertex
 10
147.2461371159663
 20
-54.07525226512702
 30
0.0
  0
VERTEX
  5
378
330
376
100
AcDbEntity
  8
\U+30EC\U+30A4\U+30E4\U+30FC 1
 62
    18
420
   196608
370
    18
100
AcDbVertex
100
AcDb2dVertex
 10
104.3655503753843
 20
-54.07525226512702
 30
0.0
  0
SEQEND
  5
379
330
376
100
AcDbEntity
  8
\U+30EC\U+30A4\U+30E4\U+30FC 1
370
    18
  0
POLYLINE
  5
37A
330
1F
100
AcDbEntity
  8
\U+30EC\U+30A4\U+30E4\U+30FC 1
 62
    18
420
   196608
370
    18
100
AcDb2dPolyline
 66
     1
 10
0.0
 20
0.0
 30
0.0
  0
VERTEX
  5
37B
330
37A
100
AcDbEntity
  8
\U+30EC\U+30A4\U+30E4\U+30FC 1
 62
    18
420
   196608
370
    18
100
AcDbVertex
100
AcDb2dVertex
 10
104.3655503753843
 20
-54.67659368207738
 30
0.0
  0
VERTEX
  5
37C
330
37A
100
AcDbEntity
  8
\U+30EC\U+30A4\U+30E4\U+30FC 1
 62
    18
420
   196608
370
    18
100
AcDbVertex
100
AcDb2dVertex
 10
104.3655503753843
 20
-54.07525226512702
 30
0.0
  0
SEQEND
  5
37D
330
37A
100
AcDbEntity
  8
\U+30EC\U+30A4\U+30E4\U+30FC 1
370
    18
  0
POLYLINE
  5
37E
330
1F
100
AcDbEntity
  8
\U+30EC\U+30A4\U+30E4\U+30FC 1
 62
    18
420
   196608
370
    18
100
AcDb2dPolyline
 66
     1
 10
0.0
 20
0.0
 30
0.0
  0
VERTEX
  5
37F
330
37E
100
AcDbEntity
  8
\U+30EC\U+30A4\U+30E4\U+30FC 1
 62
    18
420
   196608
370
    18
100
AcDbVertex
100
AcDb2dVertex
 10
103.3640611178222
 20
-54.07525226512702
 30
0.0
  0
VERTEX
  5
380
330
37E
100
AcDbEntity
  8
\U+30EC\U+30A4\U+30E4\U+30FC 1
 62
    18
420
   196608
370
    18
100
AcDbVertex
100
AcDb2dVertex
 10
104.3655503753843
 20
-54.07525226512702
 30
0.0
  0
SEQEND
  5
381
330
37E
100
AcDbEntity
  8
\U+30EC\U+30A4\U+30E4\U+30FC 1
370
    18
  0
POLYLINE
  5
382
330
1F
100
AcDbEntity
  8
\U+30EC\U+30A4\U+30E4\U+30FC 1
 62
    18
420
   196608
370
    18
100
AcDb2dPolyline
 66
     1
 10
0.0
 20
0.0
 30
0.0
  0
VERTEX
  5
383
330
382
100
AcDbEntity
  8
\U+30EC\U+30A4\U+30E4\U+30FC 1
 62
    18
420
   196608
370
    18
100
AcDbVertex
100
AcDb2dVertex
 10
103.3640611178222
 20
-54.67659368207738
 30
0.0
  0
VERTEX
  5
384
330
382
100
AcDbEntity
  8
\U+30EC\U+30A4\U+30E4\U+30FC 1
 62
    18
420
   196608
370
    18
100
AcDbVertex
100
AcDb2dVertex
 10
103.3640611178222
 20
-54.07525226512702
 30
0.0
  0
SEQEND
  5
385
330
382
100
AcDbEntity
  8
\U+30EC\U+30A4\U+30E4\U+30FC 1
370
    18
  0
POLYLINE
  5
386
330
1F
100
AcDbEntity
  8
\U+30EC\U+30A4\U+30E4\U+30FC 1
 62
    18
420
   196608
370
    18
100
AcDb2dPolyline
 66
     1
 10
0.0
 20
0.0
 30
0.0
  0
VERTEX
  5
387
330
386
100
AcDbEntity
  8
\U+30EC\U+30A4\U+30E4\U+30FC 1
 62
    18
420
   196608
370
    18
100
AcDbVertex
100
AcDb2dVertex
 10
103.3640611178222
 20
-54.67659368207738
 30
0.0
  0
VERTEX
  5
388
330
386
100
AcDbEntity
  8
\U+30EC\U+30A4\U+30E4\U+30FC 1
 62
    18
420
   196608
370
    18
100
AcDbVertex
100
AcDb2dVertex
 10
104.3655503753843
 20
-54.67659368207738
 30
0.0
  0
SEQEND
  5
389
330
386
100
AcDbEntity
  8
\U+30EC\U+30A4\U+30E4\U+30FC 1
370
    18
  0
POLYLINE
  5
38A
330
1F
100
AcDbEntity
  8
\U+30EC\U+30A4\U+30E4\U+30FC 1
 62
    18
420
   196608
370
    18
100
AcDb2dPolyline
 66
     1
 10
0.0
 20
0.0
 30
0.0
  0
VERTEX
  5
38B
330
38A
100
AcDbEntity
  8
\U+30EC\U+30A4\U+30E4\U+30FC 1
 62
    18
420
   196608
370
    18
100
AcDbVertex
100
AcDb2dVertex
 10
102.3617105863887
 20
-54.67659368207738
 30
0.0
  0
VERTEX
  5
38C
330
38A
100
AcDbEntity
  8
\U+30EC\U+30A4\U+30E4\U+30FC 1
 62
    18
420
   196608
370
    18
100
AcDbVertex
100
AcDb2dVertex
 10
103.3640611178222
 20
-54.67659368207738
 30
0.0
  0
SEQEND
  5
38D
330
38A
100
AcDbEntity
  8
\U+30EC\U+30A4\U+30E4\U+30FC 1
370
    18
  0
POLYLINE
  5
38E
330
1F
100
AcDbEntity
  8
\U+30EC\U+30A4\U+30E4\U+30FC 1
 62
    18
420
   196608
370
    18
100
AcDb2dPolyline
 66
     1
 10
0.0
 20
0.0
 30
0.0
  0
VERTEX
  5
38F
330
38E
100
AcDbEntity
  8
\U+30EC\U+30A4\U+30E4\U+30FC 1
 62
    18
420
   196608
370
    18
100
AcDbVertex
100
AcDb2dVertex
 10
102.3617105863887
 20
-54.67659368207738
 30
0.0
  0
VERTEX
  5
390
330
38E
100
AcDbEntity
  8
\U+30EC\U+30A4\U+30E4\U+30FC 1
 62
    18
420
   196608
370
    18
100
AcDbVertex
100
AcDb2dVertex
 10
102.3617105863887
 20
-54.07525226512702
 30
0.0
  0
SEQEND
  5
391
330
38E
100
AcDbEntity
  8
\U+30EC\U+30A4\U+30E4\U+30FC 1
370
    18
  0
POLYLINE
  5
392
330
1F
100
AcDbEntity
  8
\U+30EC\U+30A4\U+30E4\U+30FC 1
 62
    18
420
   196608
370
    18
100
AcDb2dPolyline
 66
     1
 10
0.0
 20
0.0
 30
0.0
  0
VERTEX
  5
393
330
392
100
AcDbEntity
  8
\U+30EC\U+30A4\U+30E4\U+30FC 1
 62
    18
420
   196608
370
    18
100
AcDbVertex
100
AcDb2dVertex
 10
102.3617105863887
 20
-54.07525226512702
 30
0.0
  0
VERTEX
  5
394
330
392
100
AcDbEntity
  8
\U+30EC\U+30A4\U+30E4\U+30FC 1
 62
    18
420
   196608
370
    18
100
AcDbVertex
100
AcDb2dVertex
 10
103.3640611178222
 20
-54.07525226512702
 30
0.0
  0
SEQEND
  5
395
330
392
100
AcDbEntity
  8
\U+30EC\U+30A4\U+30E4\U+30FC 1
370
    18
  0
POLYLINE
  5
396
330
1F
100
AcDbEntity
  8
\U+30EC\U+30A4\U+30E4\U+30FC 1
 62
    18
420
   196608
370
    18
100
AcDb2dPolyline
 66
     1
 10
0.0
 20
0.0
 30
0.0
  0
VERTEX
  5
397
330
396
100
AcDbEntity
  8
\U+30EC\U+30A4\U+30E4\U+30FC 1
 62
    18
420
   196608
370
    18
100
AcDbVertex
100
AcDb2dVertex
 10
102.3617105863887
 20
-54.07525226512702
 30
0.0
  0
VERTEX
  5
398
330
396
100
AcDbEntity
  8
\U+30EC\U+30A4\U+30E4\U+30FC 1
 62
    18
420
   196608
370
    18
100
AcDbVertex
100
AcDb2dVertex
 10
99.1558769825895
 20
-54.07525226512702
 30
0.0
  0
SEQEND
  5
399
330
396
100
AcDbEntity
  8
\U+30EC\U+30A4\U+30E4\U+30FC 1
370
    18
  0
POLYLINE
  5
39A
330
1F
100
AcDbEntity
  8
\U+30EC\U+30A4\U+30E4\U+30FC 1
 62
    18
420
   196608
370
    18
100
AcDb2dPolyline
 66
     1
 10
0.0
 20
0.0
 30
0.0
  0
VERTEX
  5
39B
330
39A
100
AcDbEntity
  8
\U+30EC\U+30A4\U+30E4\U+30FC 1
 62
    18
420
   196608
370
    18
100
AcDbVertex
100
AcDb2dVertex
 10
102.3617105863887
 20
-54.67659368207738
 30
0.0
  0
VERTEX
  5
39C
330
39A
100
AcDbEntity
  8
\U+30EC\U+30A4\U+30E4\U+30FC 1
 62
    18
420
   196608
370
    18
100
AcDbVertex
100
AcDb2dVertex
 10
99.1558769825895
 20
-54.67659368207738
 30
0.0
  0
SEQEND
  5
39D
330
39A
100
AcDbEntity
  8
\U+30EC\U+30A4\U+30E4\U+30FC 1
370
    18
  0
POLYLINE
  5
39E
330
1F
100
AcDbEntity
  8
\U+30EC\U+30A4\U+30E4\U+30FC 1
 62
    18
420
   196608
370
    18
100
AcDb2dPolyline
 66
     1
 10
0.0
 20
0.0
 30
0.0
  0
VERTEX
  5
39F
330
39E
100
AcDbEntity
  8
\U+30EC\U+30A4\U+30E4\U+30FC 1
 62
    18
420
   196608
370
    18
100
AcDbVertex
100
AcDb2dVertex
 10
99.1558769825895
 20
-54.67659368207738
 30
0.0
  0
VERTEX
  5
3A0
330
39E
100
AcDbEntity
  8
\U+30EC\U+30A4\U+30E4\U+30FC 1
 62
    18
420
   196608
370
    18
100
AcDbVertex
100
AcDb2dVertex
 10
99.1558769825895
 20
-54.07525226512702
 30
0.0
  0
SEQEND
  5
3A1
330
39E
100
AcDbEntity
  8
\U+30EC\U+30A4\U+30E4\U+30FC 1
370
    18
  0
POLYLINE
  5
3A2
330
1F
100
AcDbEntity
  8
\U+30EC\U+30A4\U+30E4\U+30FC 1
 62
    18
420
   196608
370
    18
100
AcDb2dPolyline
 66
     1
 10
0.0
 20
0.0
 30
0.0
  0
VERTEX
  5
3A3
330
3A2
100
AcDbEntity
  8
\U+30EC\U+30A4\U+30E4\U+30FC 1
 62
    18
420
   196608
370
    18
100
AcDbVertex
100
AcDb2dVertex
 10
98.15404321547885
 20
-54.67659368207738
 30
0.0
  0
VERTEX
  5
3A4
330
3A2
100
AcDbEntity
  8
\U+30EC\U+30A4\U+30E4\U+30FC 1
 62
    18
420
   196608
370
    18
100
AcDbVertex
100
AcDb2dVertex
 10
99.1558769825895
 20
-54.67659368207738
 30
0.0
  0
SEQEND
  5
3A5
330
3A2
100
AcDbEntity
  8
\U+30EC\U+30A4\U+30E4\U+30FC 1
370
    18
  0
POLYLINE
  5
3A6
330
1F
100
AcDbEntity
  8
\U+30EC\U+30A4\U+30E4\U+30FC 1
 62
    18
420
   196608
370
    18
100
AcDb2dPolyline
 66
     1
 10
0.0
 20
0.0
 30
0.0
  0
VERTEX
  5
3A7
330
3A6
100
AcDbEntity
  8
\U+30EC\U+30A4\U+30E4\U+30FC 1
 62
    18
420
   196608
370
    18
100
AcDbVertex
100
AcDb2dVertex
 10
98.15404321547885
 20
-54.07525226512702
 30
0.0
  0
VERTEX
  5
3A8
330
3A6
100
AcDbEntity
  8
\U+30EC\U+30A4\U+30E4\U+30FC 1
 62
    18
420
   196608
370
    18
100
AcDbVertex
100
AcDb2dVertex
 10
99.1558769825895
 20
-54.07525226512702
 30
0.0
  0
SEQEND
  5
3A9
330
3A6
100
AcDbEntity
  8
\U+30EC\U+30A4\U+30E4\U+30FC 1
370
    18
  0
POLYLINE
  5
3AA
330
1F
100
AcDbEntity
  8
\U+30EC\U+30A4\U+30E4\U+30FC 1
 62
    18
420
   196608
370
    18
100
AcDb2dPolyline
 66
     1
 10
0.0
 20
0.0
 30
0.0
  0
VERTEX
  5
3AB
330
3AA
100
AcDbEntity
  8
\U+30EC\U+30A4\U+30E4\U+30FC 1
 62
    18
420
   196608
370
    18
100
AcDbVertex
100
AcDb2dVertex
 10
51.06578910398703
 20
-54.07525226512702
 30
0.0
  0
VERTEX
  5
3AC
330
3AA
100
AcDbEntity
  8
\U+30EC\U+30A4\U+30E4\U+30FC 1
 62
    18
420
   196608
370
    18
100
AcDbVertex
100
AcDb2dVertex
 10
51.06578910398703
 20
-54.67659368207738
 30
0.0
  0
SEQEND
  5
3AD
330
3AA
100
AcDbEntity
  8
\U+30EC\U+30A4\U+30E4\U+30FC 1
370
    18
  0
POLYLINE
  5
3AE
330
1F
100
AcDbEntity
  8
\U+30EC\U+30A4\U+30E4\U+30FC 1
 62
    18
420
   196608
370
    18
100
AcDb2dPolyline
 66
     1
 10
0.0
 20
0.0
 30
0.0
  0
VERTEX
  5
3AF
330
3AE
100
AcDbEntity
  8
\U+30EC\U+30A4\U+30E4\U+30FC 1
 62
    18
420
   196608
370
    18
100
AcDbVertex
100
AcDb2dVertex
 10
97.15203719359394
 20
-54.67659368207738
 30
0.0
  0
VERTEX
  5
3B0
330
3AE
100
AcDbEntity
  8
\U+30EC\U+30A4\U+30E4\U+30FC 1
 62
    18
420
   196608
370
    18
100
AcDbVertex
100
AcDb2dVertex
 10
52.06762287109768
 20
-54.67659368207738
 30
0.0
  0
SEQEND
  5
3B1
330
3AE
100
AcDbEntity
  8
\U+30EC\U+30A4\U+30E4\U+30FC 1
370
    18
  0
POLYLINE
  5
3B2
330
1F
100
AcDbEntity
  8
\U+30EC\U+30A4\U+30E4\U+30FC 1
 62
    18
420
   196608
370
    18
100
AcDb2dPolyline
 66
     1
 10
0.0
 20
0.0
 30
0.0
  0
VERTEX
  5
3B3
330
3B2
100
AcDbEntity
  8
\U+30EC\U+30A4\U+30E4\U+30FC 1
 62
    18
420
   196608
370
    18
100
AcDbVertex
100
AcDb2dVertex
 10
97.15203719359394
 20
-54.07525226512702
 30
0.0
  0
VERTEX
  5
3B4
330
3B2
100
AcDbEntity
  8
\U+30EC\U+30A4\U+30E4\U+30FC 1
 62
    18
420
   196608
370
    18
100
AcDbVertex
100
AcDb2dVertex
 10
52.06762287109768
 20
-54.07525226512702
 30
0.0
  0
SEQEND
  5
3B5
330
3B2
100
AcDbEntity
  8
\U+30EC\U+30A4\U+30E4\U+30FC 1
370
    18
  0
POLYLINE
  5
3B6
330
1F
100
AcDbEntity
  8
\U+30EC\U+30A4\U+30E4\U+30FC 1
 62
    18
420
   196608
370
    18
100
AcDb2dPolyline
 66
     1
 10
0.0
 20
0.0
 30
0.0
  0
VERTEX
  5
3B7
330
3B6
100
AcDbEntity
  8
\U+30EC\U+30A4\U+30E4\U+30FC 1
 62
    18
420
   196608
370
    18
100
AcDbVertex
100
AcDb2dVertex
 10
52.06762287109768
 20
-54.07525226512702
 30
0.0
  0
VERTEX
  5
3B8
330
3B6
100
AcDbEntity
  8
\U+30EC\U+30A4\U+30E4\U+30FC 1
 62
    18
420
   196608
370
    18
100
AcDbVertex
100
AcDb2dVertex
 10
52.06762287109768
 20
-54.67659368207738
 30
0.0
  0
SEQEND
  5
3B9
330
3B6
100
AcDbEntity
  8
\U+30EC\U+30A4\U+30E4\U+30FC 1
370
    18
  0
POLYLINE
  5
3BA
330
1F
100
AcDbEntity
  8
\U+30EC\U+30A4\U+30E4\U+30FC 1
 62
    18
420
   196608
370
    18
100
AcDb2dPolyline
 66
     1
 10
0.0
 20
0.0
 30
0.0
  0
VERTEX
  5
3BB
330
3BA
100
AcDbEntity
  8
\U+30EC\U+30A4\U+30E4\U+30FC 1
 62
    18
420
   196608
370
    18
100
AcDbVertex
100
AcDb2dVertex
 10
51.06578910398703
 20
-54.07525226512702
 30
0.0
  0
VERTEX
  5
3BC
330
3BA
100
AcDbEntity
  8
\U+30EC\U+30A4\U+30E4\U+30FC 1
 62
    18
420
   196608
370
    18
100
AcDbVertex
100
AcDb2dVertex
 10
52.06762287109768
 20
-54.07525226512702
 30
0.0
  0
SEQEND
  5
3BD
330
3BA
100
AcDbEntity
  8
\U+30EC\U+30A4\U+30E4\U+30FC 1
370
    18
  0
POLYLINE
  5
3BE
330
1F
100
AcDbEntity
  8
\U+30EC\U+30A4\U+30E4\U+30FC 1
 62
    18
420
   196608
370
    18
100
AcDb2dPolyline
 66
     1
 10
0.0
 20
0.0
 30
0.0
  0
VERTEX
  5
3BF
330
3BE
100
AcDbEntity
  8
\U+30EC\U+30A4\U+30E4\U+30FC 1
 62
    18
420
   196608
370
    18
100
AcDbVertex
100
AcDb2dVertex
 10
51.06578910398703
 20
-54.67659368207738
 30
0.0
  0
VERTEX
  5
3C0
330
3BE
100
AcDbEntity
  8
\U+30EC\U+30A4\U+30E4\U+30FC 1
 62
    18
420
   196608
370
    18
100
AcDbVertex
100
AcDb2dVertex
 10
52.06762287109768
 20
-54.67659368207738
 30
0.0
  0
SEQEND
  5
3C1
330
3BE
100
AcDbEntity
  8
\U+30EC\U+30A4\U+30E4\U+30FC 1
370
    18
  0
POLYLINE
  5
3C2
330
1F
100
AcDbEntity
  8
\U+30EC\U+30A4\U+30E4\U+30FC 1
 62
    18
420
   196608
370
    18
100
AcDb2dPolyline
 66
     1
 10
0.0
 20
0.0
 30
0.0
  0
VERTEX
  5
3C3
330
3C2
100
AcDbEntity
  8
\U+30EC\U+30A4\U+30E4\U+30FC 1
 62
    18
420
   196608
370
    18
100
AcDbVertex
100
AcDb2dVertex
 10
260.8409260415606
 20
-107.5927435711921
 30
0.0
  0
VERTEX
  5
3C4
330
3C2
100
AcDbEntity
  8
\U+30EC\U+30A4\U+30E4\U+30FC 1
 62
    18
420
   196608
370
    18
100
AcDbVertex
100
AcDb2dVertex
 10
261.1623534503344
 20
-106.3259819612657
 30
0.0
  0
SEQEND
  5
3C5
330
3C2
100
AcDbEntity
  8
\U+30EC\U+30A4\U+30E4\U+30FC 1
370
    18
  0
POLYLINE
  5
3C6
330
1F
100
AcDbEntity
  8
\U+30EC\U+30A4\U+30E4\U+30FC 1
 62
    18
420
   196608
370
    18
100
AcDb2dPolyline
 66
     1
 10
0.0
 20
0.0
 30
0.0
  0
VERTEX
  5
3C7
330
3C6
100
AcDbEntity
  8
\U+30EC\U+30A4\U+30E4\U+30FC 1
 62
    18
420
   196608
370
    18
100
AcDbVertex
100
AcDb2dVertex
 10
252.814198070477
 20
-106.1878336323072
 30
0.0
  0
VERTEX
  5
3C8
330
3C6
100
AcDbEntity
  8
\U+30EC\U+30A4\U+30E4\U+30FC 1
 62
    18
420
   196608
370
    18
100
AcDbVertex
100
AcDb2dVertex
 10
253.5128634348857
 20
-103.5798963499731
 30
0.0
  0
SEQEND
  5
3C9
330
3C6
100
AcDbEntity
  8
\U+30EC\U+30A4\U+30E4\U+30FC 1
370
    18
  0
POLYLINE
  5
3CA
330
1F
100
AcDbEntity
  8
\U+30EC\U+30A4\U+30E4\U+30FC 1
 62
    18
420
   196608
370
    18
100
AcDb2dPolyline
 66
     1
 10
0.0
 20
0.0
 30
0.0
  0
VERTEX
  5
3CB
330
3CA
100
AcDbEntity
  8
\U+30EC\U+30A4\U+30E4\U+30FC 1
 62
    18
420
   196608
370
    18
100
AcDbVertex
100
AcDb2dVertex
 10
84.68682045408872
 20
-60.88241643443217
 30
0.0
  0
VERTEX
  5
3CC
330
3CA
100
AcDbEntity
  8
\U+30EC\U+30A4\U+30E4\U+30FC 1
 62
    18
420
   196608
370
    18
100
AcDbVertex
100
AcDb2dVertex
 10
85.04200979861797
 20
-59.55588241783673
 30
0.0
  0
SEQEND
  5
3CD
330
3CA
100
AcDbEntity
  8
\U+30EC\U+30A4\U+30E4\U+30FC 1
370
    18
  0
POLYLINE
  5
3CE
330
1F
100
AcDbEntity
  8
\U+30EC\U+30A4\U+30E4\U+30FC 1
 62
    18
420
   196608
370
    18
100
AcDb2dPolyline
 66
     1
 10
0.0
 20
0.0
 30
0.0
  0
VERTEX
  5
3CF
330
3CE
100
AcDbEntity
  8
\U+30EC\U+30A4\U+30E4\U+30FC 1
 62
    18
420
   196608
370
    18
100
AcDbVertex
100
AcDb2dVertex
 10
84.65323077310752
 20
-61.00799016486953
 30
0.0
  0
VERTEX
  5
3D0
330
3CE
100
AcDbEntity
  8
\U+30EC\U+30A4\U+30E4\U+30FC 1
 62
    18
420
   196608
370
    18
100
AcDbVertex
100
AcDb2dVertex
 10
84.68682045408872
 20
-60.88241643443217
 30
0.0
  0
SEQEND
  5
3D1
330
3CE
100
AcDbEntity
  8
\U+30EC\U+30A4\U+30E4\U+30FC 1
370
    18
  0
POLYLINE
  5
3D2
330
1F
100
AcDbEntity
  8
\U+30EC\U+30A4\U+30E4\U+30FC 1
 62
    18
420
   196608
370
    18
100
AcDb2dPolyline
 66
     1
 10
0.0
 20
0.0
 30
0.0
  0
VERTEX
  5
3D3
330
3D2
100
AcDbEntity
  8
\U+30EC\U+30A4\U+30E4\U+30FC 1
 62
    18
420
   196608
370
    18
100
AcDbVertex
100
AcDb2dVertex
 10
87.07237682284996
 20
-61.65635713519355
 30
0.0
  0
VERTEX
  5
3D4
330
3D2
100
AcDbEntity
  8
\U+30EC\U+30A4\U+30E4\U+30FC 1
 62
    18
420
   196608
370
    18
100
AcDbVertex
100
AcDb2dVertex
 10
87.46150035790893
 20
-60.20442164293501
 30
0.0
  0
SEQEND
  5
3D5
330
3D2
100
AcDbEntity
  8
\U+30EC\U+30A4\U+30E4\U+30FC 1
370
    18
  0
POLYLINE
  5
3D6
330
1F
100
AcDbEntity
  8
\U+30EC\U+30A4\U+30E4\U+30FC 1
 62
    18
420
   196608
370
    18
100
AcDb2dPolyline
 66
     1
 10
0.0
 20
0.0
 30
0.0
  0
VERTEX
  5
3D7
330
3D6
100
AcDbEntity
  8
\U+30EC\U+30A4\U+30E4\U+30FC 1
 62
    18
420
   196608
370
    18
100
AcDbVertex
100
AcDb2dVertex
 10
85.39754365269576
 20
-58.22934840124127
 30
0.0
  0
VERTEX
  5
3D8
330
3D6
100
AcDbEntity
  8
\U+30EC\U+30A4\U+30E4\U+30FC 1
 62
    18
420
   196608
370
    18
100
AcDbVertex
100
AcDb2dVertex
 10
85.43113333367694
 20
-58.10463594467523
 30
0.0
  0
SEQEND
  5
3D9
330
3D6
100
AcDbEntity
  8
\U+30EC\U+30A4\U+30E4\U+30FC 1
370
    18
  0
POLYLINE
  5
3DA
330
1F
100
AcDbEntity
  8
\U+30EC\U+30A4\U+30E4\U+30FC 1
 62
    18
420
   196608
370
    18
100
AcDb2dPolyline
 66
     1
 10
0.0
 20
0.0
 30
0.0
  0
VERTEX
  5
3DB
330
3DA
100
AcDbEntity
  8
\U+30EC\U+30A4\U+30E4\U+30FC 1
 62
    18
420
   196608
370
    18
100
AcDbVertex
100
AcDb2dVertex
 10
85.04200979861797
 20
-59.55588241783673
 30
0.0
  0
VERTEX
  5
3DC
330
3DA
100
AcDbEntity
  8
\U+30EC\U+30A4\U+30E4\U+30FC 1
 62
    18
420
   196608
370
    18
100
AcDbVertex
100
AcDb2dVertex
 10
85.39754365269576
 20
-58.22934840124127
 30
0.0
  0
SEQEND
  5
3DD
330
3DA
100
AcDbEntity
  8
\U+30EC\U+30A4\U+30E4\U+30FC 1
370
    18
  0
POLYLINE
  5
3DE
330
1F
100
AcDbEntity
  8
\U+30EC\U+30A4\U+30E4\U+30FC 1
 62
    18
420
   196608
370
    18
100
AcDb2dPolyline
 66
     1
 10
0.0
 20
0.0
 30
0.0
  0
VERTEX
  5
3DF
330
3DE
100
AcDbEntity
  8
\U+30EC\U+30A4\U+30E4\U+30FC 1
 62
    18
420
   196608
370
    18
100
AcDbVertex
100
AcDb2dVertex
 10
87.46150035790893
 20
-60.20442164293501
 30
0.0
  0
VERTEX
  5
3E0
330
3DE
100
AcDbEntity
  8
\U+30EC\U+30A4\U+30E4\U+30FC 1
 62
    18
420
   196608
370
    18
100
AcDbVertex
100
AcDb2dVertex
 10
87.85027938341938
 20
-58.7523138959022
 30
0.0
  0
SEQEND
  5
3E1
330
3DE
100
AcDbEntity
  8
\U+30EC\U+30A4\U+30E4\U+30FC 1
370
    18
  0
POLYLINE
  5
3E2
330
1F
100
AcDbEntity
  8
\U+30EC\U+30A4\U+30E4\U+30FC 1
 62
    18
420
   196608
370
    18
100
AcDb2dPolyline
 66
     1
 10
0.0
 20
0.0
 30
0.0
  0
VERTEX
  5
3E3
330
3E2
100
AcDbEntity
  8
\U+30EC\U+30A4\U+30E4\U+30FC 1
 62
    18
420
   196608
370
    18
100
AcDbVertex
100
AcDb2dVertex
 10
84.40483938862101
 20
-58.06277803452944
 30
0.0
  0
VERTEX
  5
3E4
330
3E2
100
AcDbEntity
  8
\U+30EC\U+30A4\U+30E4\U+30FC 1
 62
    18
420
   196608
370
    18
100
AcDbVertex
100
AcDb2dVertex
 10
82.46938474500766
 20
-57.54411890922508
 30
0.0
  0
SEQEND
  5
3E5
330
3E2
100
AcDbEntity
  8
\U+30EC\U+30A4\U+30E4\U+30FC 1
370
    18
  0
POLYLINE
  5
3E6
330
1F
100
AcDbEntity
  8
\U+30EC\U+30A4\U+30E4\U+30FC 1
 62
    18
420
   196608
370
    18
100
AcDb2dPolyline
 66
     1
 10
0.0
 20
0.0
 30
0.0
  0
VERTEX
  5
3E7
330
3E6
100
AcDbEntity
  8
\U+30EC\U+30A4\U+30E4\U+30FC 1
 62
    18
420
   196608
370
    18
100
AcDbVertex
100
AcDb2dVertex
 10
83.74372556500157
 20
-60.53032767583964
 30
0.0
  0
VERTEX
  5
3E8
330
3E6
100
AcDbEntity
  8
\U+30EC\U+30A4\U+30E4\U+30FC 1
 62
    18
420
   196608
370
    18
100
AcDbVertex
100
AcDb2dVertex
 10
81.80827092138821
 20
-60.01252982440659
 30
0.0
  0
SEQEND
  5
3E9
330
3E6
100
AcDbEntity
  8
\U+30EC\U+30A4\U+30E4\U+30FC 1
370
    18
  0
POLYLINE
  5
3EA
330
1F
100
AcDbEntity
  8
\U+30EC\U+30A4\U+30E4\U+30FC 1
 62
    18
420
   196608
370
    18
100
AcDb2dPolyline
 66
     1
 10
0.0
 20
0.0
 30
0.0
  0
VERTEX
  5
3EB
330
3EA
100
AcDbEntity
  8
\U+30EC\U+30A4\U+30E4\U+30FC 1
 62
    18
420
   196608
370
    18
100
AcDbVertex
100
AcDb2dVertex
 10
81.44360756427452
 20
-57.50243325385356
 30
0.0
  0
VERTEX
  5
3EC
330
3EA
100
AcDbEntity
  8
\U+30EC\U+30A4\U+30E4\U+30FC 1
 62
    18
420
   196608
370
    18
100
AcDbVertex
100
AcDb2dVertex
 10
82.46938474500766
 20
-57.54411890922508
 30
0.0
  0
SEQEND
  5
3ED
330
3EA
100
AcDbEntity
  8
\U+30EC\U+30A4\U+30E4\U+30FC 1
370
    18
  0
POLYLINE
  5
3EE
330
1F
100
AcDbEntity
  8
\U+30EC\U+30A4\U+30E4\U+30FC 1
 62
    18
420
   196608
370
    18
100
AcDb2dPolyline
 66
     1
 10
0.0
 20
0.0
 30
0.0
  0
VERTEX
  5
3EF
330
3EE
100
AcDbEntity
  8
\U+30EC\U+30A4\U+30E4\U+30FC 1
 62
    18
420
   196608
370
    18
100
AcDbVertex
100
AcDb2dVertex
 10
84.07445473158556
 20
-59.2969834921202
 30
0.0
  0
VERTEX
  5
3F0
330
3EE
100
AcDbEntity
  8
\U+30EC\U+30A4\U+30E4\U+30FC 1
 62
    18
420
   196608
370
    18
100
AcDbVertex
100
AcDb2dVertex
 10
84.40483938862101
 20
-58.06277803452944
 30
0.0
  0
SEQEND
  5
3F1
330
3EE
100
AcDbEntity
  8
\U+30EC\U+30A4\U+30E4\U+30FC 1
370
    18
  0
POLYLINE
  5
3F2
330
1F
100
AcDbEntity
  8
\U+30EC\U+30A4\U+30E4\U+30FC 1
 62
    18
420
   196608
370
    18
100
AcDb2dPolyline
 66
     1
 10
0.0
 20
0.0
 30
0.0
  0
VERTEX
  5
3F3
330
3F2
100
AcDbEntity
  8
\U+30EC\U+30A4\U+30E4\U+30FC 1
 62
    18
420
   196608
370
    18
100
AcDbVertex
100
AcDb2dVertex
 10
82.13900008797219
 20
-58.77832436681584
 30
0.0
  0
VERTEX
  5
3F4
330
3F2
100
AcDbEntity
  8
\U+30EC\U+30A4\U+30E4\U+30FC 1
 62
    18
420
   196608
370
    18
100
AcDbVertex
100
AcDb2dVertex
 10
82.46938474500766
 20
-57.54411890922508
 30
0.0
  0
SEQEND
  5
3F5
330
3F2
100
AcDbEntity
  8
\U+30EC\U+30A4\U+30E4\U+30FC 1
370
    18
  0
POLYLINE
  5
3F6
330
1F
100
AcDbEntity
  8
\U+30EC\U+30A4\U+30E4\U+30FC 1
 62
    18
420
   196608
370
    18
100
AcDb2dPolyline
 66
     1
 10
0.0
 20
0.0
 30
0.0
  0
VERTEX
  5
3F7
330
3F6
100
AcDbEntity
  8
\U+30EC\U+30A4\U+30E4\U+30FC 1
 62
    18
420
   196608
370
    18
100
AcDbVertex
100
AcDb2dVertex
 10
81.80827092138821
 20
-60.01252982440659
 30
0.0
  0
VERTEX
  5
3F8
330
3F6
100
AcDbEntity
  8
\U+30EC\U+30A4\U+30E4\U+30FC 1
 62
    18
420
   196608
370
    18
100
AcDbVertex
100
AcDb2dVertex
 10
82.13900008797219
 20
-58.77832436681584
 30
0.0
  0
SEQEND
  5
3F9
330
3F6
100
AcDbEntity
  8
\U+30EC\U+30A4\U+30E4\U+30FC 1
370
    18
  0
POLYLINE
  5
3FA
330
1F
100
AcDbEntity
  8
\U+30EC\U+30A4\U+30E4\U+30FC 1
 62
    18
420
   196608
370
    18
100
AcDb2dPolyline
 66
     1
 10
0.0
 20
0.0
 30
0.0
  0
VERTEX
  5
3FB
330
3FA
100
AcDbEntity
  8
\U+30EC\U+30A4\U+30E4\U+30FC 1
 62
    18
420
   196608
370
    18
100
AcDbVertex
100
AcDb2dVertex
 10
83.74372556500157
 20
-60.53032767583964
 30
0.0
  0
VERTEX
  5
3FC
330
3FA
100
AcDbEntity
  8
\U+30EC\U+30A4\U+30E4\U+30FC 1
 62
    18
420
   196608
370
    18
100
AcDbVertex
100
AcDb2dVertex
 10
84.07445473158556
 20
-59.2969834921202
 30
0.0
  0
SEQEND
  5
3FD
330
3FA
100
AcDbEntity
  8
\U+30EC\U+30A4\U+30E4\U+30FC 1
370
    18
  0
POLYLINE
  5
3FE
330
1F
100
AcDbEntity
  8
\U+30EC\U+30A4\U+30E4\U+30FC 1
 62
    18
420
   196608
370
    18
100
AcDb2dPolyline
 66
     1
 10
0.0
 20
0.0
 30
0.0
  0
VERTEX
  5
3FF
330
3FE
100
AcDbEntity
  8
\U+30EC\U+30A4\U+30E4\U+30FC 1
 62
    18
420
   196608
370
    18
100
AcDbVertex
100
AcDb2dVertex
 10
80.89876571328226
 20
-59.5348673353767
 30
0.0
  0
VERTEX
  5
400
330
3FE
100
AcDbEntity
  8
\U+30EC\U+30A4\U+30E4\U+30FC 1
 62
    18
420
   196608
370
    18
100
AcDbVertex
100
AcDb2dVertex
 10
81.80827092138821
 20
-60.01252982440659
 30
0.0
  0
SEQEND
  5
401
330
3FE
100
AcDbEntity
  8
\U+30EC\U+30A4\U+30E4\U+30FC 1
370
    18
  0
POLYLINE
  5
402
330
1F
100
AcDbEntity
  8
\U+30EC\U+30A4\U+30E4\U+30FC 1
 62
    18
420
   196608
370
    18
100
AcDb2dPolyline
 66
     1
 10
0.0
 20
0.0
 30
0.0
  0
VERTEX
  5
403
330
402
100
AcDbEntity
  8
\U+30EC\U+30A4\U+30E4\U+30FC 1
 62
    18
420
   196608
370
    18
100
AcDbVertex
100
AcDb2dVertex
 10
81.17110051139126
 20
-58.518564167228
 30
0.0
  0
VERTEX
  5
404
330
402
100
AcDbEntity
  8
\U+30EC\U+30A4\U+30E4\U+30FC 1
 62
    18
420
   196608
370
    18
100
AcDbVertex
100
AcDb2dVertex
 10
81.44360756427452
 20
-57.50243325385356
 30
0.0
  0
SEQEND
  5
405
330
402
100
AcDbEntity
  8
\U+30EC\U+30A4\U+30E4\U+30FC 1
370
    18
  0
POLYLINE
  5
406
330
1F
100
AcDbEntity
  8
\U+30EC\U+30A4\U+30E4\U+30FC 1
 62
    18
420
   196608
370
    18
100
AcDb2dPolyline
 66
     1
 10
0.0
 20
0.0
 30
0.0
  0
VERTEX
  5
407
330
406
100
AcDbEntity
  8
\U+30EC\U+30A4\U+30E4\U+30FC 1
 62
    18
420
   196608
370
    18
100
AcDbVertex
100
AcDb2dVertex
 10
77.86260306213157
 20
-56.54366318030853
 30
0.0
  0
VERTEX
  5
408
330
406
100
AcDbEntity
  8
\U+30EC\U+30A4\U+30E4\U+30FC 1
 62
    18
420
   196608
370
    18
100
AcDbVertex
100
AcDb2dVertex
 10
81.44360756427452
 20
-57.50243325385356
 30
0.0
  0
SEQEND
  5
409
330
406
100
AcDbEntity
  8
\U+30EC\U+30A4\U+30E4\U+30FC 1
370
    18
  0
POLYLINE
  5
40A
330
1F
100
AcDbEntity
  8
\U+30EC\U+30A4\U+30E4\U+30FC 1
 62
    18
420
   196608
370
    18
100
AcDb2dPolyline
 66
     1
 10
0.0
 20
0.0
 30
0.0
  0
VERTEX
  5
40B
330
40A
100
AcDbEntity
  8
\U+30EC\U+30A4\U+30E4\U+30FC 1
 62
    18
420
   196608
370
    18
100
AcDbVertex
100
AcDb2dVertex
 10
77.3182779754621
 20
-58.57609726183167
 30
0.0
  0
VERTEX
  5
40C
330
40A
100
AcDbEntity
  8
\U+30EC\U+30A4\U+30E4\U+30FC 1
 62
    18
420
   196608
370
    18
100
AcDbVertex
100
AcDb2dVertex
 10
80.89876571328226
 20
-59.5348673353767
 30
0.0
  0
SEQEND
  5
40D
330
40A
100
AcDbEntity
  8
\U+30EC\U+30A4\U+30E4\U+30FC 1
370
    18
  0
POLYLINE
  5
40E
330
1F
100
AcDbEntity
  8
\U+30EC\U+30A4\U+30E4\U+30FC 1
 62
    18
420
   196608
370
    18
100
AcDb2dPolyline
 66
     1
 10
0.0
 20
0.0
 30
0.0
  0
VERTEX
  5
40F
330
40E
100
AcDbEntity
  8
\U+30EC\U+30A4\U+30E4\U+30FC 1
 62
    18
420
   196608
370
    18
100
AcDbVertex
100
AcDb2dVertex
 10
80.89876571328226
 20
-59.5348673353767
 30
0.0
  0
VERTEX
  5
410
330
40E
100
AcDbEntity
  8
\U+30EC\U+30A4\U+30E4\U+30FC 1
 62
    18
420
   196608
370
    18
100
AcDbVertex
100
AcDb2dVertex
 10
81.17110051139126
 20
-58.518564167228
 30
0.0
  0
SEQEND
  5
411
330
40E
100
AcDbEntity
  8
\U+30EC\U+30A4\U+30E4\U+30FC 1
370
    18
  0
POLYLINE
  5
412
330
1F
100
AcDbEntity
  8
\U+30EC\U+30A4\U+30E4\U+30FC 1
 62
    18
420
   196608
370
    18
100
AcDb2dPolyline
 66
     1
 10
0.0
 20
0.0
 30
0.0
  0
VERTEX
  5
413
330
412
100
AcDbEntity
  8
\U+30EC\U+30A4\U+30E4\U+30FC 1
 62
    18
420
   196608
370
    18
100
AcDbVertex
100
AcDb2dVertex
 10
77.3182779754621
 20
-58.57609726183167
 30
0.0
  0
VERTEX
  5
414
330
412
100
AcDbEntity
  8
\U+30EC\U+30A4\U+30E4\U+30FC 1
 62
    18
420
   196608
370
    18
100
AcDbVertex
100
AcDb2dVertex
 10
77.5906127735711
 20
-57.55979409368297
 30
0.0
  0
SEQEND
  5
415
330
412
100
AcDbEntity
  8
\U+30EC\U+30A4\U+30E4\U+30FC 1
370
    18
  0
POLYLINE
  5
416
330
1F
100
AcDbEntity
  8
\U+30EC\U+30A4\U+30E4\U+30FC 1
 62
    18
420
   196608
370
    18
100
AcDb2dPolyline
 66
     1
 10
0.0
 20
0.0
 30
0.0
  0
VERTEX
  5
417
330
416
100
AcDbEntity
  8
\U+30EC\U+30A4\U+30E4\U+30FC 1
 62
    18
420
   196608
370
    18
100
AcDbVertex
100
AcDb2dVertex
 10
77.5906127735711
 20
-57.55979409368297
 30
0.0
  0
VERTEX
  5
418
330
416
100
AcDbEntity
  8
\U+30EC\U+30A4\U+30E4\U+30FC 1
 62
    18
420
   196608
370
    18
100
AcDbVertex
100
AcDb2dVertex
 10
77.86260306213157
 20
-56.54366318030853
 30
0.0
  0
SEQEND
  5
419
330
416
100
AcDbEntity
  8
\U+30EC\U+30A4\U+30E4\U+30FC 1
370
    18
  0
POLYLINE
  5
41A
330
1F
100
AcDbEntity
  8
\U+30EC\U+30A4\U+30E4\U+30FC 1
 62
    18
420
   196608
370
    18
100
AcDb2dPolyline
 66
     1
 10
0.0
 20
0.0
 30
0.0
  0
VERTEX
  5
41B
330
41A
100
AcDbEntity
  8
\U+30EC\U+30A4\U+30E4\U+30FC 1
 62
    18
420
   196608
370
    18
100
AcDbVertex
100
AcDb2dVertex
 10
76.66267630461905
 20
-55.98917506195757
 30
0.0
  0
VERTEX
  5
41C
330
41A
100
AcDbEntity
  8
\U+30EC\U+30A4\U+30E4\U+30FC 1
 62
    18
420
   196608
370
    18
100
AcDbVertex
100
AcDb2dVertex
 10
77.86260306213157
 20
-56.54366318030853
 30
0.0
  0
SEQEND
  5
41D
330
41A
100
AcDbEntity
  8
\U+30EC\U+30A4\U+30E4\U+30FC 1
370
    18
  0
POLYLINE
  5
41E
330
1F
100
AcDbEntity
  8
\U+30EC\U+30A4\U+30E4\U+30FC 1
 62
    18
420
   196608
370
    18
100
AcDb2dPolyline
 66
     1
 10
0.0
 20
0.0
 30
0.0
  0
VERTEX
  5
41F
330
41E
100
AcDbEntity
  8
\U+30EC\U+30A4\U+30E4\U+30FC 1
 62
    18
420
   196608
370
    18
100
AcDbVertex
100
AcDb2dVertex
 10
76.0020792453224
 20
-58.45586342939645
 30
0.0
  0
VERTEX
  5
420
330
41E
100
AcDbEntity
  8
\U+30EC\U+30A4\U+30E4\U+30FC 1
 62
    18
420
   196608
370
    18
100
AcDbVertex
100
AcDb2dVertex
 10
77.3182779754621
 20
-58.57609726183167
 30
0.0
  0
SEQEND
  5
421
330
41E
100
AcDbEntity
  8
\U+30EC\U+30A4\U+30E4\U+30FC 1
370
    18
  0
POLYLINE
  5
422
330
1F
100
AcDbEntity
  8
\U+30EC\U+30A4\U+30E4\U+30FC 1
 62
    18
420
   196608
370
    18
100
AcDb2dPolyline
 66
     1
 10
0.0
 20
0.0
 30
0.0
  0
VERTEX
  5
423
330
422
100
AcDbEntity
  8
\U+30EC\U+30A4\U+30E4\U+30FC 1
 62
    18
420
   196608
370
    18
100
AcDbVertex
100
AcDb2dVertex
 10
76.0020792453224
 20
-58.45586342939645
 30
0.0
  0
VERTEX
  5
424
330
422
100
AcDbEntity
  8
\U+30EC\U+30A4\U+30E4\U+30FC 1
 62
    18
420
   196608
370
    18
100
AcDbVertex
100
AcDb2dVertex
 10
76.33280841190638
 20
-57.22251924567701
 30
0.0
  0
SEQEND
  5
425
330
422
100
AcDbEntity
  8
\U+30EC\U+30A4\U+30E4\U+30FC 1
370
    18
  0
POLYLINE
  5
426
330
1F
100
AcDbEntity
  8
\U+30EC\U+30A4\U+30E4\U+30FC 1
 62
    18
420
   196608
370
    18
100
AcDb2dPolyline
 66
     1
 10
0.0
 20
0.0
 30
0.0
  0
VERTEX
  5
427
330
426
100
AcDbEntity
  8
\U+30EC\U+30A4\U+30E4\U+30FC 1
 62
    18
420
   196608
370
    18
100
AcDbVertex
100
AcDb2dVertex
 10
76.33280841190638
 20
-57.22251924567701
 30
0.0
  0
VERTEX
  5
428
330
426
100
AcDbEntity
  8
\U+30EC\U+30A4\U+30E4\U+30FC 1
 62
    18
420
   196608
370
    18
100
AcDbVertex
100
AcDb2dVertex
 10
76.66267630461905
 20
-55.98917506195757
 30
0.0
  0
SEQEND
  5
429
330
426
100
AcDbEntity
  8
\U+30EC\U+30A4\U+30E4\U+30FC 1
370
    18
  0
POLYLINE
  5
42A
330
1F
100
AcDbEntity
  8
\U+30EC\U+30A4\U+30E4\U+30FC 1
 62
    18
420
   196608
370
    18
100
AcDb2dPolyline
 66
     1
 10
0.0
 20
0.0
 30
0.0
  0
VERTEX
  5
42B
330
42A
100
AcDbEntity
  8
\U+30EC\U+30A4\U+30E4\U+30FC 1
 62
    18
420
   196608
370
    18
100
AcDbVertex
100
AcDb2dVertex
 10
69.5211656184704
 20
-54.07525226512702
 30
0.0
  0
VERTEX
  5
42C
330
42A
100
AcDbEntity
  8
\U+30EC\U+30A4\U+30E4\U+30FC 1
 62
    18
420
   196608
370
    18
100
AcDbVertex
100
AcDb2dVertex
 10
68.72758787344311
 20
-53.86251761891285
 30
0.0
  0
SEQEND
  5
42D
330
42A
100
AcDbEntity
  8
\U+30EC\U+30A4\U+30E4\U+30FC 1
370
    18
  0
POLYLINE
  5
42E
330
1F
100
AcDbEntity
  8
\U+30EC\U+30A4\U+30E4\U+30FC 1
 62
    18
420
   196608
370
    18
100
AcDb2dPolyline
 66
     1
 10
0.0
 20
0.0
 30
0.0
  0
VERTEX
  5
42F
330
42E
100
AcDbEntity
  8
\U+30EC\U+30A4\U+30E4\U+30FC 1
 62
    18
420
   196608
370
    18
100
AcDbVertex
100
AcDb2dVertex
 10
76.66267630461905
 20
-55.98917506195757
 30
0.0
  0
VERTEX
  5
430
330
42E
100
AcDbEntity
  8
\U+30EC\U+30A4\U+30E4\U+30FC 1
 62
    18
420
   196608
370
    18
100
AcDbVertex
100
AcDb2dVertex
 10
71.76478405323937
 20
-54.67659368207738
 30
0.0
  0
SEQEND
  5
431
330
42E
100
AcDbEntity
  8
\U+30EC\U+30A4\U+30E4\U+30FC 1
370
    18
  0
POLYLINE
  5
432
330
1F
100
AcDbEntity
  8
\U+30EC\U+30A4\U+30E4\U+30FC 1
 62
    18
420
   196608
370
    18
100
AcDb2dPolyline
 66
     1
 10
0.0
 20
0.0
 30
0.0
  0
VERTEX
  5
433
330
432
100
AcDbEntity
  8
\U+30EC\U+30A4\U+30E4\U+30FC 1
 62
    18
420
   196608
370
    18
100
AcDbVertex
100
AcDb2dVertex
 10
76.0020792453224
 20
-58.45586342939645
 30
0.0
  0
VERTEX
  5
434
330
432
100
AcDbEntity
  8
\U+30EC\U+30A4\U+30E4\U+30FC 1
 62
    18
420
   196608
370
    18
100
AcDbVertex
100
AcDb2dVertex
 10
68.06647404982367
 20
-56.33006726022304
 30
0.0
  0
SEQEND
  5
435
330
432
100
AcDbEntity
  8
\U+30EC\U+30A4\U+30E4\U+30FC 1
370
    18
  0
POLYLINE
  5
436
330
1F
100
AcDbEntity
  8
\U+30EC\U+30A4\U+30E4\U+30FC 1
 62
    18
420
   196608
370
    18
100
AcDb2dPolyline
 66
     1
 10
0.0
 20
0.0
 30
0.0
  0
VERTEX
  5
437
330
436
100
AcDbEntity
  8
\U+30EC\U+30A4\U+30E4\U+30FC 1
 62
    18
420
   196608
370
    18
100
AcDbVertex
100
AcDb2dVertex
 10
68.67091605271075
 20
-54.07439099125571
 30
0.0
  0
VERTEX
  5
438
330
436
100
AcDbEntity
  8
\U+30EC\U+30A4\U+30E4\U+30FC 1
 62
    18
420
   196608
370
    18
100
AcDbVertex
100
AcDb2dVertex
 10
68.72758787344311
 20
-53.86251761891285
 30
0.0
  0
SEQEND
  5
439
330
436
100
AcDbEntity
  8
\U+30EC\U+30A4\U+30E4\U+30FC 1
370
    18
  0
POLYLINE
  5
43A
330
1F
100
AcDbEntity
  8
\U+30EC\U+30A4\U+30E4\U+30FC 1
 62
    18
420
   196608
370
    18
100
AcDb2dPolyline
 66
     1
 10
0.0
 20
0.0
 30
0.0
  0
VERTEX
  5
43B
330
43A
100
AcDbEntity
  8
\U+30EC\U+30A4\U+30E4\U+30FC 1
 62
    18
420
   196608
370
    18
100
AcDbVertex
100
AcDb2dVertex
 10
83.74372556500157
 20
-60.53032767583964
 30
0.0
  0
VERTEX
  5
43C
330
43A
100
AcDbEntity
  8
\U+30EC\U+30A4\U+30E4\U+30FC 1
 62
    18
420
   196608
370
    18
100
AcDbVertex
100
AcDb2dVertex
 10
84.65323077310752
 20
-61.00799016486953
 30
0.0
  0
SEQEND
  5
43D
330
43A
100
AcDbEntity
  8
\U+30EC\U+30A4\U+30E4\U+30FC 1
370
    18
  0
SPLINE
  5
43E
330
1F
100
AcDbEntity
  8
\U+30EC\U+30A4\U+30E4\U+30FC 1
 62
    18
420
   196608
370
    18
100
AcDbSpline
210
0.0
220
0.0
230
1.0
 70
     8
 71
     3
 72
     8
 73
     4
 74
     0
 42
0.0000000001
 43
0.0000000001
 40
0.0
 40
0.0
 40
0.0
 40
0.0
 40
1.0
 40
1.0
 40
1.0
 40
1.0
 10
84.68682045408872
 20
-60.88241643443217
 30
0.0
 10
84.37297225538245
 20
-60.76390514973959
 30
0.0
 10
84.05877954712767
 20
-60.64711641278961
 30
0.0
 10
83.74372556500157
 20
-60.53032767583964
 30
0.0
  0
POLYLINE
  5
43F
330
1F
100
AcDbEntity
  8
\U+30EC\U+30A4\U+30E4\U+30FC 1
 62
    18
420
   196608
370
    18
100
AcDb2dPolyline
 66
     1
 10
0.0
 20
0.0
 30
0.0
  0
VERTEX
  5
440
330
43F
100
AcDbEntity
  8
\U+30EC\U+30A4\U+30E4\U+30FC 1
 62
    18
420
   196608
370
    18
100
AcDbVertex
100
AcDb2dVertex
 10
84.40483938862101
 20
-58.06277803452944
 30
0.0
  0
VERTEX
  5
441
330
43F
100
AcDbEntity
  8
\U+30EC\U+30A4\U+30E4\U+30FC 1
 62
    18
420
   196608
370
    18
100
AcDbVertex
100
AcDb2dVertex
 10
85.43113333367694
 20
-58.10463594467523
 30
0.0
  0
SEQEND
  5
442
330
43F
100
AcDbEntity
  8
\U+30EC\U+30A4\U+30E4\U+30FC 1
370
    18
  0
SPLINE
  5
443
330
1F
100
AcDbEntity
  8
\U+30EC\U+30A4\U+30E4\U+30FC 1
 62
    18
420
   196608
370
    18
100
AcDbSpline
210
0.0
220
0.0
230
1.0
 70
     8
 71
     3
 72
     8
 73
     4
 74
     0
 42
0.0000000001
 43
0.0000000001
 40
0.0
 40
0.0
 40
0.0
 40
0.0
 40
1.0
 40
1.0
 40
1.0
 40
1.0
 10
84.40483938862101
 20
-58.06277803452944
 30
0.0
 10
84.735568555205
 20
-58.12031112913312
 30
0.0
 10
85.06681448611177
 20
-58.17526040212285
 30
0.0
 10
85.39754365269576
 20
-58.22934840124127
 30
0.0
  0
POLYLINE
  5
444
330
1F
100
AcDbEntity
  8
\U+30EC\U+30A4\U+30E4\U+30FC 1
 62
    18
420
   196608
370
    18
100
AcDb2dPolyline
 66
     1
 10
0.0
 20
0.0
 30
0.0
  0
VERTEX
  5
445
330
444
100
AcDbEntity
  8
\U+30EC\U+30A4\U+30E4\U+30FC 1
 62
    18
420
   196608
370
    18
100
AcDbVertex
100
AcDb2dVertex
 10
252.9878308829336
 20
-105.5353325474009
 30
0.0
  0
VERTEX
  5
446
330
444
100
AcDbEntity
  8
\U+30EC\U+30A4\U+30E4\U+30FC 1
 62
    18
420
   196608
370
    18
100
AcDbVertex
100
AcDb2dVertex
 10
260.812331749033
 20
-107.6302951119813
 30
0.0
  0
SEQEND
  5
447
330
444
100
AcDbEntity
  8
\U+30EC\U+30A4\U+30E4\U+30FC 1
370
    18
  0
POLYLINE
  5
448
330
1F
100
AcDbEntity
  8
\U+30EC\U+30A4\U+30E4\U+30FC 1
 62
    18
420
   196608
370
    18
100
AcDb2dPolyline
 66
     1
 10
0.0
 20
0.0
 30
0.0
  0
VERTEX
  5
449
330
448
100
AcDbEntity
  8
\U+30EC\U+30A4\U+30E4\U+30FC 1
 62
    18
420
   196608
370
    18
100
AcDbVertex
100
AcDb2dVertex
 10
253.337852584235
 20
-104.2323974348794
 30
0.0
  0
VERTEX
  5
44A
330
448
100
AcDbEntity
  8
\U+30EC\U+30A4\U+30E4\U+30FC 1
 62
    18
420
   196608
370
    18
100
AcDbVertex
100
AcDb2dVertex
 10
261.1623534503344
 20
-106.3259819612657
 30
0.0
  0
SEQEND
  5
44B
330
448
100
AcDbEntity
  8
\U+30EC\U+30A4\U+30E4\U+30FC 1
370
    18
  0
POLYLINE
  5
44C
330
1F
100
AcDbEntity
  8
\U+30EC\U+30A4\U+30E4\U+30FC 1
 62
    18
420
   196608
370
    18
100
AcDb2dPolyline
 66
     1
 10
0.0
 20
0.0
 30
0.0
  0
VERTEX
  5
44D
330
44C
100
AcDbEntity
  8
\U+30EC\U+30A4\U+30E4\U+30FC 1
 62
    18
420
   196608
370
    18
100
AcDbVertex
100
AcDb2dVertex
 10
84.65323077310752
 20
-61.00799016486953
 30
0.0
  0
VERTEX
  5
44E
330
44C
100
AcDbEntity
  8
\U+30EC\U+30A4\U+30E4\U+30FC 1
 62
    18
420
   196608
370
    18
100
AcDbVertex
100
AcDb2dVertex
 10
87.07237682284996
 20
-61.65635713519355
 30
0.0
  0
SEQEND
  5
44F
330
44C
100
AcDbEntity
  8
\U+30EC\U+30A4\U+30E4\U+30FC 1
370
    18
  0
POLYLINE
  5
450
330
1F
100
AcDbEntity
  8
\U+30EC\U+30A4\U+30E4\U+30FC 1
 62
    18
420
   196608
370
    18
100
AcDb2dPolyline
 66
     1
 10
0.0
 20
0.0
 30
0.0
  0
VERTEX
  5
451
330
450
100
AcDbEntity
  8
\U+30EC\U+30A4\U+30E4\U+30FC 1
 62
    18
420
   196608
370
    18
100
AcDbVertex
100
AcDb2dVertex
 10
85.43113333367694
 20
-58.10463594467523
 30
0.0
  0
VERTEX
  5
452
330
450
100
AcDbEntity
  8
\U+30EC\U+30A4\U+30E4\U+30FC 1
 62
    18
420
   196608
370
    18
100
AcDbVertex
100
AcDb2dVertex
 10
87.85027938341938
 20
-58.7523138959022
 30
0.0
  0
SEQEND
  5
453
330
450
100
AcDbEntity
  8
\U+30EC\U+30A4\U+30E4\U+30FC 1
370
    18
  0
POLYLINE
  5
454
330
1F
100
AcDbEntity
  8
\U+30EC\U+30A4\U+30E4\U+30FC 1
 62
    18
420
   196608
370
    18
100
AcDb2dPolyline
 66
     1
 10
0.0
 20
0.0
 30
0.0
  0
VERTEX
  5
455
330
454
100
AcDbEntity
  8
\U+30EC\U+30A4\U+30E4\U+30FC 1
 62
    18
420
   196608
370
    18
100
AcDbVertex
100
AcDb2dVertex
 10
87.90109454182681
 20
-59.23686657590259
 30
0.0
  0
VERTEX
  5
456
330
454
100
AcDbEntity
  8
\U+30EC\U+30A4\U+30E4\U+30FC 1
 62
    18
420
   196608
370
    18
100
AcDbVertex
100
AcDb2dVertex
 10
253.5128634348857
 20
-103.5798963499731
 30
0.0
  0
SEQEND
  5
457
330
454
100
AcDbEntity
  8
\U+30EC\U+30A4\U+30E4\U+30FC 1
370
    18
  0
POLYLINE
  5
458
330
1F
100
AcDbEntity
  8
\U+30EC\U+30A4\U+30E4\U+30FC 1
 62
    18
420
   196608
370
    18
100
AcDb2dPolyline
 66
     1
 10
0.0
 20
0.0
 30
0.0
  0
VERTEX
  5
459
330
458
100
AcDbEntity
  8
\U+30EC\U+30A4\U+30E4\U+30FC 1
 62
    18
420
   196608
370
    18
100
AcDbVertex
100
AcDb2dVertex
 10
87.20225692264388
 20
-61.84239229139705
 30
0.0
  0
VERTEX
  5
45A
330
458
100
AcDbEntity
  8
\U+30EC\U+30A4\U+30E4\U+30FC 1
 62
    18
420
   196608
370
    18
100
AcDbVertex
100
AcDb2dVertex
 10
252.814198070477
 20
-106.1878336323072
 30
0.0
  0
SEQEND
  5
45B
330
458
100
AcDbEntity
  8
\U+30EC\U+30A4\U+30E4\U+30FC 1
370
    18
  0
POLYLINE
  5
45C
330
1F
100
AcDbEntity
  8
\U+30EC\U+30A4\U+30E4\U+30FC 1
 62
    18
420
   196608
370
    18
100
AcDb2dPolyline
 66
     1
 10
0.0
 20
0.0
 30
0.0
  0
VERTEX
  5
45D
330
45C
100
AcDbEntity
  8
\U+30EC\U+30A4\U+30E4\U+30FC 1
 62
    18
420
   196608
370
    18
100
AcDbVertex
100
AcDb2dVertex
 10
54.17171493871402
 20
-54.67659368207738
 30
0.0
  0
VERTEX
  5
45E
330
45C
100
AcDbEntity
  8
\U+30EC\U+30A4\U+30E4\U+30FC 1
 62
    18
420
   196608
370
    18
100
AcDbVertex
100
AcDb2dVertex
 10
79.21876489990018
 20
-54.67659368207738
 30
0.0
  0
SEQEND
  5
45F
330
45C
100
AcDbEntity
  8
\U+30EC\U+30A4\U+30E4\U+30FC 1
370
    18
  0
SPLINE
  5
460
330
1F
100
AcDbEntity
  8
\U+30EC\U+30A4\U+30E4\U+30FC 1
 62
    18
420
   196608
370
    18
100
AcDbSpline
210
0.0
220
0.0
230
1.0
 70
     8
 71
     3
 72
     8
 73
     4
 74
     0
 42
0.0000000001
 43
0.0000000001
 40
0.0
 40
0.0
 40
0.0
 40
0.0
 40
1.0
 40
1.0
 40
1.0
 40
1.0
 10
75.55146075585172
 20
-55.69117430248346
 30
0.0
 10
76.78825003505641
 20
-55.41057127520986
 30
0.0
 10
78.01160344186863
 20
-55.07226289855833
 30
0.0
 10
79.21704235215755
 20
-54.67659368207738
 30
0.0
  0
SPLINE
  5
461
330
1F
100
AcDbEntity
  8
\U+30EC\U+30A4\U+30E4\U+30FC 1
 62
    18
420
   196608
370
    18
100
AcDbSpline
210
0.0
220
0.0
230
1.0
 70
     8
 71
     3
 72
     8
 73
     4
 74
     0
 42
0.0000000001
 43
0.0000000001
 40
0.0
 40
0.0
 40
0.0
 40
0.0
 40
1.0
 40
1.0
 40
1.0
 40
1.0
 10
54.17309297690812
 20
-54.67659368207738
 30
0.0
 10
58.98296303863968
 20
-56.25599770729017
 30
0.0
 10
64.04845918537677
 20
-56.91142712335895
 30
0.0
 10
69.10241426223828
 20
-56.6080864658827
 30
0.0
  0
SPLINE
  5
462
330
1F
100
AcDbEntity
  8
\U+30EC\U+30A4\U+30E4\U+30FC 1
 62
    18
420
   196608
370
    18
100
AcDbSpline
210
0.0
220
0.0
230
1.0
 70
     8
 71
     3
 72
     8
 73
     4
 74
     0
 42
0.0000000001
 43
0.0000000001
 40
0.0
 40
0.0
 40
0.0
 40
0.0
 40
1.0
 40
1.0
 40
1.0
 40
1.0
 10
75.55146075585172
 20
-55.69117430248346
 30
0.0
 10
76.78825003505641
 20
-55.41057127520986
 30
0.0
 10
78.01160344186863
 20
-55.07226289855833
 30
0.0
 10
79.21704235215755
 20
-54.67659368207738
 30
0.0
  0
SPLINE
  5
463
330
1F
100
AcDbEntity
  8
\U+30EC\U+30A4\U+30E4\U+30FC 1
 62
    18
420
   196608
370
    18
100
AcDbSpline
210
0.0
220
0.0
230
1.0
 70
     8
 71
     3
 72
     8
 73
     4
 74
     0
 42
0.0000000001
 43
0.0000000001
 40
0.0
 40
0.0
 40
0.0
 40
0.0
 40
1.0
 40
1.0
 40
1.0
 40
1.0
 10
54.17309297690812
 20
-54.67659368207738
 30
0.0
 10
58.98296303863968
 20
-56.25599770729017
 30
0.0
 10
64.04845918537677
 20
-56.91142712335895
 30
0.0
 10
69.10241426223828
 20
-56.6080864658827
 30
0.0
  0
MTEXT
  5
464
330
1F
100
AcDbEntity
  8
\U+30EC\U+30A4\U+30E4\U+30FC 1
 62
    18
420
   262144
100
AcDbMText
 10
122.4025200431841
 20
-144.7901285445317
 30
0.0
 40
3.838222221262667
 41
0.0
 71
     7
 72
     1
  1
\fArial|b0|i0|c0|p34;\W1;Actual length 200 (7.87)
 73
     1
 44
1.0
  0
MTEXT
  5
465
330
1F
100
AcDbEntity
  8
\U+30EC\U+30A4\U+30E4\U+30FC 1
 62
    18
420
   262144
100
AcDbMText
 10
88.3613592986562
 20
-99.61631399419315
 30
0.0
 40
3.838222221262667
 41
0.0
 71
     7
 72
     1
  1
\fArial|b0|i0|c0|p34;\W1;97 (3.82)
 73
     1
 44
1.0
  0
MTEXT
  5
466
330
1F
100
AcDbEntity
  8
\U+30EC\U+30A4\U+30E4\U+30FC 1
 62
    18
420
   262144
100
AcDbMText
 10
42.67680934262941
 20
-101.4565117476394
 30
0.0
 40
3.838221992486795
 41
0.0
 71
     7
 72
     1
  1
\fArial|b0|i0|c0|p34;\W1;28 (1.1)
 11
-4.371139000186241E-8
 21
0.999999999999999
 31
0.0
 73
     1
 44
1.0
  0
MTEXT
  5
467
330
1F
100
AcDbEntity
  8
\U+30EC\U+30A4\U+30E4\U+30FC 1
 62
    18
420
   262144
100
AcDbMText
 10
163.2544623072767
 20
-65.76566702999956
 30
0.0
 40
3.838221992486795
 41
0.0
 71
     7
 72
     1
  1
\fArial|b0|i0|c0|p34;\W1;0.6
 11
-4.371139000186241E-8
 21
0.999999999999999
 31
0.0
 73
     1
 44
1.0
  0
MTEXT
  5
468
330
1F
100
AcDbEntity
  8
\U+30EC\U+30A4\U+30E4\U+30FC 1
 62
    18
420
   262144
100
AcDbMText
 10
162.8079779323883
 20
-51.70829941198613
 30
0.0
 40
3.838221992486795
 41
0.0
 71
     7
 72
     1
  1
\fArial|b0|i0|c0|p34;\W1;(0.02)
 11
-4.371139000186241E-8
 21
0.999999999999999
 31
0.0
 73
     1
 44
1.0
  0
MTEXT
  5
469
330
1F
100
AcDbEntity
  8
\U+30EC\U+30A4\U+30E4\U+30FC 1
 62
   250
420
  2234388
100
AcDbMText
 10
216.7326795248099
 20
-169.5937825096849
 30
0.0
 40
3.838222221262667
 41
0.0
 71
     7
 72
     1
  1
\fArial|b0|i0|c0|p34;\W1;Unit: mm (inches)
 73
     1
 44
1.0
  0
ENDSEC
  0
SECTION
  2
OBJECTS
  0
DICTIONARY
  5
C
330
0
100
AcDbDictionary
281
     1
  3
ACAD_GROUP
350
D
  3
ACAD_LAYOUT
350
1A
  3
ACAD_MLINESTYLE
350
17
  3
ACAD_PLOTSETTINGS
350
19
  3
ACAD_PLOTSTYLENAME
350
E
  3
ACAD_TABLESTYLE
350
46A
  3
ACAD_VISUALSTYLE
350
2A
  0
DICTIONARY
  5
D
102
{ACAD_REACTORS
330
C
102
}
330
C
100
AcDbDictionary
281
     1
  0
DICTIONARY
  5
1A
102
{ACAD_REACTORS
330
C
102
}
330
C
100
AcDbDictionary
281
     1
  3
Layout1
350
1E
  3
Layout2
350
26
  3
Model
350
22
  0
DICTIONARY
  5
17
102
{ACAD_REACTORS
330
C
102
}
330
C
100
AcDbDictionary
281
     1
  3
Standard
350
18
  0
DICTIONARY
  5
19
102
{ACAD_REACTORS
330
C
102
}
330
C
100
AcDbDictionary
281
     1
  0
ACDBDICTIONARYWDFLT
  5
E
102
{ACAD_REACTORS
330
C
102
}
330
C
100
AcDbDictionary
281
     1
  3
Normal
350
F
100
AcDbDictionaryWithDefault
340
F
  0
DICTIONARY
  5
46A
102
{ACAD_REACTORS
330
C
102
}
330
C
100
AcDbDictionary
281
     1
  0
DICTIONARY
  5
2A
102
{ACAD_REACTORS
330
C
102
}
330
C
100
AcDbDictionary
281
     1
  3
2dWireframe
350
2F
  3
3D Hidden
350
31
  3
3dWireframe
350
30
  3
Basic
350
32
  3
Brighten
350
36
  3
ColorChange
350
3A
  3
Conceptual
350
34
  3
Dim
350
35
  3
Facepattern
350
39
  3
Flat
350
2B
  3
FlatWithEdges
350
2C
  3
Gouraud
350
2D
  3
GouraudWithEdges
350
2E
  3
Linepattern
350
38
  3
Realistic
350
33
  3
Thicken
350
37
  0
LAYOUT
  5
1E
102
{ACAD_REACTORS
330
1A
102
}
330
1A
100
AcDbPlotSettings
  1

  2
none_device
  4

  6

 40
0.0
 41
0.0
 42
0.0
 43
0.0
 44
0.0
 45
0.0
 46
0.0
 47
0.0
 48
0.0
 49
0.0
140
0.0
141
0.0
142
1.0
143
1.0
 70
   688
 72
     0
 73
     0
 74
     5
  7

 75
    16
 76
     0
 77
     2
 78
   300
147
1.0
148
0.0
149
0.0
100
AcDbLayout
  1
Layout1
 70
     1
 71
     1
 10
0.0
 20
0.0
 11
12.0
 21
9.0
 12
0.0
 22
0.0
 32
0.0
 14
1.000000000000000E+20
 24
1.000000000000000E+20
 34
1.000000000000000E+20
 15
-1.000000000000000E+20
 25
-1.000000000000000E+20
 35
-1.000000000000000E+20
146
0.0
 13
0.0
 23
0.0
 33
0.0
 16
1.0
 26
0.0
 36
0.0
 17
0.0
 27
1.0
 37
0.0
 76
     0
330
1B
  0
LAYOUT
  5
26
102
{ACAD_REACTORS
330
1A
102
}
330
1A
100
AcDbPlotSettings
  1

  2
none_device
  4

  6

 40
0.0
 41
0.0
 42
0.0
 43
0.0
 44
0.0
 45
0.0
 46
0.0
 47
0.0
 48
0.0
 49
0.0
140
0.0
141
0.0
142
1.0
143
1.0
 70
   688
 72
     0
 73
     0
 74
     5
  7

 75
    16
 76
     0
 77
     2
 78
   300
147
1.0
148
0.0
149
0.0
100
AcDbLayout
  1
Layout2
 70
     1
 71
     2
 10
0.0
 20
0.0
 11
0.0
 21
0.0
 12
0.0
 22
0.0
 32
0.0
 14
0.0
 24
0.0
 34
0.0
 15
0.0
 25
0.0
 35
0.0
146
0.0
 13
0.0
 23
0.0
 33
0.0
 16
1.0
 26
0.0
 36
0.0
 17
0.0
 27
1.0
 37
0.0
 76
     0
330
23
  0
LAYOUT
  5
22
102
{ACAD_REACTORS
330
1A
102
}
330
1A
100
AcDbPlotSettings
  1

  2
none_device
  4

  6

 40
0.0
 41
0.0
 42
0.0
 43
0.0
 44
0.0
 45
0.0
 46
0.0
 47
0.0
 48
0.0
 49
0.0
140
0.0
141
0.0
142
1.0
143
1.0
 70
  1712
 72
     0
 73
     0
 74
     0
  7

 75
     0
 76
     0
 77
     2
 78
   300
147
1.0
148
0.0
149
0.0
100
AcDbLayout
  1
Model
 70
     1
 71
     0
 10
0.0
 20
0.0
 11
12.0
 21
9.0
 12
0.0
 22
0.0
 32
0.0
 14
1.000000000000000E+20
 24
1.000000000000000E+20
 34
1.000000000000000E+20
 15
-1.000000000000000E+20
 25
-1.000000000000000E+20
 35
-1.000000000000000E+20
146
0.0
 13
0.0
 23
0.0
 33
0.0
 16
1.0
 26
0.0
 36
0.0
 17
0.0
 27
1.0
 37
0.0
 76
     0
330
1F
331
29
  0
MLINESTYLE
  5
18
102
{ACAD_REACTORS
330
17
102
}
330
17
100
AcDbMlineStyle
  2
Standard
 70
     0
  3

 62
   256
 51
90.0
 52
90.0
 71
     2
 49
0.5
 62
   256
  6
BYLAYER
 49
-0.5
 62
   256
  6
BYLAYER
  0
ACDBPLACEHOLDER
  5
F
102
{ACAD_REACTORS
330
E
102
}
330
E
  0
VISUALSTYLE
  5
2F
102
{ACAD_REACTORS
330
2A
102
}
330
2A
100
AcDbVisualStyle
  2
2dWireframe
 70
     4
 71
     0
 72
     2
 73
     0
 90
        0
 40
-0.6
 41
-30.0
 62
     5
 63
     7
421
 16777215
 74
     1
 91
        4
 64
     7
 65
   257
 75
     1
175
     1
 42
1.0
 92
        0
 66
   257
 43
1.0
 76
     1
 77
     6
 78
     2
 67
     7
 79
     5
170
     0
171
     0
290
     0
174
     0
 93
        1
 44
0.0
173
     0
291
     0
 45
0.0
1001
ACAD
1000
AcDbSavedByObjectVersion
1070
     0
  0
VISUALSTYLE
  5
31
102
{ACAD_REACTORS
330
2A
102
}
330
2A
100
AcDbVisualStyle
  2
3D Hidden
 70
     6
 71
     1
 72
     2
 73
     2
 90
        0
 40
-0.6
 41
-30.0
 62
     5
 63
     7
421
 16777215
 74
     2
 91
        2
 64
     7
 65
   257
 75
     2
175
     1
 42
40.0
 92
        0
 66
   257
 43
1.0
 76
     1
 77
     6
 78
     2
 67
     7
 79
     3
170
     0
171
     0
290
     0
174
     0
 93
        1
 44
0.0
173
     0
291
     0
 45
0.0
1001
ACAD
1000
AcDbSavedByObjectVersion
1070
     0
  0
VISUALSTYLE
  5
30
102
{ACAD_REACTORS
330
2A
102
}
330
2A
100
AcDbVisualStyle
  2
3dWireframe
 70
     5
 71
     0
 72
     2
 73
     0
 90
        0
 40
-0.6
 41
-30.0
 62
     5
 63
     7
421
 16777215
 74
     1
 91
        4
 64
     7
 65
   257
 75
     1
175
     1
 42
1.0
 92
        0
 66
   257
 43
1.0
 76
     1
 77
     6
 78
     2
 67
     7
 79
     5
170
     0
171
     0
290
     0
174
     0
 93
        1
 44
0.0
173
     0
291
     0
 45
0.0
1001
ACAD
1000
AcDbSavedByObjectVersion
1070
     0
  0
VISUALSTYLE
  5
32
102
{ACAD_REACTORS
330
2A
102
}
330
2A
100
AcDbVisualStyle
  2
Basic
 70
     7
 71
     1
 72
     0
 73
     1
 90
        0
 40
-0.6
 41
-30.0
 62
     5
 63
     7
421
 16777215
 74
     0
 91
        4
 64
     7
 65
   257
 75
     1
175
     1
 42
1.0
 92
        8
 66
     7
 43
1.0
 76
     1
 77
     6
 78
     2
 67
     7
 79
     5
170
     0
171
     0
290
     0
174
     0
 93
        1
 44
0.0
173
     0
291
     1
 45
0.0
1001
ACAD
1000
AcDbSavedByObjectVersion
1070
     0
  0
VISUALSTYLE
  5
36
102
{ACAD_REACTORS
330
2A
102
}
330
2A
100
AcDbVisualStyle
  2
Brighten
 70
    12
 71
     2
 72
     2
 73
     0
 90
        0
 40
-0.6
 41
-30.0
 62
     5
 63
     7
421
 16777215
 74
     1
 91
        4
 64
     7
 65
   257
 75
     1
175
     1
 42
1.0
 92
        8
 66
     7
 43
1.0
 76
     1
 77
     6
 78
     2
 67
     7
 79
     5
170
     0
171
     0
290
     0
174
     0
 93
        1
 44
50.0
173
     0
291
     1
 45
0.0
1001
ACAD
1000
AcDbSavedByObjectVersion
1070
     0
  0
VISUALSTYLE
  5
3A
102
{ACAD_REACTORS
330
2A
102
}
330
2A
100
AcDbVisualStyle
  2
ColorChange
 70
    16
 71
     2
 72
     2
 73
     3
 90
        0
 40
-0.6
 41
-30.0
 62
     5
 63
     8
421
  8421504
 74
     1
 91
        4
 64
     7
 65
   257
 75
     1
175
     1
 42
1.0
 92
        8
 66
     8
424
  8421504
 43
1.0
 76
     1
 77
     6
 78
     2
 67
     7
 79
     5
170
     0
171
     0
290
     0
174
     0
 93
        1
 44
0.0
173
     0
291
     1
 45
0.0
1001
ACAD
1000
AcDbSavedByObjectVersion
1070
     0
  0
VISUALSTYLE
  5
34
102
{ACAD_REACTORS
330
2A
102
}
330
2A
100
AcDbVisualStyle
  2
Conceptual
 70
     9
 71
     3
 72
     2
 73
     0
 90
        0
 40
-0.6
 41
-30.0
 62
     5
 63
     7
421
 16777215
 74
     2
 91
        2
 64
     7
 65
   257
 75
     1
175
     1
 42
40.0
 92
        8
 66
     7
 43
1.0
 76
     1
 77
     6
 78
     2
 67
     7
 79
     3
170
     0
171
     0
290
     0
174
     0
 93
        1
 44
0.0
173
     0
291
     0
 45
0.0
1001
ACAD
1000
AcDbSavedByObjectVersion
1070
     0
  0
VISUALSTYLE
  5
35
102
{ACAD_REACTORS
330
2A
102
}
330
2A
100
AcDbVisualStyle
  2
Dim
 70
    11
 71
     2
 72
     2
 73
     0
 90
        0
 40
-0.6
 41
-30.0
 62
     5
 63
     7
421
 16777215
 74
     1
 91
        4
 64
     7
 65
   257
 75
     1
175
     1
 42
1.0
 92
        8
 66
     7
 43
1.0
 76
     1
 77
     6
 78
     2
 67
     7
 79
     5
170
     0
171
     0
290
     0
174
     0
 93
        1
 44
-50.0
173
     0
291
     1
 45
0.0
1001
ACAD
1000
AcDbSavedByObjectVersion
1070
     0
  0
VISUALSTYLE
  5
39
102
{ACAD_REACTORS
330
2A
102
}
330
2A
100
AcDbVisualStyle
  2
Facepattern
 70
    15
 71
     2
 72
     2
 73
     0
 90
        0
 40
-0.6
 41
-30.0
 62
     5
 63
     7
421
 16777215
 74
     1
 91
        4
 64
     7
 65
   257
 75
     1
175
     1
 42
1.0
 92
        8
 66
     7
 43
1.0
 76
     1
 77
     6
 78
     2
 67
     7
 79
     5
170
     0
171
     0
290
     0
174
     0
 93
        1
 44
0.0
173
     0
291
     1
 45
0.0
1001
ACAD
1000
AcDbSavedByObjectVersion
1070
     0
  0
VISUALSTYLE
  5
2B
102
{ACAD_REACTORS
330
2A
102
}
330
2A
100
AcDbVisualStyle
  2
Flat
 70
     0
 71
     2
 72
     1
 73
     1
 90
        2
 40
-0.6
 41
30.0
 62
     5
 63
     7
421
 16777215
 74
     0
 91
        4
 64
     7
 65
   257
 75
     1
175
     1
 42
1.0
 92
        8
 66
     7
 43
1.0
 76
     1
 77
     6
 78
     2
 67
     7
 79
     5
170
     0
171
     0
290
     0
174
     0
 93
       13
 44
0.0
173
     0
291
     1
 45
0.0
1001
ACAD
1000
AcDbSavedByObjectVersion
1070
     0
  0
VISUALSTYLE
  5
2C
102
{ACAD_REACTORS
330
2A
102
}
330
2A
100
AcDbVisualStyle
  2
FlatWithEdges
 70
     1
 71
     2
 72
     1
 73
     1
 90
        2
 40
-0.6
 41
30.0
 62
     5
 63
     7
421
 16777215
 74
     1
 91
        4
 64
     7
 65
   257
 75
     1
175
     1
 42
1.0
 92
        0
 66
   257
 43
1.0
 76
     1
 77
     6
 78
     2
 67
     7
 79
     5
170
     0
171
     0
290
     0
174
     0
 93
       13
 44
0.0
173
     0
291
     1
 45
0.0
1001
ACAD
1000
AcDbSavedByObjectVersion
1070
     0
  0
VISUALSTYLE
  5
2D
102
{ACAD_REACTORS
330
2A
102
}
330
2A
100
AcDbVisualStyle
  2
Gouraud
 70
     2
 71
     2
 72
     2
 73
     1
 90
        2
 40
-0.6
 41
30.0
 62
     5
 63
     7
421
 16777215
 74
     0
 91
        4
 64
     7
 65
   257
 75
     1
175
     1
 42
1.0
 92
        0
 66
     7
 43
1.0
 76
     1
 77
     6
 78
     2
 67
     7
 79
     5
170
     0
171
     0
290
     0
174
     0
 93
       13
 44
0.0
173
     0
291
     1
 45
0.0
1001
ACAD
1000
AcDbSavedByObjectVersion
1070
     0
  0
VISUALSTYLE
  5
2E
102
{ACAD_REACTORS
330
2A
102
}
330
2A
100
AcDbVisualStyle
  2
GouraudWithEdges
 70
     3
 71
     2
 72
     2
 73
     1
 90
        2
 40
-0.6
 41
30.0
 62
     5
 63
     7
421
 16777215
 74
     1
 91
        4
 64
     7
 65
   257
 75
     1
175
     1
 42
1.0
 92
        0
 66
   257
 43
1.0
 76
     1
 77
     6
 78
     2
 67
     7
 79
     5
170
     0
171
     0
290
     0
174
     0
 93
       13
 44
0.0
173
     0
291
     1
 45
0.0
1001
ACAD
1000
AcDbSavedByObjectVersion
1070
     0
  0
VISUALSTYLE
  5
38
102
{ACAD_REACTORS
330
2A
102
}
330
2A
100
AcDbVisualStyle
  2
Linepattern
 70
    14
 71
     2
 72
     2
 73
     0
 90
        0
 40
-0.6
 41
-30.0
 62
     5
 63
     7
421
 16777215
 74
     1
 91
        4
 64
     7
 65
   257
 75
     7
175
     7
 42
1.0
 92
        8
 66
     7
 43
1.0
 76
     1
 77
     6
 78
     2
 67
     7
 79
     5
170
     0
171
     0
290
     0
174
     0
 93
        1
 44
0.0
173
     0
291
     1
 45
0.0
1001
ACAD
1000
AcDbSavedByObjectVersion
1070
     0
  0
VISUALSTYLE
  5
33
102
{ACAD_REACTORS
330
2A
102
}
330
2A
100
AcDbVisualStyle
  2
Realistic
 70
     8
 71
     2
 72
     2
 73
     0
 90
        0
 40
-0.6
 41
-30.0
 62
     5
 63
     7
421
 16777215
 74
     1
 91
        0
 64
     7
 65
   257
 75
     1
175
     1
 42
1.0
 92
        8
 66
     8
424
  7895160
 43
1.0
 76
     1
 77
     6
 78
     2
 67
     7
 79
     5
170
     0
171
     0
290
     0
174
     0
 93
       13
 44
0.0
173
     0
291
     0
 45
0.0
1001
ACAD
1000
AcDbSavedByObjectVersion
1070
     0
  0
VISUALSTYLE
  5
37
102
{ACAD_REACTORS
330
2A
102
}
330
2A
100
AcDbVisualStyle
  2
Thicken
 70
    13
 71
     2
 72
     2
 73
     0
 90
        0
 40
-0.6
 41
-30.0
 62
     5
 63
     7
421
 16777215
 74
     1
 91
        4
 64
     7
 65
   257
 75
     1
175
     1
 42
1.0
 92
       12
 66
     7
 43
1.0
 76
     1
 77
     6
 78
     2
 67
     7
 79
     5
170
     0
171
     0
290
     0
174
     0
 93
        1
 44
0.0
173
     0
291
     1
 45
0.0
1001
ACAD
1000
AcDbSavedByObjectVersion
1070
     0
  0
ENDSEC
  0
EOF
