  0
SECTION
  2
HEADER
  9
$ACADVER
  1
AC1009
  9
$INSBASE
 10
0
 20
0
 30
0
  9
$EXTMIN
 10
0
 20
0
  9
$EXTMAX
 10
420
 20
297
  9
$LIMMIN
 10
0
 20
0
  9
$LIMMAX
 10
420
 20
297
  9
$LTSCALE
 40
1
  0
ENDSEC
  0
SECTION
  2
TABLES
  0
TABLE
  2
LTYPE
 70
     9
  0
LTYPE
  2
CONTINUOUS
 70
    64
  3
実線
 72
    65
 73
     0
 40
0.0
  0
LTYPE
  2
DASHED1
 70
    64
  3
--  --  --  --  --  --  --  --  
 72
    65
 73
     2
 40
2.5
 49
1.25
 49
-1.25
  0
LTYPE
  2
DASHED2
 70
    64
  3
----    ----    ----    ----    
 72
    65
 73
     2
 40
5.0
 49
2.5
 49
-2.5
  0
LTYPE
  2
DASHED3
 70
    64
  3
------  ------  ------  ------  
 72
    65
 73
     2
 40
5.0
 49
3.75
 49
-1.25
  0
LTYPE
  2
CENTER1
 70
    64
  3
----- - ----- - ----- - ----- - 
 72
    65
 73
     4
 40
10.0
 49
6.25
 49
-1.25
 49
1.25
 49
-1.25
  0
LTYPE
  2
CENTER2
 70
    64
  3
----------  --  ----------  --  
 72
    65
 73
     4
 40
20.0
 49
12.5
 49
-2.5
 49
2.5
 49
-2.5
  0
LTYPE
  2
PHANTOM1
 70
    64
  3
--- - - --- - - --- - - --- - - 
 72
    65
 73
     6
 40
10.0
 49
3.25
 49
-1.25
 49
1.25
 49
-1.25
 49
1.25
 49
-1.25
  0
LTYPE
  2
PHANTOM2
 70
    64
  3
--------  -  -  --------  -  -  
 72
    65
 73
     6
 40
20.0
 49
10.0
 49
-2.5
 49
1.25
 49
-2.5
 49
1.25
 49
-2.5
  0
LTYPE
  2
DOT
 70
    64
  3
-   -   -   -   -   -   -   -   
 72
    65
 73
     2
 40
2.5
 49
0.625
 49
-1.875
  0
LTYPE
  2
DUMMY
 70
    64
  3
ダミー
 72
    65
 73
     0
 40
0.0
  0
LTYPE
  2
RAND1
 70
    64
  3
ランダム線1
 72
    65
 73
     4
 40
10.0
 49
1.0
 49
-2.0
 49
3.0
 49
-4.0
  0
LTYPE
  2
RAND2
 70
    64
  3
ランダム線2
 72
    65
 73
     4
 40
14.0
 49
2.0
 49
-3.0
 49
4.0
 49
-5.0
  0
LTYPE
  2
RAND3
 70
    64
  3
ランダム線3
 72
    65
 73
     4
 40
18.0
 49
3.0
 49
-4.0
 49
5.0
 49
-6.0
  0
LTYPE
  2
RAND4
 70
    64
  3
ランダム線4
 72
    65
 73
     4
 40
22.0
 49
4.0
 49
-5.0
 49
6.0
 49
-7.0
  0
LTYPE
  2
RAND5
 70
    64
  3
ランダム線5
 72
    65
 73
     4
 40
26.0
 49
5.0
 49
-6.0
 49
7.0
 49
-8.0
  0
LTYPE
  2
LONG1
 70
    64
  3
----------  --  ----------  --  
 72
    65
 73
     4
 40
40.0
 49
32.5
 49
-2.5
 49
2.5
 49
-2.5
  0
LTYPE
  2
LONG2
 70
    64
  3
--------  -  -  --------  -  -  
 72
    65
 73
     6
 40
40.0
 49
30.0
 49
-2.5
 49
1.25
 49
-2.5
 49
1.25
 49
-2.5
  0
LTYPE
  2
LONG3
 70
    64
  3
+++++++++++++++..+++++++++++++++
 72
    65
 73
     2
 40
40.0
 49
37.5
 49
-2.5
  0
LTYPE
  2
LONG4
 70
    64
  3
+++++++++++++++..+++++++++++++++
 72
    65
 73
     2
 40
80.0
 49
75.0
 49
-5.0
  0
LTYPE
  2
LONG5
 70
    64
  3
----------  --  ----------  --  
 72
    65
 73
     4
 40
60.0
 49
37.5
 49
-7.5
 49
7.5
 49
-7.5
  0
LTYPE
  2
dashed
 70
   64
  3
-------   -------------   ------
 72
   65
 73
    2
 40
7.5
 49
6
 49
-1.5
  0
LTYPE
  2
dashed_spaced
 70
   64
  3
----        --------        ----
 72
   65
 73
    2
 40
12
 49
6
 49
-6
  0
LTYPE
  2
long_dashed_dotted
 70
   64
  3
------------- --- --------------
 72
   65
 73
    4
 40
15.25
 49
12
 49
-1.5
 49
0.25
 49
-1.5
  0
LTYPE
  2
long_dashed_double-dotted
 70
   64
  3
----------- --- --- ------------
 72
   65
 73
    6
 40
17
 49
12
 49
-1.5
 49
0.25
 49
-1.5
 49
0.25
 49
-1.5
  0
LTYPE
  2
long_dashed_triplicate-dotted
 70
   64
  3
--------- --- --- --- ----------
 72
   65
 73
    8
 40
18.75
 49
12
 49
-1.5
 49
0.25
 49
-1.5
 49
0.25
 49
-1.5
 49
0.25
 49
-1.5
  0
LTYPE
  2
dotted
 70
   64
  3
   -       -       -       -    
 72
   65
 73
    2
 40
1.75
 49
0.25
 49
-1.5
  0
LTYPE
  2
chain
 70
   64
  3
-------------- -- --------------
 72
   65
 73
    4
 40
18.5
 49
12
 49
-1.5
 49
3.5
 49
-1.5
  0
LTYPE
  2
chain_double_dash
 70
   64
  3
------------ -- -- -------------
 72
   65
 73
    6
 40
23.5
 49
12
 49
-1.5
 49
3.5
 49
-1.5
 49
3.5
 49
-1.5
  0
LTYPE
  2
dashed_dotted
 70
   64
  3
-----------     -     ----------
 72
   65
 73
    4
 40
9.25
 49
6
 49
-1.5
 49
0.25
 49
-1.5
  0
LTYPE
  2
double-dashed_dotted
 70
   64
  3
------   -----------   -   -----
 72
   65
 73
    6
 40
16.75
 49
6
 49
-1.5
 49
6
 49
-1.5
 49
0.25
 49
-1.5
  0
LTYPE
  2
dashed_double-dotted
 70
   64
  3
---------    -    -    ---------
 72
   65
 73
    6
 40
11
 49
6
 49
-1.5
 49
0.25
 49
-1.5
 49
0.25
 49
-1.5
  0
LTYPE
  2
double-dashed_double-dotted
 70
   64
  3
-----   ---------   -   -   ----
 72
   65
 73
    8
 40
18.5
 49
6
 49
-1.5
 49
6
 49
-1.5
 49
0.25
 49
-1.5
 49
0.25
 49
-1.5
  0
LTYPE
  2
dashed_triplicate-dotted
 70
   64
  3
-------    -    -    -    ------
 72
   65
 73
    8
 40
12.75
 49
6
 49
-1.5
 49
0.25
 49
-1.5
 49
0.25
 49
-1.5
 49
0.25
 49
-1.5
  0
LTYPE
  2
double-dashed_triplicate-dotted
 70
   64
  3
-----  ---------  -  -  -  -----
 72
   65
 73
   10
 40
20.25
 49
6
 49
-1.5
 49
6
 49
-1.5
 49
0.25
 49
-1.5
 49
0.25
 49
-1.5
 49
0.25
 49
-1.5
  0
LTYPE
  2
undefined
 70
   64
  3
--------------------------------
 72
   65
 73
    0
 40
0
  0
LTYPE
  2
_
 70
   64
  3
                                
 72
   65
 73
    0
 40
0
  0
LTYPE
  2
__18
 70
   64
  3
                                
 72
   65
 73
    0
 40
0
  0
LTYPE
  2
__19
 70
   64
  3
                                
 72
   65
 73
    0
 40
0
  0
LTYPE
  2
__20
 70
   64
  3
                                
 72
   65
 73
    0
 40
0
  0
LTYPE
  2
__21
 70
   64
  3
                                
 72
   65
 73
    0
 40
0
  0
LTYPE
  2
__22
 70
   64
  3
                                
 72
   65
 73
    0
 40
0
  0
LTYPE
  2
__23
 70
   64
  3
                                
 72
   65
 73
    0
 40
0
  0
LTYPE
  2
__24
 70
   64
  3
                                
 72
   65
 73
    0
 40
0
  0
LTYPE
  2
__25
 70
   64
  3
                                
 72
   65
 73
    0
 40
0
  0
LTYPE
  2
__26
 70
   64
  3
                                
 72
   65
 73
    0
 40
0
  0
LTYPE
  2
__27
 70
   64
  3
                                
 72
   65
 73
    0
 40
0
  0
LTYPE
  2
__28
 70
   64
  3
                                
 72
   65
 73
    0
 40
0
  0
LTYPE
  2
__29
 70
   64
  3
                                
 72
   65
 73
    0
 40
0
  0
LTYPE
  2
__30
 70
   64
  3
                                
 72
   65
 73
    0
 40
0
  0
LTYPE
  2
__31
 70
   64
  3
                                
 72
   65
 73
    0
 40
0
  0
LTYPE
  2
__32
 70
   64
  3
                                
 72
   65
 73
    0
 40
0
  0
ENDTAB
  0
TABLE
  2
STYLE
  5
3
100
AcDbSymbolTable
 70
     1
  0
STYLE
  5
10
100
AcDbSymbolTableRecord
100
AcDbTextStyleTableRecord
  2
STANDARD
 70
     0
 40
0.0
 41
1.0
 50
0.0
 71
     0
 42
0.2
  3
txt
  4
bigfont.shx
  0
STYLE
  5
26
100
AcDbSymbolTableRecord
100
AcDbTextStyleTableRecord
  2
TATEGAKI
 70
    68
 40
0.0
 41
1.0
 50
0.0
 71
     0
 42
1.0
  3
txt
  4
bigfont.shx
  0
ENDTAB
  0
TABLE
  2
LAYER
 70
    3
  0
LAYER
  2
_0-0_0
 70
   64
 62
    7
  6
CONTINUOUS
  0
LAYER
  2
_0-1__U_30EC_U_30A4_U_30E4_U_30FC_1
 70
   64
 62
    7
  6
CONTINUOUS
  0
LAYER
  2
ADD_LINE
 70
   64
 62
    7
  6
CONTINUOUS
  0
ENDTAB
  0
ENDSEC
  0
SECTION
  2
BLOCKS
  0
BLOCK
  2
-000-block_2
 70
   64
 10
0
 20
0
 30
0
  0
ENDBLK
  0
BLOCK
  2
-001-block_4
 70
   64
 10
0
 20
0
 30
0
  0
ENDBLK
  0
BLOCK
  2
-002-block_3
 70
   64
 10
0
 20
0
 30
0
  0
INSERT
  2
-001-block_4
  8
_0-1__U_30EC_U_30A4_U_30E4_U_30FC_1
 10
0
 20
0
 41
1
 42
1
 50
0
  0
ENDBLK
  0
BLOCK
  2
-003-block_6
 70
   64
 10
0
 20
0
 30
0
  0
ENDBLK
  0
BLOCK
  2
-004-block_5
 70
   64
 10
0
 20
0
 30
0
  0
INSERT
  2
-003-block_6
  8
_0-1__U_30EC_U_30A4_U_30E4_U_30FC_1
 10
0
 20
0
 41
1
 42
1
 50
0
  0
ENDBLK
  0
BLOCK
  2
-005-block_8
 70
   64
 10
0
 20
0
 30
0
  0
LINE
  8
_0-1__U_30EC_U_30A4_U_30E4_U_30FC_1
  6
CONTINUOUS
 62
    7
 10
-0.0000023275065098
 20
-0.0000015999023433
 11
-0.0000023275065098
 21
-0.0000001488281249
  0
LINE
  8
_0-1__U_30EC_U_30A4_U_30E4_U_30FC_1
  6
CONTINUOUS
 62
    7
 10
-0.0000023275065098
 20
-0.0000001488281249
 11
-0.0000049568033841
 21
-0.0000001488281249
  0
LINE
  8
_0-1__U_30EC_U_30A4_U_30E4_U_30FC_1
  6
CONTINUOUS
 62
    7
 10
-0.0000049568033841
 20
-0.0000001488281249
 11
-0.0000049568033841
 21
0.0000005333007811
  0
LINE
  8
_0-1__U_30EC_U_30A4_U_30E4_U_30FC_1
  6
CONTINUOUS
 62
    7
 10
-0.0000049568033841
 20
0.0000005333007811
 11
-0.0000021910807286
 21
0.0000044607096343
  0
LINE
  8
_0-1__U_30EC_U_30A4_U_30E4_U_30FC_1
  6
CONTINUOUS
 62
    7
 10
-0.0000021910807286
 20
0.0000044607096343
 11
-0.000001583365885
 21
0.0000044607096343
  0
LINE
  8
_0-1__U_30EC_U_30A4_U_30E4_U_30FC_1
  6
CONTINUOUS
 62
    7
 10
-0.000001583365885
 20
0.0000044607096343
 11
-0.000001583365885
 21
0.0000005333007811
  0
LINE
  8
_0-1__U_30EC_U_30A4_U_30E4_U_30FC_1
  6
CONTINUOUS
 62
    7
 10
-0.000001583365885
 20
0.0000005333007811
 11
-0.0000007648111977
 21
0.0000005333007811
  0
LINE
  8
_0-1__U_30EC_U_30A4_U_30E4_U_30FC_1
  6
CONTINUOUS
 62
    7
 10
-0.0000007648111977
 20
0.0000005333007811
 11
-0.0000007648111977
 21
-0.0000001488281249
  0
LINE
  8
_0-1__U_30EC_U_30A4_U_30E4_U_30FC_1
  6
CONTINUOUS
 62
    7
 10
-0.0000007648111977
 20
-0.0000001488281249
 11
-0.000001583365885
 21
-0.0000001488281249
  0
LINE
  8
_0-1__U_30EC_U_30A4_U_30E4_U_30FC_1
  6
CONTINUOUS
 62
    7
 10
-0.000001583365885
 20
-0.0000001488281249
 11
-0.000001583365885
 21
-0.0000015999023433
  0
LINE
  8
_0-1__U_30EC_U_30A4_U_30E4_U_30FC_1
  6
CONTINUOUS
 62
    7
 10
-0.000001583365885
 20
-0.0000015999023433
 11
-0.0000023275065098
 21
-0.0000015999023433
  0
LINE
  8
_0-1__U_30EC_U_30A4_U_30E4_U_30FC_1
  6
CONTINUOUS
 62
    7
 10
-0.0000023275065098
 20
0.0000005333007811
 11
-0.0000023275065098
 21
0.00000326595052
  0
LINE
  8
_0-1__U_30EC_U_30A4_U_30E4_U_30FC_1
  6
CONTINUOUS
 62
    7
 10
-0.0000023275065098
 20
0.00000326595052
 11
-0.0000042250651031
 21
0.0000005333007811
  0
LINE
  8
_0-1__U_30EC_U_30A4_U_30E4_U_30FC_1
  6
CONTINUOUS
 62
    7
 10
-0.0000042250651031
 20
0.0000005333007811
 11
-0.0000023275065098
 21
0.0000005333007811
  0
ENDBLK
  0
BLOCK
  2
-006-block_7
 70
   64
 10
0
 20
0
 30
0
  0
INSERT
  2
-005-block_8
  8
_0-1__U_30EC_U_30A4_U_30E4_U_30FC_1
 10
0
 20
0
 41
1
 42
1
 50
0
  0
ENDBLK
  0
BLOCK
  2
-007-block_10
 70
   64
 10
0
 20
0
 30
0
  0
LINE
  8
_0-1__U_30EC_U_30A4_U_30E4_U_30FC_1
  6
CONTINUOUS
 62
    7
 10
0.0000021332031244
 20
0.0000018975585932
 11
0.000000682128906
 21
0.0000018975585932
  0
LINE
  8
_0-1__U_30EC_U_30A4_U_30E4_U_30FC_1
  6
CONTINUOUS
 62
    7
 10
0.000000682128906
 20
0.0000018975585932
 11
0.000000682128906
 21
-0.000000731738281
  0
LINE
  8
_0-1__U_30EC_U_30A4_U_30E4_U_30FC_1
  6
CONTINUOUS
 62
    7
 10
0.000000682128906
 20
-0.000000731738281
 11
0
 21
-0.000000731738281
  0
LINE
  8
_0-1__U_30EC_U_30A4_U_30E4_U_30FC_1
  6
CONTINUOUS
 62
    7
 10
0
 20
-0.000000731738281
 11
-0.0000039274088531
 21
0.0000020339843744
  0
LINE
  8
_0-1__U_30EC_U_30A4_U_30E4_U_30FC_1
  6
CONTINUOUS
 62
    7
 10
-0.0000039274088531
 20
0.0000020339843744
 11
-0.0000039274088531
 21
0.000002641699218
  0
LINE
  8
_0-1__U_30EC_U_30A4_U_30E4_U_30FC_1
  6
CONTINUOUS
 62
    7
 10
-0.0000039274088531
 20
0.000002641699218
 11
0
 21
0.000002641699218
  0
LINE
  8
_0-1__U_30EC_U_30A4_U_30E4_U_30FC_1
  6
CONTINUOUS
 62
    7
 10
0
 20
0.000002641699218
 11
0
 21
0.0000034602539053
  0
LINE
  8
_0-1__U_30EC_U_30A4_U_30E4_U_30FC_1
  6
CONTINUOUS
 62
    7
 10
0
 20
0.0000034602539053
 11
0.000000682128906
 21
0.0000034602539053
  0
LINE
  8
_0-1__U_30EC_U_30A4_U_30E4_U_30FC_1
  6
CONTINUOUS
 62
    7
 10
0.000000682128906
 20
0.0000034602539053
 11
0.000000682128906
 21
0.000002641699218
  0
LINE
  8
_0-1__U_30EC_U_30A4_U_30E4_U_30FC_1
  6
CONTINUOUS
 62
    7
 10
0.000000682128906
 20
0.000002641699218
 11
0.0000021332031244
 21
0.000002641699218
  0
LINE
  8
_0-1__U_30EC_U_30A4_U_30E4_U_30FC_1
  6
CONTINUOUS
 62
    7
 10
0.0000021332031244
 20
0.000002641699218
 11
0.0000021332031244
 21
0.0000018975585932
  0
LINE
  8
_0-1__U_30EC_U_30A4_U_30E4_U_30FC_1
  6
CONTINUOUS
 62
    7
 10
0
 20
0.0000018975585932
 11
-0.0000027326497389
 21
0.0000018975585932
  0
LINE
  8
_0-1__U_30EC_U_30A4_U_30E4_U_30FC_1
  6
CONTINUOUS
 62
    7
 10
-0.0000027326497389
 20
0.0000018975585932
 11
0
 21
0
  0
LINE
  8
_0-1__U_30EC_U_30A4_U_30E4_U_30FC_1
  6
CONTINUOUS
 62
    7
 10
0
 20
0
 11
0
 21
0.0000018975585932
  0
ENDBLK
  0
BLOCK
  2
-008-block_9
 70
   64
 10
0
 20
0
 30
0
  0
INSERT
  2
-007-block_10
  8
_0-1__U_30EC_U_30A4_U_30E4_U_30FC_1
 10
0
 20
0
 41
1
 42
1
 50
0
  0
ENDBLK
  0
BLOCK
  2
-009-block_12
 70
   64
 10
0
 20
0
 30
0
  0
ENDBLK
  0
BLOCK
  2
-010-block_11
 70
   64
 10
0
 20
0
 30
0
  0
INSERT
  2
-009-block_12
  8
_0-1__U_30EC_U_30A4_U_30E4_U_30FC_1
 10
0
 20
0
 41
1
 42
1
 50
0
  0
ENDBLK
  0
BLOCK
  2
-011-block_13
 70
   64
 10
0
 20
0
 30
0
  0
LINE
  8
_0-1__U_30EC_U_30A4_U_30E4_U_30FC_1
  6
CONTINUOUS
 62
    7
 10
-0.0000595767252455
 20
0.0000026024251295
 11
-0.0000595767252455
 21
0.0000030303059888
  0
LINE
  8
_0-1__U_30EC_U_30A4_U_30E4_U_30FC_1
  6
CONTINUOUS
 62
    7
 10
-0.0000595767252455
 20
0.0000030303059888
 11
-0.0000592046549331
 21
0.0000030303059888
  0
LINE
  8
_0-1__U_30EC_U_30A4_U_30E4_U_30FC_1
  6
CONTINUOUS
 62
    7
 10
-0.0000592046549331
 20
0.0000030303059888
 11
-0.0000592046549331
 21
0.0000026024251295
  0
LINE
  8
_0-1__U_30EC_U_30A4_U_30E4_U_30FC_1
  6
CONTINUOUS
 62
    7
 10
-0.0000592046549331
 20
0.0000026024251295
 11
-0.0000595767252455
 21
0.0000026024251295
  0
LINE
  8
_0-1__U_30EC_U_30A4_U_30E4_U_30FC_1
  6
CONTINUOUS
 62
    7
 10
-0.0000595767252455
 20
0
 11
-0.0000595767252455
 21
0.0000021952148432
  0
LINE
  8
_0-1__U_30EC_U_30A4_U_30E4_U_30FC_1
  6
CONTINUOUS
 62
    7
 10
-0.0000595767252455
 20
0.0000021952148432
 11
-0.0000592046549331
 21
0.0000021952148432
  0
LINE
  8
_0-1__U_30EC_U_30A4_U_30E4_U_30FC_1
  6
CONTINUOUS
 62
    7
 10
-0.0000592046549331
 20
0.0000021952148432
 11
-0.0000592046549331
 21
0
  0
LINE
  8
_0-1__U_30EC_U_30A4_U_30E4_U_30FC_1
  6
CONTINUOUS
 62
    7
 10
-0.0000592046549331
 20
0
 11
-0.0000595767252455
 21
0
  0
LINE
  8
_0-1__U_30EC_U_30A4_U_30E4_U_30FC_1
  6
CONTINUOUS
 62
    7
 10
-0.0000269957682224
 20
0
 11
-0.0000269957682224
 21
0.0000026727050774
  0
LINE
  8
_0-1__U_30EC_U_30A4_U_30E4_U_30FC_1
  6
CONTINUOUS
 62
    7
 10
-0.0000269957682224
 20
0.0000026727050774
 11
-0.000027994156894
 21
0.0000026727050774
  0
LINE
  8
_0-1__U_30EC_U_30A4_U_30E4_U_30FC_1
  6
CONTINUOUS
 62
    7
 10
-0.000027994156894
 20
0.0000026727050774
 11
-0.000027994156894
 21
0.0000030303059888
  0
LINE
  8
_0-1__U_30EC_U_30A4_U_30E4_U_30FC_1
  6
CONTINUOUS
 62
    7
 10
-0.000027994156894
 20
0.0000030303059888
 11
-0.0000255922363217
 21
0.0000030303059888
  0
LINE
  8
_0-1__U_30EC_U_30A4_U_30E4_U_30FC_1
  6
CONTINUOUS
 62
    7
 10
-0.0000255922363217
 20
0.0000030303059888
 11
-0.0000255922363217
 21
0.0000026727050774
  0
LINE
  8
_0-1__U_30EC_U_30A4_U_30E4_U_30FC_1
  6
CONTINUOUS
 62
    7
 10
-0.0000255922363217
 20
0.0000026727050774
 11
-0.0000265947591079
 21
0.0000026727050774
  0
LINE
  8
_0-1__U_30EC_U_30A4_U_30E4_U_30FC_1
  6
CONTINUOUS
 62
    7
 10
-0.0000265947591079
 20
0.0000026727050774
 11
-0.0000265947591079
 21
0
  0
LINE
  8
_0-1__U_30EC_U_30A4_U_30E4_U_30FC_1
  6
CONTINUOUS
 62
    7
 10
-0.0000265947591079
 20
0
 11
-0.0000269957682224
 21
0
  0
LINE
  8
_0-1__U_30EC_U_30A4_U_30E4_U_30FC_1
  6
CONTINUOUS
 62
    7
 10
-0.0000251726236916
 20
0
 11
-0.0000251726236916
 21
0.0000030303059888
  0
LINE
  8
_0-1__U_30EC_U_30A4_U_30E4_U_30FC_1
  6
CONTINUOUS
 62
    7
 10
-0.0000251726236916
 20
0.0000030303059888
 11
-0.000022981542963
 21
0.0000030303059888
  0
LINE
  8
_0-1__U_30EC_U_30A4_U_30E4_U_30FC_1
  6
CONTINUOUS
 62
    7
 10
-0.000022981542963
 20
0.0000030303059888
 11
-0.000022981542963
 21
0.0000026727050774
  0
LINE
  8
_0-1__U_30EC_U_30A4_U_30E4_U_30FC_1
  6
CONTINUOUS
 62
    7
 10
-0.000022981542963
 20
0.0000026727050774
 11
-0.0000247716145771
 21
0.0000026727050774
  0
LINE
  8
_0-1__U_30EC_U_30A4_U_30E4_U_30FC_1
  6
CONTINUOUS
 62
    7
 10
-0.0000247716145771
 20
0.0000026727050774
 11
-0.0000247716145771
 21
0.0000017445963537
  0
LINE
  8
_0-1__U_30EC_U_30A4_U_30E4_U_30FC_1
  6
CONTINUOUS
 62
    7
 10
-0.0000247716145771
 20
0.0000017445963537
 11
-0.000023095231114
 21
0.0000017445963537
  0
LINE
  8
_0-1__U_30EC_U_30A4_U_30E4_U_30FC_1
  6
CONTINUOUS
 62
    7
 10
-0.000023095231114
 20
0.0000017445963537
 11
-0.000023095231114
 21
0.0000013890624996
  0
LINE
  8
_0-1__U_30EC_U_30A4_U_30E4_U_30FC_1
  6
CONTINUOUS
 62
    7
 10
-0.000023095231114
 20
0.0000013890624996
 11
-0.0000247716145771
 21
0.0000013890624996
  0
LINE
  8
_0-1__U_30EC_U_30A4_U_30E4_U_30FC_1
  6
CONTINUOUS
 62
    7
 10
-0.0000247716145771
 20
0.0000013890624996
 11
-0.0000247716145771
 21
0.0000003576009113
  0
LINE
  8
_0-1__U_30EC_U_30A4_U_30E4_U_30FC_1
  6
CONTINUOUS
 62
    7
 10
-0.0000247716145771
 20
0.0000003576009113
 11
-0.0000229112630151
 21
0.0000003576009113
  0
LINE
  8
_0-1__U_30EC_U_30A4_U_30E4_U_30FC_1
  6
CONTINUOUS
 62
    7
 10
-0.0000229112630151
 20
0.0000003576009113
 11
-0.0000229112630151
 21
0
  0
LINE
  8
_0-1__U_30EC_U_30A4_U_30E4_U_30FC_1
  6
CONTINUOUS
 62
    7
 10
-0.0000229112630151
 20
0
 11
-0.0000251726236916
 21
0
  0
LINE
  8
_0-1__U_30EC_U_30A4_U_30E4_U_30FC_1
  6
CONTINUOUS
 62
    7
 10
-0.0000119496582001
 20
0
 11
-0.0000119496582001
 21
0.0000004237467446
  0
LINE
  8
_0-1__U_30EC_U_30A4_U_30E4_U_30FC_1
  6
CONTINUOUS
 62
    7
 10
-0.0000119496582001
 20
0.0000004237467446
 11
-0.0000115259114554
 21
0.0000004237467446
  0
LINE
  8
_0-1__U_30EC_U_30A4_U_30E4_U_30FC_1
  6
CONTINUOUS
 62
    7
 10
-0.0000115259114554
 20
0.0000004237467446
 11
-0.0000115259114554
 21
0
  0
LINE
  8
_0-1__U_30EC_U_30A4_U_30E4_U_30FC_1
  6
CONTINUOUS
 62
    7
 10
-0.0000115259114554
 20
0
 11
-0.0000119496582001
 21
0
  0
LINE
  8
_0-1__U_30EC_U_30A4_U_30E4_U_30FC_1
  6
CONTINUOUS
 62
    7
 10
-0.0000084956054666
 20
0
 11
-0.0000084956054666
 21
0.0000030303059888
  0
LINE
  8
_0-1__U_30EC_U_30A4_U_30E4_U_30FC_1
  6
CONTINUOUS
 62
    7
 10
-0.0000084956054666
 20
0.0000030303059888
 11
-0.0000080945963521
 21
0.0000030303059888
  0
LINE
  8
_0-1__U_30EC_U_30A4_U_30E4_U_30FC_1
  6
CONTINUOUS
 62
    7
 10
-0.0000080945963521
 20
0.0000030303059888
 11
-0.0000080945963521
 21
0.0000003576009113
  0
LINE
  8
_0-1__U_30EC_U_30A4_U_30E4_U_30FC_1
  6
CONTINUOUS
 62
    7
 10
-0.0000080945963521
 20
0.0000003576009113
 11
-0.0000066021809879
 21
0.0000003576009113
  0
LINE
  8
_0-1__U_30EC_U_30A4_U_30E4_U_30FC_1
  6
CONTINUOUS
 62
    7
 10
-0.0000066021809879
 20
0.0000003576009113
 11
-0.0000066021809879
 21
0
  0
LINE
  8
_0-1__U_30EC_U_30A4_U_30E4_U_30FC_1
  6
CONTINUOUS
 62
    7
 10
-0.0000066021809879
 20
0
 11
-0.0000084956054666
 21
0
  0
LINE
  8
_0-1__U_30EC_U_30A4_U_30E4_U_30FC_1
  6
CONTINUOUS
 62
    7
 10
-0.000005353678384
 20
0
 11
-0.000005353678384
 21
0.0000026727050774
  0
LINE
  8
_0-1__U_30EC_U_30A4_U_30E4_U_30FC_1
  6
CONTINUOUS
 62
    7
 10
-0.000005353678384
 20
0.0000026727050774
 11
-0.0000063520670557
 21
0.0000026727050774
  0
LINE
  8
_0-1__U_30EC_U_30A4_U_30E4_U_30FC_1
  6
CONTINUOUS
 62
    7
 10
-0.0000063520670557
 20
0.0000026727050774
 11
-0.0000063520670557
 21
0.0000030303059888
  0
LINE
  8
_0-1__U_30EC_U_30A4_U_30E4_U_30FC_1
  6
CONTINUOUS
 62
    7
 10
-0.0000063520670557
 20
0.0000030303059888
 11
-0.0000039501464833
 21
0.0000030303059888
  0
LINE
  8
_0-1__U_30EC_U_30A4_U_30E4_U_30FC_1
  6
CONTINUOUS
 62
    7
 10
-0.0000039501464833
 20
0.0000030303059888
 11
-0.0000039501464833
 21
0.0000026727050774
  0
LINE
  8
_0-1__U_30EC_U_30A4_U_30E4_U_30FC_1
  6
CONTINUOUS
 62
    7
 10
-0.0000039501464833
 20
0.0000026727050774
 11
-0.0000049526692695
 21
0.0000026727050774
  0
LINE
  8
_0-1__U_30EC_U_30A4_U_30E4_U_30FC_1
  6
CONTINUOUS
 62
    7
 10
-0.0000049526692695
 20
0.0000026727050774
 11
-0.0000049526692695
 21
0
  0
LINE
  8
_0-1__U_30EC_U_30A4_U_30E4_U_30FC_1
  6
CONTINUOUS
 62
    7
 10
-0.0000049526692695
 20
0
 11
-0.000005353678384
 21
0
  0
LINE
  8
_0-1__U_30EC_U_30A4_U_30E4_U_30FC_1
  6
CONTINUOUS
 62
    7
 10
-0.0000004237467446
 20
0
 11
-0.0000004237467446
 21
0.0000004237467446
  0
LINE
  8
_0-1__U_30EC_U_30A4_U_30E4_U_30FC_1
  6
CONTINUOUS
 62
    7
 10
-0.0000004237467446
 20
0.0000004237467446
 11
0
 21
0.0000004237467446
  0
LINE
  8
_0-1__U_30EC_U_30A4_U_30E4_U_30FC_1
  6
CONTINUOUS
 62
    7
 10
0
 20
0.0000004237467446
 11
0
 21
0
  0
LINE
  8
_0-1__U_30EC_U_30A4_U_30E4_U_30FC_1
  6
CONTINUOUS
 62
    7
 10
0
 20
0
 11
-0.0000004237467446
 21
0
  0
ENDBLK
  0
BLOCK
  2
-012-block_14
 70
   64
 10
0
 20
0
 30
0
  0
LINE
  8
_0-1__U_30EC_U_30A4_U_30E4_U_30FC_1
  6
CONTINUOUS
 62
    7
 10
-0.0000538166978489
 20
-0.0000022134738492
 11
-0.0000538166978489
 21
0.0000008168321395
  0
LINE
  8
_0-1__U_30EC_U_30A4_U_30E4_U_30FC_1
  6
CONTINUOUS
 62
    7
 10
-0.0000538166978489
 20
0.0000008168321395
 11
-0.0000516256171203
 21
0.0000008168321395
  0
LINE
  8
_0-1__U_30EC_U_30A4_U_30E4_U_30FC_1
  6
CONTINUOUS
 62
    7
 10
-0.0000516256171203
 20
0.0000008168321395
 11
-0.0000516256171203
 21
0.0000004592312281
  0
LINE
  8
_0-1__U_30EC_U_30A4_U_30E4_U_30FC_1
  6
CONTINUOUS
 62
    7
 10
-0.0000516256171203
 20
0.0000004592312281
 11
-0.0000534156887344
 21
0.0000004592312281
  0
LINE
  8
_0-1__U_30EC_U_30A4_U_30E4_U_30FC_1
  6
CONTINUOUS
 62
    7
 10
-0.0000534156887344
 20
0.0000004592312281
 11
-0.0000534156887344
 21
-0.0000004688774955
  0
LINE
  8
_0-1__U_30EC_U_30A4_U_30E4_U_30FC_1
  6
CONTINUOUS
 62
    7
 10
-0.0000534156887344
 20
-0.0000004688774955
 11
-0.0000517393052713
 21
-0.0000004688774955
  0
LINE
  8
_0-1__U_30EC_U_30A4_U_30E4_U_30FC_1
  6
CONTINUOUS
 62
    7
 10
-0.0000517393052713
 20
-0.0000004688774955
 11
-0.0000517393052713
 21
-0.0000008244113496
  0
LINE
  8
_0-1__U_30EC_U_30A4_U_30E4_U_30FC_1
  6
CONTINUOUS
 62
    7
 10
-0.0000517393052713
 20
-0.0000008244113496
 11
-0.0000534156887344
 21
-0.0000008244113496
  0
LINE
  8
_0-1__U_30EC_U_30A4_U_30E4_U_30FC_1
  6
CONTINUOUS
 62
    7
 10
-0.0000534156887344
 20
-0.0000008244113496
 11
-0.0000534156887344
 21
-0.0000018558729379
  0
LINE
  8
_0-1__U_30EC_U_30A4_U_30E4_U_30FC_1
  6
CONTINUOUS
 62
    7
 10
-0.0000534156887344
 20
-0.0000018558729379
 11
-0.0000515553371724
 21
-0.0000018558729379
  0
LINE
  8
_0-1__U_30EC_U_30A4_U_30E4_U_30FC_1
  6
CONTINUOUS
 62
    7
 10
-0.0000515553371724
 20
-0.0000018558729379
 11
-0.0000515553371724
 21
-0.0000022134738492
  0
LINE
  8
_0-1__U_30EC_U_30A4_U_30E4_U_30FC_1
  6
CONTINUOUS
 62
    7
 10
-0.0000515553371724
 20
-0.0000022134738492
 11
-0.0000538166978489
 21
-0.0000022134738492
  0
LINE
  8
_0-1__U_30EC_U_30A4_U_30E4_U_30FC_1
  6
CONTINUOUS
 62
    7
 10
-0.0000510179022767
 20
-0.0000022134738492
 11
-0.0000510179022767
 21
0.0000008168321395
  0
LINE
  8
_0-1__U_30EC_U_30A4_U_30E4_U_30FC_1
  6
CONTINUOUS
 62
    7
 10
-0.0000510179022767
 20
0.0000008168321395
 11
-0.0000506168931622
 21
0.0000008168321395
  0
LINE
  8
_0-1__U_30EC_U_30A4_U_30E4_U_30FC_1
  6
CONTINUOUS
 62
    7
 10
-0.0000506168931622
 20
0.0000008168321395
 11
-0.0000506168931622
 21
-0.0000018558729379
  0
LINE
  8
_0-1__U_30EC_U_30A4_U_30E4_U_30FC_1
  6
CONTINUOUS
 62
    7
 10
-0.0000506168931622
 20
-0.0000018558729379
 11
-0.000049124477798
 21
-0.0000018558729379
  0
LINE
  8
_0-1__U_30EC_U_30A4_U_30E4_U_30FC_1
  6
CONTINUOUS
 62
    7
 10
-0.000049124477798
 20
-0.0000018558729379
 11
-0.000049124477798
 21
-0.0000022134738492
  0
LINE
  8
_0-1__U_30EC_U_30A4_U_30E4_U_30FC_1
  6
CONTINUOUS
 62
    7
 10
-0.000049124477798
 20
-0.0000022134738492
 11
-0.0000510179022767
 21
-0.0000022134738492
  0
LINE
  8
_0-1__U_30EC_U_30A4_U_30E4_U_30FC_1
  6
CONTINUOUS
 62
    7
 10
-0.0000414133205734
 20
-0.0000023058024082
 11
-0.0000417645480581
 21
-0.0000023058024082
  0
LINE
  8
_0-1__U_30EC_U_30A4_U_30E4_U_30FC_1
  6
CONTINUOUS
 62
    7
 10
-0.0000417645480581
 20
-0.0000023058024082
 11
-0.0000417645480581
 21
0.0000010790039059
  0
LINE
  8
_0-1__U_30EC_U_30A4_U_30E4_U_30FC_1
  6
CONTINUOUS
 62
    7
 10
-0.0000417645480581
 20
0.0000010790039059
 11
-0.0000414133205734
 21
0.0000010790039059
  0
LINE
  8
_0-1__U_30EC_U_30A4_U_30E4_U_30FC_1
  6
CONTINUOUS
 62
    7
 10
-0.0000414133205734
 20
0.0000010790039059
 11
-0.0000414133205734
 21
-0.0000023058024082
  0
LINE
  8
_0-1__U_30EC_U_30A4_U_30E4_U_30FC_1
  6
CONTINUOUS
 62
    7
 10
-0.0000277481770763
 20
-0.0000023058024082
 11
-0.0000280994045611
 21
-0.0000023058024082
  0
LINE
  8
_0-1__U_30EC_U_30A4_U_30E4_U_30FC_1
  6
CONTINUOUS
 62
    7
 10
-0.0000280994045611
 20
-0.0000023058024082
 11
-0.0000280994045611
 21
0
  0
LINE
  8
_0-1__U_30EC_U_30A4_U_30E4_U_30FC_1
  6
CONTINUOUS
 62
    7
 10
-0.0000280994045611
 20
0
 11
-0.0000277481770763
 21
0
  0
LINE
  8
_0-1__U_30EC_U_30A4_U_30E4_U_30FC_1
  6
CONTINUOUS
 62
    7
 10
-0.0000277481770763
 20
0
 11
-0.0000277481770763
 21
-0.0000023058024082
  0
LINE
  8
_0-1__U_30EC_U_30A4_U_30E4_U_30FC_1
  6
CONTINUOUS
 62
    7
 10
-0.0000125255059104
 20
-0.0000023058024082
 11
-0.0000128767333952
 21
-0.0000023058024082
  0
LINE
  8
_0-1__U_30EC_U_30A4_U_30E4_U_30FC_1
  6
CONTINUOUS
 62
    7
 10
-0.0000128767333952
 20
-0.0000023058024082
 11
-0.0000128767333952
 21
0.0000010790039059
  0
LINE
  8
_0-1__U_30EC_U_30A4_U_30E4_U_30FC_1
  6
CONTINUOUS
 62
    7
 10
-0.0000128767333952
 20
0.0000010790039059
 11
-0.0000125255059104
 21
0.0000010790039059
  0
LINE
  8
_0-1__U_30EC_U_30A4_U_30E4_U_30FC_1
  6
CONTINUOUS
 62
    7
 10
-0.0000125255059104
 20
0.0000010790039059
 11
-0.0000125255059104
 21
-0.0000023058024082
  0
LINE
  8
_0-1__U_30EC_U_30A4_U_30E4_U_30FC_1
  6
CONTINUOUS
 62
    7
 10
-0.0000082496256489
 20
-0.0000008798773869
 11
-0.0000070944851327
 21
-0.0000008798773869
  0
LINE
  8
_0-1__U_30EC_U_30A4_U_30E4_U_30FC_1
  6
CONTINUOUS
 62
    7
 10
-0.0000070944851327
 20
-0.0000008798773869
 11
-0.0000070944851327
 21
-0.000001150661892
  0
LINE
  8
_0-1__U_30EC_U_30A4_U_30E4_U_30FC_1
  6
CONTINUOUS
 62
    7
 10
-0.0000070944851327
 20
-0.000001150661892
 11
-0.0000082496256489
 21
-0.000001150661892
  0
LINE
  8
_0-1__U_30EC_U_30A4_U_30E4_U_30FC_1
  6
CONTINUOUS
 62
    7
 10
-0.0000082496256489
 20
-0.000001150661892
 11
-0.0000082496256489
 21
-0.0000008798773869
  0
ENDBLK
  0
BLOCK
  2
-013-block_15
 70
   64
 10
0
 20
0
 30
0
  0
LINE
  8
_0-1__U_30EC_U_30A4_U_30E4_U_30FC_1
  6
CONTINUOUS
 62
    7
 10
-0.0000079933105448
 20
0.0000026024251295
 11
-0.0000079933105448
 21
0.0000030303059888
  0
LINE
  8
_0-1__U_30EC_U_30A4_U_30E4_U_30FC_1
  6
CONTINUOUS
 62
    7
 10
-0.0000079933105448
 20
0.0000030303059888
 11
-0.0000076212402324
 21
0.0000030303059888
  0
LINE
  8
_0-1__U_30EC_U_30A4_U_30E4_U_30FC_1
  6
CONTINUOUS
 62
    7
 10
-0.0000076212402324
 20
0.0000030303059888
 11
-0.0000076212402324
 21
0.0000026024251295
  0
LINE
  8
_0-1__U_30EC_U_30A4_U_30E4_U_30FC_1
  6
CONTINUOUS
 62
    7
 10
-0.0000076212402324
 20
0.0000026024251295
 11
-0.0000079933105448
 21
0.0000026024251295
  0
LINE
  8
_0-1__U_30EC_U_30A4_U_30E4_U_30FC_1
  6
CONTINUOUS
 62
    7
 10
-0.0000079933105448
 20
0
 11
-0.0000079933105448
 21
0.0000021952148432
  0
LINE
  8
_0-1__U_30EC_U_30A4_U_30E4_U_30FC_1
  6
CONTINUOUS
 62
    7
 10
-0.0000079933105448
 20
0.0000021952148432
 11
-0.0000076212402324
 21
0.0000021952148432
  0
LINE
  8
_0-1__U_30EC_U_30A4_U_30E4_U_30FC_1
  6
CONTINUOUS
 62
    7
 10
-0.0000076212402324
 20
0.0000021952148432
 11
-0.0000076212402324
 21
0
  0
LINE
  8
_0-1__U_30EC_U_30A4_U_30E4_U_30FC_1
  6
CONTINUOUS
 62
    7
 10
-0.0000076212402324
 20
0
 11
-0.0000079933105448
 21
0
  0
LINE
  8
_0-1__U_30EC_U_30A4_U_30E4_U_30FC_1
  6
CONTINUOUS
 62
    7
 10
-0.0000057753580714
 20
0.0000017714680985
 11
-0.0000057753580714
 21
0.0000021952148432
  0
LINE
  8
_0-1__U_30EC_U_30A4_U_30E4_U_30FC_1
  6
CONTINUOUS
 62
    7
 10
-0.0000057753580714
 20
0.0000021952148432
 11
-0.0000053516113267
 21
0.0000021952148432
  0
LINE
  8
_0-1__U_30EC_U_30A4_U_30E4_U_30FC_1
  6
CONTINUOUS
 62
    7
 10
-0.0000053516113267
 20
0.0000021952148432
 11
-0.0000053516113267
 21
0.0000017714680985
  0
LINE
  8
_0-1__U_30EC_U_30A4_U_30E4_U_30FC_1
  6
CONTINUOUS
 62
    7
 10
-0.0000053516113267
 20
0.0000017714680985
 11
-0.0000057753580714
 21
0.0000017714680985
  0
LINE
  8
_0-1__U_30EC_U_30A4_U_30E4_U_30FC_1
  6
CONTINUOUS
 62
    7
 10
-0.0000057753580714
 20
0
 11
-0.0000057753580714
 21
0.0000004237467446
  0
LINE
  8
_0-1__U_30EC_U_30A4_U_30E4_U_30FC_1
  6
CONTINUOUS
 62
    7
 10
-0.0000057753580714
 20
0.0000004237467446
 11
-0.0000053516113267
 21
0.0000004237467446
  0
LINE
  8
_0-1__U_30EC_U_30A4_U_30E4_U_30FC_1
  6
CONTINUOUS
 62
    7
 10
-0.0000053516113267
 20
0.0000004237467446
 11
-0.0000053516113267
 21
0
  0
LINE
  8
_0-1__U_30EC_U_30A4_U_30E4_U_30FC_1
  6
CONTINUOUS
 62
    7
 10
-0.0000053516113267
 20
0
 11
-0.0000057753580714
 21
0
  0
ENDBLK
  0
ENDSEC
  0
SECTION
  2
ENTITIES
  0
LINE
  8
_0-1__U_30EC_U_30A4_U_30E4_U_30FC_1
  6
CONTINUOUS
 62
    7
 10
444.99960931625009
 20
-39.499894158729205
 11
429.99966357347228
 21
-39.499894158729205
  0
LINE
  8
_0-1__U_30EC_U_30A4_U_30E4_U_30FC_1
  6
CONTINUOUS
 62
    7
 10
429.99966357347228
 20
48.500074623524284
 11
429.99966357347228
 21
-39.499894158729205
  0
INSERT
  2
-000-block_2
  8
_0-1__U_30EC_U_30A4_U_30E4_U_30FC_1
 10
210
 20
148.5
 41
1000000
 42
1000000
 50
0
  0
LINE
  8
_0-1__U_30EC_U_30A4_U_30E4_U_30FC_1
  6
CONTINUOUS
 62
    7
 10
444.99960931625009
 20
48.500074623524284
 11
429.99966357347228
 21
48.500074623524284
  0
LINE
  8
_0-1__U_30EC_U_30A4_U_30E4_U_30FC_1
  6
CONTINUOUS
 62
    7
 10
517.38244349954334
 20
47.423654539158008
 11
450.62062710998367
 21
47.423654539158008
  0
LINE
  8
_0-1__U_30EC_U_30A4_U_30E4_U_30FC_1
  6
CONTINUOUS
 62
    7
 10
441.07736810629319
 20
37.882118083210003
 11
441.07736810629319
 21
-28.878320268155392
  0
LINE
  8
_0-1__U_30EC_U_30A4_U_30E4_U_30FC_1
  6
CONTINUOUS
 62
    7
 10
450.62062710998367
 20
-38.42295731004009
 11
517.38244349954334
 21
-38.42295731004009
  0
LINE
  8
_0-1__U_30EC_U_30A4_U_30E4_U_30FC_1
  6
CONTINUOUS
 62
    7
 10
526.92329093639421
 20
-28.852482052016114
 11
526.92329093639421
 21
37.906750515929602
  0
LINE
  8
_0-1__U_30EC_U_30A4_U_30E4_U_30FC_1
  6
CONTINUOUS
 62
    7
 10
517.37830938496109
 20
-39.499894158729205
 11
450.62062710998367
 21
-39.499894158729205
  0
LINE
  8
_0-1__U_30EC_U_30A4_U_30E4_U_30FC_1
  6
CONTINUOUS
 62
    7
 10
439.999742238507
 20
-28.873497134476111
 11
439.999742238507
 21
37.882118083210003
  0
LINE
  8
_0-1__U_30EC_U_30A4_U_30E4_U_30FC_1
  6
CONTINUOUS
 62
    7
 10
527.99988327553478
 20
-28.873497134476111
 11
527.99988327553478
 21
37.882118083210003
  0
LINE
  8
_0-1__U_30EC_U_30A4_U_30E4_U_30FC_1
  6
CONTINUOUS
 62
    7
 10
450.62062710998367
 20
48.500074623524284
 11
517.37830938496109
 21
48.500074623524284
  0
LINE
  8
_0-1__U_30EC_U_30A4_U_30E4_U_30FC_1
  6
CONTINUOUS
 62
    7
 10
441.07736810629319
 20
37.884357395275401
 11
441.27132698211267
 21
39.807065185593387
  0
LINE
  8
_0-1__U_30EC_U_30A4_U_30E4_U_30FC_1
  6
CONTINUOUS
 62
    7
 10
441.27132698211267
 20
39.807065185593387
 11
441.82736539343199
 21
41.597653564051996
  0
LINE
  8
_0-1__U_30EC_U_30A4_U_30E4_U_30FC_1
  6
CONTINUOUS
 62
    7
 10
441.82736539343199
 20
41.597653564051996
 11
442.70724278036488
 21
43.218054225539206
  0
LINE
  8
_0-1__U_30EC_U_30A4_U_30E4_U_30FC_1
  6
CONTINUOUS
 62
    7
 10
442.70724278036488
 20
43.218054225539206
 11
443.87237407347641
 21
44.629854355394585
  0
LINE
  8
_0-1__U_30EC_U_30A4_U_30E4_U_30FC_1
  6
CONTINUOUS
 62
    7
 10
443.87237407347641
 20
44.629854355394585
 11
445.28486322242884
 21
45.794641138957587
  0
LINE
  8
_0-1__U_30EC_U_30A4_U_30E4_U_30FC_1
  6
CONTINUOUS
 62
    7
 10
445.28486322242884
 20
45.794641138957587
 11
446.90578064823876
 21
46.674001761567595
  0
LINE
  8
_0-1__U_30EC_U_30A4_U_30E4_U_30FC_1
  6
CONTINUOUS
 62
    7
 10
446.90578064823876
 20
46.674001761567595
 11
448.69723030056866
 21
47.229867918112703
  0
LINE
  8
_0-1__U_30EC_U_30A4_U_30E4_U_30FC_1
  6
CONTINUOUS
 62
    7
 10
448.69723030056866
 20
47.229867918112703
 11
450.62062710998367
 21
47.423654539158008
  0
LINE
  8
_0-1__U_30EC_U_30A4_U_30E4_U_30FC_1
  6
CONTINUOUS
 62
    7
 10
439.999742238507
 20
37.882118083210003
 11
440.2157497254322
 21
40.021866889098703
  0
LINE
  8
_0-1__U_30EC_U_30A4_U_30E4_U_30FC_1
  6
CONTINUOUS
 62
    7
 10
440.2157497254322
 20
40.021866889098703
 11
440.83448887458309
 21
42.015026882089984
  0
LINE
  8
_0-1__U_30EC_U_30A4_U_30E4_U_30FC_1
  6
CONTINUOUS
 62
    7
 10
440.83448887458309
 20
42.015026882089984
 11
441.81427403058808
 21
43.818534368618302
  0
LINE
  8
_0-1__U_30EC_U_30A4_U_30E4_U_30FC_1
  6
CONTINUOUS
 62
    7
 10
441.81427403058808
 20
43.818534368618302
 11
443.11135248078472
 21
45.390014674214996
  0
LINE
  8
_0-1__U_30EC_U_30A4_U_30E4_U_30FC_1
  6
CONTINUOUS
 62
    7
 10
443.11135248078472
 20
45.390014674214996
 11
444.68334955070418
 21
46.686576360088793
  0
LINE
  8
_0-1__U_30EC_U_30A4_U_30E4_U_30FC_1
  6
CONTINUOUS
 62
    7
 10
444.68334955070418
 20
46.686576360088793
 11
446.48754605632951
 21
47.665672496996805
  0
LINE
  8
_0-1__U_30EC_U_30A4_U_30E4_U_30FC_1
  6
CONTINUOUS
 62
    7
 10
446.48754605632951
 20
47.665672496996805
 11
448.48087830409509
 21
48.284411646147589
  0
LINE
  8
_0-1__U_30EC_U_30A4_U_30E4_U_30FC_1
  6
CONTINUOUS
 62
    7
 10
448.48087830409509
 20
48.284411646147589
 11
450.62062710998367
 21
48.500074623524284
  0
LINE
  8
_0-1__U_30EC_U_30A4_U_30E4_U_30FC_1
  6
CONTINUOUS
 62
    7
 10
441.07736810629319
 20
-28.904502993843266
 11
441.2706379630157
 21
-30.823421179127507
  0
LINE
  8
_0-1__U_30EC_U_30A4_U_30E4_U_30FC_1
  6
CONTINUOUS
 62
    7
 10
441.2706379630157
 20
-30.823421179127507
 11
441.8256428456894
 21
-32.610392207326612
  0
LINE
  8
_0-1__U_30EC_U_30A4_U_30E4_U_30FC_1
  6
CONTINUOUS
 62
    7
 10
441.8256428456894
 20
-32.610392207326612
 11
442.70310866578257
 21
-34.227520028102788
  0
LINE
  8
_0-1__U_30EC_U_30A4_U_30E4_U_30FC_1
  6
CONTINUOUS
 62
    7
 10
442.70310866578257
 20
-34.227520028102788
 11
443.86582839205437
 21
-35.635875062472991
  0
LINE
  8
_0-1__U_30EC_U_30A4_U_30E4_U_30FC_1
  6
CONTINUOUS
 62
    7
 10
443.86582839205437
 20
-35.635875062472991
 11
445.27487244552162
 21
-36.797905769647713
  0
LINE
  8
_0-1__U_30EC_U_30A4_U_30E4_U_30FC_1
  6
CONTINUOUS
 62
    7
 10
445.27487244552162
 20
-36.797905769647713
 11
446.89200026629794
 21
-37.675371589740905
  0
LINE
  8
_0-1__U_30EC_U_30A4_U_30E4_U_30FC_1
  6
CONTINUOUS
 62
    7
 10
446.89200026629794
 20
-37.675371589740905
 11
448.67931580404553
 21
-38.229687453317609
  0
LINE
  8
_0-1__U_30EC_U_30A4_U_30E4_U_30FC_1
  6
CONTINUOUS
 62
    7
 10
448.67931580404553
 20
-38.229687453317609
 11
450.59788947978109
 21
-38.42295731004009
  0
LINE
  8
_0-1__U_30EC_U_30A4_U_30E4_U_30FC_1
  6
CONTINUOUS
 62
    7
 10
439.999742238507
 20
-28.878320268155392
 11
440.2157497254322
 21
-31.018758093141116
  0
LINE
  8
_0-1__U_30EC_U_30A4_U_30E4_U_30FC_1
  6
CONTINUOUS
 62
    7
 10
440.2157497254322
 20
-31.018758093141116
 11
440.83448887458309
 21
-33.012434850455179
  0
LINE
  8
_0-1__U_30EC_U_30A4_U_30E4_U_30FC_1
  6
CONTINUOUS
 62
    7
 10
440.83448887458309
 20
-33.012434850455179
 11
441.81427403058808
 21
-34.816631356080563
  0
LINE
  8
_0-1__U_30EC_U_30A4_U_30E4_U_30FC_1
  6
CONTINUOUS
 62
    7
 10
441.81427403058808
 20
-34.816631356080563
 11
443.11135248078472
 21
-36.38862842600011
  0
LINE
  8
_0-1__U_30EC_U_30A4_U_30E4_U_30FC_1
  6
CONTINUOUS
 62
    7
 10
443.11135248078472
 20
-36.38862842600011
 11
444.68334955070418
 21
-37.685706876196633
  0
LINE
  8
_0-1__U_30EC_U_30A4_U_30E4_U_30FC_1
  6
CONTINUOUS
 62
    7
 10
444.68334955070418
 20
-37.685706876196633
 11
446.48754605632951
 21
-38.665147522653228
  0
LINE
  8
_0-1__U_30EC_U_30A4_U_30E4_U_30FC_1
  6
CONTINUOUS
 62
    7
 10
446.48754605632951
 20
-38.665147522653228
 11
448.48087830409509
 21
-39.283886671803998
  0
LINE
  8
_0-1__U_30EC_U_30A4_U_30E4_U_30FC_1
  6
CONTINUOUS
 62
    7
 10
448.48087830409509
 20
-39.283886671803998
 11
450.62062710998367
 21
-39.499894158729205
  0
LINE
  8
_0-1__U_30EC_U_30A4_U_30E4_U_30FC_1
  6
CONTINUOUS
 62
    7
 10
526.92329093639421
 20
-28.881765363640739
 11
526.72933206057462
 21
-30.805506682604204
  0
LINE
  8
_0-1__U_30EC_U_30A4_U_30E4_U_30FC_1
  6
CONTINUOUS
 62
    7
 10
526.72933206057462
 20
-30.805506682604204
 11
526.17363815880378
 21
-32.596611825385594
  0
LINE
  8
_0-1__U_30EC_U_30A4_U_30E4_U_30FC_1
  6
CONTINUOUS
 62
    7
 10
526.17363815880378
 20
-32.596611825385594
 11
525.29376077187101
 21
-34.2175292511956
  0
LINE
  8
_0-1__U_30EC_U_30A4_U_30E4_U_30FC_1
  6
CONTINUOUS
 62
    7
 10
525.29376077187101
 20
-34.2175292511956
 11
524.12862947875942
 21
-35.629329381051008
  0
LINE
  8
_0-1__U_30EC_U_30A4_U_30E4_U_30FC_1
  6
CONTINUOUS
 62
    7
 10
524.12862947875942
 20
-35.629329381051008
 11
522.71648483935564
 21
-36.794116164613996
  0
LINE
  8
_0-1__U_30EC_U_30A4_U_30E4_U_30FC_1
  6
CONTINUOUS
 62
    7
 10
522.71648483935564
 20
-36.794116164613996
 11
521.09591192309415
 21
-37.673649041998289
  0
LINE
  8
_0-1__U_30EC_U_30A4_U_30E4_U_30FC_1
  6
CONTINUOUS
 62
    7
 10
521.09591192309415
 20
-37.673649041998289
 11
519.30515128986121
 21
-38.228998434220472
  0
LINE
  8
_0-1__U_30EC_U_30A4_U_30E4_U_30FC_1
  6
CONTINUOUS
 62
    7
 10
519.30515128986121
 20
-38.228998434220472
 11
517.38244349954334
 21
-38.42295731004009
  0
LINE
  8
_0-1__U_30EC_U_30A4_U_30E4_U_30FC_1
  6
CONTINUOUS
 62
    7
 10
527.99988327553478
 20
-28.875908701315808
 11
527.78422029815806
 21
-31.016346526301504
  0
LINE
  8
_0-1__U_30EC_U_30A4_U_30E4_U_30FC_1
  6
CONTINUOUS
 62
    7
 10
527.78422029815806
 20
-31.016346526301504
 11
527.16548114900729
 21
-33.009678774066998
  0
LINE
  8
_0-1__U_30EC_U_30A4_U_30E4_U_30FC_1
  6
CONTINUOUS
 62
    7
 10
527.16548114900729
 20
-33.009678774066998
 11
526.18638501209932
 21
-34.813875279692411
  0
LINE
  8
_0-1__U_30EC_U_30A4_U_30E4_U_30FC_1
  6
CONTINUOUS
 62
    7
 10
526.18638501209932
 20
-34.813875279692411
 11
524.88930656190269
 21
-36.385872349611901
  0
LINE
  8
_0-1__U_30EC_U_30A4_U_30E4_U_30FC_1
  6
CONTINUOUS
 62
    7
 10
524.88930656190269
 20
-36.385872349611901
 11
523.31765400153176
 21
-37.682950799808395
  0
LINE
  8
_0-1__U_30EC_U_30A4_U_30E4_U_30FC_1
  6
CONTINUOUS
 62
    7
 10
523.31765400153176
 20
-37.682950799808395
 11
521.51345749590632
 21
-38.662046936716479
  0
LINE
  8
_0-1__U_30EC_U_30A4_U_30E4_U_30FC_1
  6
CONTINUOUS
 62
    7
 10
521.51345749590632
 20
-38.662046936716479
 11
519.51943622904378
 21
-39.281130595415789
  0
LINE
  8
_0-1__U_30EC_U_30A4_U_30E4_U_30FC_1
  6
CONTINUOUS
 62
    7
 10
519.51943622904378
 20
-39.281130595415789
 11
517.37830938496109
 21
-39.496793572792484
  0
LINE
  8
_0-1__U_30EC_U_30A4_U_30E4_U_30FC_1
  6
CONTINUOUS
 62
    7
 10
526.92466897458826
 20
37.882118083210003
 11
526.73071009876867
 21
39.804998128302202
  0
LINE
  8
_0-1__U_30EC_U_30A4_U_30E4_U_30FC_1
  6
CONTINUOUS
 62
    7
 10
526.73071009876867
 20
39.804998128302202
 11
526.1746716874494
 21
41.596103271083607
  0
LINE
  8
_0-1__U_30EC_U_30A4_U_30E4_U_30FC_1
  6
CONTINUOUS
 62
    7
 10
526.1746716874494
 20
41.596103271083607
 11
525.29513881006505
 21
43.216848442119385
  0
LINE
  8
_0-1__U_30EC_U_30A4_U_30E4_U_30FC_1
  6
CONTINUOUS
 62
    7
 10
525.29513881006505
 20
43.216848442119385
 11
524.12966300740504
 21
44.628993081523305
  0
LINE
  8
_0-1__U_30EC_U_30A4_U_30E4_U_30FC_1
  6
CONTINUOUS
 62
    7
 10
524.12966300740504
 20
44.628993081523305
 11
522.71751836800127
 21
45.794124374634805
  0
LINE
  8
_0-1__U_30EC_U_30A4_U_30E4_U_30FC_1
  6
CONTINUOUS
 62
    7
 10
522.71751836800127
 20
45.794124374634805
 11
521.09660094219112
 21
46.673829506793297
  0
LINE
  8
_0-1__U_30EC_U_30A4_U_30E4_U_30FC_1
  6
CONTINUOUS
 62
    7
 10
521.09660094219112
 20
46.673829506793297
 11
519.30549579940975
 21
47.229867918112703
  0
LINE
  8
_0-1__U_30EC_U_30A4_U_30E4_U_30FC_1
  6
CONTINUOUS
 62
    7
 10
519.30549579940975
 20
47.229867918112703
 11
517.38244349954334
 21
47.423654539158008
  0
LINE
  8
_0-1__U_30EC_U_30A4_U_30E4_U_30FC_1
  6
CONTINUOUS
 62
    7
 10
527.99988327553478
 20
37.882118083210003
 11
527.78422029815806
 21
40.021866889098703
  0
LINE
  8
_0-1__U_30EC_U_30A4_U_30E4_U_30FC_1
  6
CONTINUOUS
 62
    7
 10
527.78422029815806
 20
40.021866889098703
 11
527.16548114900729
 21
42.015026882089984
  0
LINE
  8
_0-1__U_30EC_U_30A4_U_30E4_U_30FC_1
  6
CONTINUOUS
 62
    7
 10
527.16548114900729
 20
42.015026882089984
 11
526.18638501209932
 21
43.818534368618302
  0
LINE
  8
_0-1__U_30EC_U_30A4_U_30E4_U_30FC_1
  6
CONTINUOUS
 62
    7
 10
526.18638501209932
 20
43.818534368618302
 11
524.88930656190269
 21
45.390014674214996
  0
LINE
  8
_0-1__U_30EC_U_30A4_U_30E4_U_30FC_1
  6
CONTINUOUS
 62
    7
 10
524.88930656190269
 20
45.390014674214996
 11
523.31765400153176
 21
46.686576360088793
  0
LINE
  8
_0-1__U_30EC_U_30A4_U_30E4_U_30FC_1
  6
CONTINUOUS
 62
    7
 10
523.31765400153176
 20
46.686576360088793
 11
521.51345749590632
 21
47.665672496996805
  0
LINE
  8
_0-1__U_30EC_U_30A4_U_30E4_U_30FC_1
  6
CONTINUOUS
 62
    7
 10
521.51345749590632
 20
47.665672496996805
 11
519.51943622904378
 21
48.284411646147589
  0
LINE
  8
_0-1__U_30EC_U_30A4_U_30E4_U_30FC_1
  6
CONTINUOUS
 62
    7
 10
519.51943622904378
 20
48.284411646147589
 11
517.37830938496109
 21
48.500074623524284
  0
LINE
  8
_0-1__U_30EC_U_30A4_U_30E4_U_30FC_1
  6
CONTINUOUS
 62
    7
 10
439.999742238507
 20
-36.499905010173563
 11
439.999742238507
 21
-51.499850752951403
  0
LINE
  8
_0-1__U_30EC_U_30A4_U_30E4_U_30FC_1
  6
CONTINUOUS
 62
    7
 10
527.99988327553478
 20
-36.499905010173563
 11
527.99988327553478
 21
-51.499850752951403
  0
INSERT
  2
-002-block_3
  8
_0-1__U_30EC_U_30A4_U_30E4_U_30FC_1
 10
210
 20
148.5
 41
1000000
 42
1000000
 50
0
  0
LINE
  8
_0-1__U_30EC_U_30A4_U_30E4_U_30FC_1
  6
CONTINUOUS
 62
    7
 10
439.999742238507
 20
-51.499850752951403
 11
527.75286992924248
 21
-51.499850752951403
  0
LINE
  8
_0-1__U_30EC_U_30A4_U_30E4_U_30FC_1
  6
CONTINUOUS
 62
    7
 10
602.14660634727579
 20
28.420852352068408
 11
602.14936242366412
 21
28.255315514002106
  0
LINE
  8
_0-1__U_30EC_U_30A4_U_30E4_U_30FC_1
  6
CONTINUOUS
 62
    7
 10
602.14936242366412
 20
28.255315514002106
 11
602.15900869102279
 21
27.926653404709299
  0
LINE
  8
_0-1__U_30EC_U_30A4_U_30E4_U_30FC_1
  6
CONTINUOUS
 62
    7
 10
602.15900869102279
 20
27.926653404709299
 11
602.16589888199337
 21
27.439344648320699
  0
LINE
  8
_0-1__U_30EC_U_30A4_U_30E4_U_30FC_1
  6
CONTINUOUS
 62
    7
 10
602.16589888199337
 20
27.439344648320699
 11
602.17830122574014
 21
26.772029652827797
  0
LINE
  8
_0-1__U_30EC_U_30A4_U_30E4_U_30FC_1
  6
CONTINUOUS
 62
    7
 10
602.17830122574014
 20
26.772029652827797
 11
602.19070356948703
 21
25.941417131334106
  0
LINE
  8
_0-1__U_30EC_U_30A4_U_30E4_U_30FC_1
  6
CONTINUOUS
 62
    7
 10
602.19070356948703
 20
25.941417131334106
 11
602.1993163082002
 21
24.983508331660417
  0
LINE
  8
_0-1__U_30EC_U_30A4_U_30E4_U_30FC_1
  6
CONTINUOUS
 62
    7
 10
602.1993163082002
 20
24.983508331660417
 11
602.20896257555887
 21
23.880905521606195
  0
LINE
  8
_0-1__U_30EC_U_30A4_U_30E4_U_30FC_1
  6
CONTINUOUS
 62
    7
 10
602.20896257555887
 20
23.880905521606195
 11
602.21102963285011
 21
22.610182051871817
  0
LINE
  8
_0-1__U_30EC_U_30A4_U_30E4_U_30FC_1
  6
CONTINUOUS
 62
    7
 10
602.21102963285011
 20
22.610182051871817
 11
602.21309669014113
 21
21.209922991892014
  0
LINE
  8
_0-1__U_30EC_U_30A4_U_30E4_U_30FC_1
  6
CONTINUOUS
 62
    7
 10
602.21309669014113
 20
21.209922991892014
 11
602.21102963285011
 21
19.724397818652193
  0
LINE
  8
_0-1__U_30EC_U_30A4_U_30E4_U_30FC_1
  6
CONTINUOUS
 62
    7
 10
602.21102963285011
 20
19.724397818652193
 11
602.20413944187953
 21
18.136208799951987
  0
LINE
  8
_0-1__U_30EC_U_30A4_U_30E4_U_30FC_1
  6
CONTINUOUS
 62
    7
 10
602.20413944187953
 20
18.136208799951987
 11
602.19862728910311
 21
16.403153516097092
  0
LINE
  8
_0-1__U_30EC_U_30A4_U_30E4_U_30FC_1
  6
CONTINUOUS
 62
    7
 10
602.19862728910311
 20
16.403153516097092
 11
602.18519141671072
 21
14.585693392853614
  0
LINE
  8
_0-1__U_30EC_U_30A4_U_30E4_U_30FC_1
  6
CONTINUOUS
 62
    7
 10
602.18519141671072
 20
14.585693392853614
 11
602.17416711115789
 21
12.744117601213276
  0
LINE
  8
_0-1__U_30EC_U_30A4_U_30E4_U_30FC_1
  6
CONTINUOUS
 62
    7
 10
602.17416711115789
 20
12.744117601213276
 11
602.16520986289618
 21
10.845180969743609
  0
LINE
  8
_0-1__U_30EC_U_30A4_U_30E4_U_30FC_1
  6
CONTINUOUS
 62
    7
 10
602.16520986289618
 20
10.845180969743609
 11
602.15625261463458
 21
8.8440972571362124
  0
LINE
  8
_0-1__U_30EC_U_30A4_U_30E4_U_30FC_1
  6
CONTINUOUS
 62
    7
 10
602.15625261463458
 20
8.8440972571362124
 11
602.14936242366412
 21
6.8145915067754856
  0
LINE
  8
_0-1__U_30EC_U_30A4_U_30E4_U_30FC_1
  6
CONTINUOUS
 62
    7
 10
602.14936242366412
 20
6.8145915067754856
 11
602.14660634727579
 21
4.8247043544951964
  0
LINE
  8
_0-1__U_30EC_U_30A4_U_30E4_U_30FC_1
  6
CONTINUOUS
 62
    7
 10
602.14660634727579
 20
4.8247043544951964
 11
602.14936242366412
 21
2.8379177881516
  0
LINE
  8
_0-1__U_30EC_U_30A4_U_30E4_U_30FC_1
  6
CONTINUOUS
 62
    7
 10
602.14936242366412
 20
2.8379177881516
 11
602.15280751914929
 21
0.8013495920462219
  0
LINE
  8
_0-1__U_30EC_U_30A4_U_30E4_U_30FC_1
  6
CONTINUOUS
 62
    7
 10
602.15280751914929
 20
0.8013495920462219
 11
602.16107574831392
 21
-1.2059352924345887
  0
LINE
  8
_0-1__U_30EC_U_30A4_U_30E4_U_30FC_1
  6
CONTINUOUS
 62
    7
 10
602.16107574831392
 20
-1.2059352924345887
 11
602.17003299657563
 21
-3.1141736817144761
  0
LINE
  8
_0-1__U_30EC_U_30A4_U_30E4_U_30FC_1
  6
CONTINUOUS
 62
    7
 10
602.17003299657563
 20
-3.1141736817144761
 11
602.18312435941948
 21
-4.9717691673612023
  0
LINE
  8
_0-1__U_30EC_U_30A4_U_30E4_U_30FC_1
  6
CONTINUOUS
 62
    7
 10
602.18312435941948
 20
-4.9717691673612023
 11
602.19345964587524
 21
-6.8124836851301609
  0
LINE
  8
_0-1__U_30EC_U_30A4_U_30E4_U_30FC_1
  6
CONTINUOUS
 62
    7
 10
602.19345964587524
 20
-6.8124836851301609
 11
602.20345042278245
 21
-8.5725829685443955
  0
LINE
  8
_0-1__U_30EC_U_30A4_U_30E4_U_30FC_1
  6
CONTINUOUS
 62
    7
 10
602.20345042278245
 20
-8.5725829685443955
 11
602.21102963285011
 21
-10.190744317966193
  0
LINE
  8
_0-1__U_30EC_U_30A4_U_30E4_U_30FC_1
  6
CONTINUOUS
 62
    7
 10
602.21102963285011
 20
-10.190744317966193
 11
602.21309669014113
 21
-11.707275350573184
  0
LINE
  8
_0-1__U_30EC_U_30A4_U_30E4_U_30FC_1
  6
CONTINUOUS
 62
    7
 10
602.21309669014113
 20
-11.707275350573184
 11
602.21309669014113
 21
-13.15421545437809
  0
LINE
  8
_0-1__U_30EC_U_30A4_U_30E4_U_30FC_1
  6
CONTINUOUS
 62
    7
 10
602.21309669014113
 20
-13.15421545437809
 11
602.20896257555887
 21
-14.467485853355385
  0
LINE
  8
_0-1__U_30EC_U_30A4_U_30E4_U_30FC_1
  6
CONTINUOUS
 62
    7
 10
602.20896257555887
 20
-14.467485853355385
 11
602.20345042278245
 21
-15.614358140394984
  0
LINE
  8
_0-1__U_30EC_U_30A4_U_30E4_U_30FC_1
  6
CONTINUOUS
 62
    7
 10
602.20345042278245
 20
-15.614358140394984
 11
602.19345964587524
 21
-16.620326022088022
  0
LINE
  8
_0-1__U_30EC_U_30A4_U_30E4_U_30FC_1
  6
CONTINUOUS
 62
    7
 10
602.19345964587524
 20
-16.620326022088022
 11
602.18312435941948
 21
-17.509160657282507
  0
LINE
  8
_0-1__U_30EC_U_30A4_U_30E4_U_30FC_1
  6
CONTINUOUS
 62
    7
 10
602.18312435941948
 20
-17.509160657282507
 11
602.17003299657563
 21
-18.23366423783051
  0
LINE
  8
_0-1__U_30EC_U_30A4_U_30E4_U_30FC_1
  6
CONTINUOUS
 62
    7
 10
602.17003299657563
 20
-18.23366423783051
 11
602.15900869102279
 21
-18.905113347905711
  0
LINE
  8
_0-1__U_30EC_U_30A4_U_30E4_U_30FC_1
  6
CONTINUOUS
 62
    7
 10
602.15900869102279
 20
-18.905113347905711
 11
602.14936242366412
 21
-19.308878538777009
  0
LINE
  8
_0-1__U_30EC_U_30A4_U_30E4_U_30FC_1
  6
CONTINUOUS
 62
    7
 10
602.14936242366412
 20
-19.308878538777009
 11
602.14660634727579
 21
-19.437380600376798
  0
LINE
  8
_0-1__U_30EC_U_30A4_U_30E4_U_30FC_1
  6
CONTINUOUS
 62
    7
 10
602.14660634727579
 20
28.420507842519882
 11
602.14936242366412
 21
28.251525908968404
  0
LINE
  8
_0-1__U_30EC_U_30A4_U_30E4_U_30FC_1
  6
CONTINUOUS
 62
    7
 10
602.14936242366412
 20
28.251525908968404
 11
602.15763065282874
 21
27.917523901673405
  0
LINE
  8
_0-1__U_30EC_U_30A4_U_30E4_U_30FC_1
  6
CONTINUOUS
 62
    7
 10
602.15763065282874
 20
27.917523901673405
 11
602.16589888199337
 21
27.421257897023196
  0
LINE
  8
_0-1__U_30EC_U_30A4_U_30E4_U_30FC_1
  6
CONTINUOUS
 62
    7
 10
602.16589888199337
 20
27.421257897023196
 11
602.17830122574014
 21
26.749808786948009
  0
LINE
  8
_0-1__U_30EC_U_30A4_U_30E4_U_30FC_1
  6
CONTINUOUS
 62
    7
 10
602.17830122574014
 20
26.749808786948009
 11
602.19070356948703
 21
25.915062150871904
  0
LINE
  8
_0-1__U_30EC_U_30A4_U_30E4_U_30FC_1
  6
CONTINUOUS
 62
    7
 10
602.19070356948703
 20
25.915062150871904
 11
602.1993163082002
 21
24.952674727067418
  0
LINE
  8
_0-1__U_30EC_U_30A4_U_30E4_U_30FC_1
  6
CONTINUOUS
 62
    7
 10
602.1993163082002
 20
24.952674727067418
 11
602.20896257555887
 21
23.849382897916115
  0
LINE
  8
_0-1__U_30EC_U_30A4_U_30E4_U_30FC_1
  6
CONTINUOUS
 62
    7
 10
602.20896257555887
 20
23.849382897916115
 11
602.21102963285011
 21
22.573491784953802
  0
LINE
  8
_0-1__U_30EC_U_30A4_U_30E4_U_30FC_1
  6
CONTINUOUS
 62
    7
 10
602.21102963285011
 20
22.573491784953802
 11
602.21309669014113
 21
21.165309005357983
  0
LINE
  8
_0-1__U_30EC_U_30A4_U_30E4_U_30FC_1
  6
CONTINUOUS
 62
    7
 10
602.21309669014113
 20
21.165309005357983
 11
602.21102963285011
 21
19.681506379860906
  0
LINE
  8
_0-1__U_30EC_U_30A4_U_30E4_U_30FC_1
  6
CONTINUOUS
 62
    7
 10
602.21102963285011
 20
19.681506379860906
 11
602.20413944187953
 21
18.090389029998192
  0
LINE
  8
_0-1__U_30EC_U_30A4_U_30E4_U_30FC_1
  6
CONTINUOUS
 62
    7
 10
602.20413944187953
 20
18.090389029998192
 11
602.19621572226333
 21
16.356300217497704
  0
LINE
  8
_0-1__U_30EC_U_30A4_U_30E4_U_30FC_1
  6
CONTINUOUS
 62
    7
 10
602.19621572226333
 20
16.356300217497704
 11
602.18519141671072
 21
14.538495584705686
  0
LINE
  8
_0-1__U_30EC_U_30A4_U_30E4_U_30FC_1
  6
CONTINUOUS
 62
    7
 10
602.18519141671072
 20
14.538495584705686
 11
602.17416711115789
 21
12.696919793065263
  0
LINE
  8
_0-1__U_30EC_U_30A4_U_30E4_U_30FC_1
  6
CONTINUOUS
 62
    7
 10
602.17416711115789
 20
12.696919793065263
 11
602.16520986289618
 21
10.800566983209592
  0
LINE
  8
_0-1__U_30EC_U_30A4_U_30E4_U_30FC_1
  6
CONTINUOUS
 62
    7
 10
602.16520986289618
 20
10.800566983209592
 11
602.15625261463458
 21
8.8036173851845376
  0
LINE
  8
_0-1__U_30EC_U_30A4_U_30E4_U_30FC_1
  6
CONTINUOUS
 62
    7
 10
602.15625261463458
 20
8.8036173851845376
 11
602.14936242366412
 21
6.7761786921150247
  0
LINE
  8
_0-1__U_30EC_U_30A4_U_30E4_U_30FC_1
  6
CONTINUOUS
 62
    7
 10
602.14936242366412
 20
6.7761786921150247
 11
602.14385027088758
 21
4.7856025207375978
  0
LINE
  8
_0-1__U_30EC_U_30A4_U_30E4_U_30FC_1
  6
CONTINUOUS
 62
    7
 10
602.14385027088758
 20
4.7856025207375978
 11
602.14660634727579
 21
2.8000217378138927
  0
LINE
  8
_0-1__U_30EC_U_30A4_U_30E4_U_30FC_1
  6
CONTINUOUS
 62
    7
 10
602.14660634727579
 20
2.8000217378138927
 11
602.15280751914929
 21
0.7663818728709088
  0
LINE
  8
_0-1__U_30EC_U_30A4_U_30E4_U_30FC_1
  6
CONTINUOUS
 62
    7
 10
602.15280751914929
 20
0.7663818728709088
 11
602.16107574831392
 21
-1.2400417377386077
  0
LINE
  8
_0-1__U_30EC_U_30A4_U_30E4_U_30FC_1
  6
CONTINUOUS
 62
    7
 10
602.16107574831392
 20
-1.2400417377386077
 11
602.17003299657563
 21
-3.1503471843097088
  0
LINE
  8
_0-1__U_30EC_U_30A4_U_30E4_U_30FC_1
  6
CONTINUOUS
 62
    7
 10
602.17003299657563
 20
-3.1503471843097088
 11
602.18312435941948
 21
-5.0058756126651929
  0
LINE
  8
_0-1__U_30EC_U_30A4_U_30E4_U_30FC_1
  6
CONTINUOUS
 62
    7
 10
602.18312435941948
 20
-5.0058756126651929
 11
602.19345964587524
 21
-6.847623659079801
  0
LINE
  8
_0-1__U_30EC_U_30A4_U_30E4_U_30FC_1
  6
CONTINUOUS
 62
    7
 10
602.19345964587524
 20
-6.847623659079801
 11
602.20345042278245
 21
-8.6056558852027933
  0
LINE
  8
_0-1__U_30EC_U_30A4_U_30E4_U_30FC_1
  6
CONTINUOUS
 62
    7
 10
602.20345042278245
 20
-8.6056558852027933
 11
602.20896257555887
 21
-10.224161744173102
  0
LINE
  8
_0-1__U_30EC_U_30A4_U_30E4_U_30FC_1
  6
CONTINUOUS
 62
    7
 10
602.20896257555887
 20
-10.224161744173102
 11
602.21309669014113
 21
-11.741381795877203
  0
LINE
  8
_0-1__U_30EC_U_30A4_U_30E4_U_30FC_1
  6
CONTINUOUS
 62
    7
 10
602.21309669014113
 20
-11.741381795877203
 11
602.21309669014113
 21
-13.186599351939492
  0
LINE
  8
_0-1__U_30EC_U_30A4_U_30E4_U_30FC_1
  6
CONTINUOUS
 62
    7
 10
602.21309669014113
 20
-13.186599351939492
 11
602.20896257555887
 21
-14.502281317756399
  0
LINE
  8
_0-1__U_30EC_U_30A4_U_30E4_U_30FC_1
  6
CONTINUOUS
 62
    7
 10
602.20896257555887
 20
-14.502281317756399
 11
602.20069434639424
 21
-15.644330471116689
  0
LINE
  8
_0-1__U_30EC_U_30A4_U_30E4_U_30FC_1
  6
CONTINUOUS
 62
    7
 10
602.20069434639424
 20
-15.644330471116689
 11
602.19345964587524
 21
-16.650987371906695
  0
LINE
  8
_0-1__U_30EC_U_30A4_U_30E4_U_30FC_1
  6
CONTINUOUS
 62
    7
 10
602.19345964587524
 20
-16.650987371906695
 11
602.18312435941948
 21
-17.534309854324789
  0
LINE
  8
_0-1__U_30EC_U_30A4_U_30E4_U_30FC_1
  6
CONTINUOUS
 62
    7
 10
602.18312435941948
 20
-17.534309854324789
 11
602.17003299657563
 21
-18.252956772547918
  0
LINE
  8
_0-1__U_30EC_U_30A4_U_30E4_U_30FC_1
  6
CONTINUOUS
 62
    7
 10
602.17003299657563
 20
-18.252956772547918
 11
602.15763065282874
 21
-18.908902952939513
  0
LINE
  8
_0-1__U_30EC_U_30A4_U_30E4_U_30FC_1
  6
CONTINUOUS
 62
    7
 10
602.15763065282874
 20
-18.908902952939513
 11
602.14936242366412
 21
-19.311979124713702
  0
LINE
  8
_0-1__U_30EC_U_30A4_U_30E4_U_30FC_1
  6
CONTINUOUS
 62
    7
 10
602.14936242366412
 20
-19.311979124713702
 11
602.14385027088758
 21
-19.440136676765007
  0
LINE
  8
_0-1__U_30EC_U_30A4_U_30E4_U_30FC_1
  6
CONTINUOUS
 62
    7
 10
600.65970313584216
 20
30.844304771167401
 11
600.66659332681252
 21
30.567663603701803
  0
LINE
  8
_0-1__U_30EC_U_30A4_U_30E4_U_30FC_1
  6
CONTINUOUS
 62
    7
 10
600.66659332681252
 20
30.567663603701803
 11
600.67692861326827
 21
30.099991891579208
  0
LINE
  8
_0-1__U_30EC_U_30A4_U_30E4_U_30FC_1
  6
CONTINUOUS
 62
    7
 10
600.67692861326827
 20
30.099991891579208
 11
600.69415409069461
 21
29.443012182542006
  0
LINE
  8
_0-1__U_30EC_U_30A4_U_30E4_U_30FC_1
  6
CONTINUOUS
 62
    7
 10
600.69415409069461
 20
29.443012182542006
 11
600.71000152992679
 21
28.630486412345789
  0
LINE
  8
_0-1__U_30EC_U_30A4_U_30E4_U_30FC_1
  6
CONTINUOUS
 62
    7
 10
600.71000152992679
 20
28.630486412345789
 11
600.72515995006188
 21
27.653112823180507
  0
LINE
  8
_0-1__U_30EC_U_30A4_U_30E4_U_30FC_1
  6
CONTINUOUS
 62
    7
 10
600.72515995006188
 20
27.653112823180507
 11
600.73928484155135
 21
26.476784969741885
  0
LINE
  8
_0-1__U_30EC_U_30A4_U_30E4_U_30FC_1
  6
CONTINUOUS
 62
    7
 10
600.73928484155135
 20
26.476784969741885
 11
600.74824208981295
 21
25.144394290821509
  0
LINE
  8
_0-1__U_30EC_U_30A4_U_30E4_U_30FC_1
  6
CONTINUOUS
 62
    7
 10
600.74824208981295
 20
25.144394290821509
 11
600.75375424258937
 21
23.701243792050406
  0
LINE
  8
_0-1__U_30EC_U_30A4_U_30E4_U_30FC_1
  6
CONTINUOUS
 62
    7
 10
600.75375424258937
 20
23.701243792050406
 11
600.75237620439543
 21
22.12597388141991
  0
LINE
  8
_0-1__U_30EC_U_30A4_U_30E4_U_30FC_1
  6
CONTINUOUS
 62
    7
 10
600.75237620439543
 20
22.12597388141991
 11
600.74617503252182
 21
20.377760177429792
  0
LINE
  8
_0-1__U_30EC_U_30A4_U_30E4_U_30FC_1
  6
CONTINUOUS
 62
    7
 10
600.74617503252182
 20
20.377760177429792
 11
600.73583974606618
 21
18.515513812878083
  0
LINE
  8
_0-1__U_30EC_U_30A4_U_30E4_U_30FC_1
  6
CONTINUOUS
 62
    7
 10
600.73583974606618
 20
18.515513812878083
 11
600.72171485457648
 21
16.603830328112906
  0
LINE
  8
_0-1__U_30EC_U_30A4_U_30E4_U_30FC_1
  6
CONTINUOUS
 62
    7
 10
600.72171485457648
 20
16.603830328112906
 11
600.70517839624722
 21
14.611359354218706
  0
LINE
  8
_0-1__U_30EC_U_30A4_U_30E4_U_30FC_1
  6
CONTINUOUS
 62
    7
 10
600.70517839624722
 20
14.611359354218706
 11
600.68933095701527
 21
12.488491516207688
  0
LINE
  8
_0-1__U_30EC_U_30A4_U_30E4_U_30FC_1
  6
CONTINUOUS
 62
    7
 10
600.68933095701527
 20
12.488491516207688
 11
600.67348351778287
 21
10.305679016753402
  0
LINE
  8
_0-1__U_30EC_U_30A4_U_30E4_U_30FC_1
  6
CONTINUOUS
 62
    7
 10
600.67348351778287
 20
10.305679016753402
 11
600.66108117403621
 21
8.1442261093077093
  0
LINE
  8
_0-1__U_30EC_U_30A4_U_30E4_U_30FC_1
  6
CONTINUOUS
 62
    7
 10
600.66108117403621
 20
8.1442261093077093
 11
600.65694705945373
 21
5.9581407691424033
  0
LINE
  8
_0-1__U_30EC_U_30A4_U_30E4_U_30FC_1
  6
CONTINUOUS
 62
    7
 10
600.65694705945373
 20
5.9581407691424033
 11
600.65694705945373
 21
3.6974691117214888
  0
LINE
  8
_0-1__U_30EC_U_30A4_U_30E4_U_30FC_1
  6
CONTINUOUS
 62
    7
 10
600.65694705945373
 20
3.6974691117214888
 11
600.66039215493902
 21
1.4426541166253912
  0
LINE
  8
_0-1__U_30EC_U_30A4_U_30E4_U_30FC_1
  6
CONTINUOUS
 62
    7
 10
600.66039215493902
 20
1.4426541166253912
 11
600.67003842229781
 21
-0.7270670199849007
  0
LINE
  8
_0-1__U_30EC_U_30A4_U_30E4_U_30FC_1
  6
CONTINUOUS
 62
    7
 10
600.67003842229781
 20
-0.7270670199849007
 11
600.68312978514177
 21
-2.8599256349031066
  0
LINE
  8
_0-1__U_30EC_U_30A4_U_30E4_U_30FC_1
  6
CONTINUOUS
 62
    7
 10
600.68312978514177
 20
-2.8599256349031066
 11
600.69966624347103
 21
-5.0010524789859119
  0
LINE
  8
_0-1__U_30EC_U_30A4_U_30E4_U_30FC_1
  6
CONTINUOUS
 62
    7
 10
600.69966624347103
 20
-5.0010524789859119
 11
600.71620270180006
 21
-7.0746554515577031
  0
LINE
  8
_0-1__U_30EC_U_30A4_U_30E4_U_30FC_1
  6
CONTINUOUS
 62
    7
 10
600.71620270180006
 20
-7.0746554515577031
 11
600.73032759328953
 21
-9.0059759805888007
  0
LINE
  8
_0-1__U_30EC_U_30A4_U_30E4_U_30FC_1
  6
CONTINUOUS
 62
    7
 10
600.73032759328953
 20
-9.0059759805888007
 11
600.74479699432777
 21
-10.848757555648916
  0
LINE
  8
_0-1__U_30EC_U_30A4_U_30E4_U_30FC_1
  6
CONTINUOUS
 62
    7
 10
600.74479699432777
 20
-10.848757555648916
 11
600.75237620439543
 21
-12.6326279979113
  0
LINE
  8
_0-1__U_30EC_U_30A4_U_30E4_U_30FC_1
  6
CONTINUOUS
 62
    7
 10
600.75237620439543
 20
-12.6326279979113
 11
600.75375424258937
 21
-14.290063435864994
  0
LINE
  8
_0-1__U_30EC_U_30A4_U_30E4_U_30FC_1
  6
CONTINUOUS
 62
    7
 10
600.75375424258937
 20
-14.290063435864994
 11
600.74962012800711
 21
-15.769387437231302
  0
LINE
  8
_0-1__U_30EC_U_30A4_U_30E4_U_30FC_1
  6
CONTINUOUS
 62
    7
 10
600.74962012800711
 20
-15.769387437231302
 11
600.74272993703653
 21
-17.108496052347903
  0
LINE
  8
_0-1__U_30EC_U_30A4_U_30E4_U_30FC_1
  6
CONTINUOUS
 62
    7
 10
600.74272993703653
 20
-17.108496052347903
 11
600.73032759328953
 21
-18.329782401868982
  0
LINE
  8
_0-1__U_30EC_U_30A4_U_30E4_U_30FC_1
  6
CONTINUOUS
 62
    7
 10
600.73032759328953
 20
-18.329782401868982
 11
600.71620270180006
 21
-19.385359658549504
  0
LINE
  8
_0-1__U_30EC_U_30A4_U_30E4_U_30FC_1
  6
CONTINUOUS
 62
    7
 10
600.71620270180006
 20
-19.385359658549504
 11
600.69897722437395
 21
-20.244221963022312
  0
LINE
  8
_0-1__U_30EC_U_30A4_U_30E4_U_30FC_1
  6
CONTINUOUS
 62
    7
 10
600.69897722437395
 20
-20.244221963022312
 11
600.68312978514177
 21
-20.932207531426712
  0
LINE
  8
_0-1__U_30EC_U_30A4_U_30E4_U_30FC_1
  6
CONTINUOUS
 62
    7
 10
600.68312978514177
 20
-20.932207531426712
 11
600.67003842229781
 21
-21.455862045184716
  0
LINE
  8
_0-1__U_30EC_U_30A4_U_30E4_U_30FC_1
  6
CONTINUOUS
 62
    7
 10
600.67003842229781
 20
-21.455862045184716
 11
600.66039215493902
 21
-21.792103364545
  0
LINE
  8
_0-1__U_30EC_U_30A4_U_30E4_U_30FC_1
  6
CONTINUOUS
 62
    7
 10
600.66039215493902
 20
-21.792103364545
 11
600.65694705945373
 21
-21.931974241246166
  0
LINE
  8
_0-1__U_30EC_U_30A4_U_30E4_U_30FC_1
  6
CONTINUOUS
 62
    7
 10
598.79211687328802
 20
38.4190362145862
 11
598.84379330556692
 21
4.4996595954619067
  0
LINE
  8
_0-1__U_30EC_U_30A4_U_30E4_U_30FC_1
  6
CONTINUOUS
 62
    7
 10
598.84379330556692
 20
4.4996595954619067
 11
598.79211687328802
 21
-29.422989864373392
  0
LINE
  8
_0-1__U_30EC_U_30A4_U_30E4_U_30FC_1
  6
CONTINUOUS
 62
    7
 10
598.17475576233142
 20
-29.419544768888187
 11
598.19129222066056
 21
-24.964002777814642
  0
LINE
  8
_0-1__U_30EC_U_30A4_U_30E4_U_30FC_1
  6
CONTINUOUS
 62
    7
 10
598.19129222066056
 20
-24.964002777814642
 11
598.20300554531036
 21
-20.87811953230829
  0
LINE
  8
_0-1__U_30EC_U_30A4_U_30E4_U_30FC_1
  6
CONTINUOUS
 62
    7
 10
598.20300554531036
 20
-20.87811953230829
 11
598.22092004183378
 21
-12.696017754839886
  0
LINE
  8
_0-1__U_30EC_U_30A4_U_30E4_U_30FC_1
  6
CONTINUOUS
 62
    7
 10
598.22092004183378
 20
-12.696017754839886
 11
598.23056630919245
 21
-8.6056558852027933
  0
LINE
  8
_0-1__U_30EC_U_30A4_U_30E4_U_30FC_1
  6
CONTINUOUS
 62
    7
 10
598.23056630919245
 20
-8.6056558852027933
 11
598.23470042377471
 21
-4.5201171492450101
  0
LINE
  8
_0-1__U_30EC_U_30A4_U_30E4_U_30FC_1
  6
CONTINUOUS
 62
    7
 10
598.23470042377471
 20
-4.5201171492450101
 11
598.23814551925989
 21
-0.4297552796078036
  0
LINE
  8
_0-1__U_30EC_U_30A4_U_30E4_U_30FC_1
  6
CONTINUOUS
 62
    7
 10
598.23814551925989
 20
-0.4297552796078036
 11
598.23952355745405
 21
7.7468343450841246
  0
LINE
  8
_0-1__U_30EC_U_30A4_U_30E4_U_30FC_1
  6
CONTINUOUS
 62
    7
 10
598.23952355745405
 20
7.7468343450841246
 11
598.23607846196887
 21
11.83822974336681
  0
LINE
  8
_0-1__U_30EC_U_30A4_U_30E4_U_30FC_1
  6
CONTINUOUS
 62
    7
 10
598.23607846196887
 20
11.83822974336681
 11
598.23194434738639
 21
15.924802007970186
  0
LINE
  8
_0-1__U_30EC_U_30A4_U_30E4_U_30FC_1
  6
CONTINUOUS
 62
    7
 10
598.23194434738639
 20
15.924802007970186
 11
598.225743175513
 21
20.014474858510312
  0
LINE
  8
_0-1__U_30EC_U_30A4_U_30E4_U_30FC_1
  6
CONTINUOUS
 62
    7
 10
598.225743175513
 20
20.014474858510312
 11
598.20920671718386
 21
28.193303795267596
  0
LINE
  8
_0-1__U_30EC_U_30A4_U_30E4_U_30FC_1
  6
CONTINUOUS
 62
    7
 10
598.20920671718386
 20
28.193303795267596
 11
598.1961153543399
 21
32.281598607613589
  0
LINE
  8
_0-1__U_30EC_U_30A4_U_30E4_U_30FC_1
  6
CONTINUOUS
 62
    7
 10
598.1961153543399
 20
32.281598607613589
 11
598.18233497239896
 21
36.374199789316179
  0
LINE
  8
_0-1__U_30EC_U_30A4_U_30E4_U_30FC_1
  6
CONTINUOUS
 62
    7
 10
598.18233497239896
 20
36.374199789316179
 11
598.17475576233142
 21
38.415935628649507
  0
LINE
  8
_0-1__U_30EC_U_30A4_U_30E4_U_30FC_1
  6
CONTINUOUS
 62
    7
 10
593.26928430088401
 20
38.415935628649507
 11
593.26928430088401
 21
-29.419544768888187
  0
LINE
  8
_0-1__U_30EC_U_30A4_U_30E4_U_30FC_1
  6
CONTINUOUS
 62
    7
 10
598.17475576233142
 20
38.415935628649507
 11
598.44278419108377
 21
38.415935628649507
  0
LINE
  8
_0-1__U_30EC_U_30A4_U_30E4_U_30FC_1
  6
CONTINUOUS
 62
    7
 10
598.44278419108377
 20
38.415935628649507
 11
598.79211687328802
 21
38.4190362145862
  0
LINE
  8
_0-1__U_30EC_U_30A4_U_30E4_U_30FC_1
  6
CONTINUOUS
 62
    7
 10
598.79211687328802
 20
47.645518688408103
 11
598.79280589238522
 21
47.461206079947203
  0
LINE
  8
_0-1__U_30EC_U_30A4_U_30E4_U_30FC_1
  6
CONTINUOUS
 62
    7
 10
598.79280589238522
 20
47.461206079947203
 11
598.80245215974378
 21
46.932900687284089
  0
LINE
  8
_0-1__U_30EC_U_30A4_U_30E4_U_30FC_1
  6
CONTINUOUS
 62
    7
 10
598.80245215974378
 20
46.932900687284089
 11
598.8141654843937
 21
46.082134357201681
  0
LINE
  8
_0-1__U_30EC_U_30A4_U_30E4_U_30FC_1
  6
CONTINUOUS
 62
    7
 10
598.8141654843937
 20
46.082134357201681
 11
598.81829959897595
 21
44.930955700805484
  0
LINE
  8
_0-1__U_30EC_U_30A4_U_30E4_U_30FC_1
  6
CONTINUOUS
 62
    7
 10
598.81829959897595
 20
44.930955700805484
 11
598.8141654843937
 21
43.536036538827787
  0
LINE
  8
_0-1__U_30EC_U_30A4_U_30E4_U_30FC_1
  6
CONTINUOUS
 62
    7
 10
598.8141654843937
 20
43.536036538827787
 11
598.80245215974378
 21
41.946124972384993
  0
LINE
  8
_0-1__U_30EC_U_30A4_U_30E4_U_30FC_1
  6
CONTINUOUS
 62
    7
 10
598.80245215974378
 20
41.946124972384993
 11
598.79280589238522
 21
40.218926350855
  0
LINE
  8
_0-1__U_30EC_U_30A4_U_30E4_U_30FC_1
  6
CONTINUOUS
 62
    7
 10
598.79280589238522
 20
40.218926350855
 11
598.79211687328802
 21
38.4190362145862
  0
LINE
  8
_0-1__U_30EC_U_30A4_U_30E4_U_30FC_1
  6
CONTINUOUS
 62
    7
 10
598.17475576233142
 20
48.30680476680179
 11
598.79211687328802
 21
47.645518688408103
  0
LINE
  8
_0-1__U_30EC_U_30A4_U_30E4_U_30FC_1
  6
CONTINUOUS
 62
    7
 10
598.17475576233142
 20
38.415935628649507
 11
593.26928430088401
 21
38.415935628649507
  0
LINE
  8
_0-1__U_30EC_U_30A4_U_30E4_U_30FC_1
  6
CONTINUOUS
 62
    7
 10
598.17337772413725
 20
38.512742811784989
 11
598.17475576233142
 21
40.1472683647618
  0
LINE
  8
_0-1__U_30EC_U_30A4_U_30E4_U_30FC_1
  6
CONTINUOUS
 62
    7
 10
598.17475576233142
 20
40.1472683647618
 11
598.18233497239896
 21
41.77783205793051
  0
LINE
  8
_0-1__U_30EC_U_30A4_U_30E4_U_30FC_1
  6
CONTINUOUS
 62
    7
 10
598.18233497239896
 20
41.77783205793051
 11
598.1926702588546
 21
43.268524874398111
  0
LINE
  8
_0-1__U_30EC_U_30A4_U_30E4_U_30FC_1
  6
CONTINUOUS
 62
    7
 10
598.1926702588546
 20
43.268524874398111
 11
598.19956044982519
 21
44.663444036375807
  0
LINE
  8
_0-1__U_30EC_U_30A4_U_30E4_U_30FC_1
  6
CONTINUOUS
 62
    7
 10
598.19956044982519
 20
44.663444036375807
 11
598.19956044982519
 21
45.408273680286797
  0
LINE
  8
_0-1__U_30EC_U_30A4_U_30E4_U_30FC_1
  6
CONTINUOUS
 62
    7
 10
598.19956044982519
 20
45.408273680286797
 11
598.1961153543399
 21
46.722922117458197
  0
LINE
  8
_0-1__U_30EC_U_30A4_U_30E4_U_30FC_1
  6
CONTINUOUS
 62
    7
 10
598.1961153543399
 20
46.722922117458197
 11
598.18646908698122
 21
47.4944512513799
  0
LINE
  8
_0-1__U_30EC_U_30A4_U_30E4_U_30FC_1
  6
CONTINUOUS
 62
    7
 10
598.18646908698122
 20
47.4944512513799
 11
598.17544478142838
 21
48.031713892304595
  0
LINE
  8
_0-1__U_30EC_U_30A4_U_30E4_U_30FC_1
  6
CONTINUOUS
 62
    7
 10
598.17544478142838
 20
48.031713892304595
 11
598.17337772413725
 21
48.235146780708618
  0
LINE
  8
_0-1__U_30EC_U_30A4_U_30E4_U_30FC_1
  6
CONTINUOUS
 62
    7
 10
593.26928430088401
 20
48.391898625287396
 11
598.17475576233142
 21
48.30680476680179
  0
LINE
  8
_0-1__U_30EC_U_30A4_U_30E4_U_30FC_1
  6
CONTINUOUS
 62
    7
 10
593.26928430088401
 20
38.415935628649507
 11
593.26928430088401
 21
39.534902642258601
  0
LINE
  8
_0-1__U_30EC_U_30A4_U_30E4_U_30FC_1
  6
CONTINUOUS
 62
    7
 10
593.26928430088401
 20
39.534902642258601
 11
593.26928430088401
 21
40.637505452312794
  0
LINE
  8
_0-1__U_30EC_U_30A4_U_30E4_U_30FC_1
  6
CONTINUOUS
 62
    7
 10
593.26928430088401
 20
40.637505452312794
 11
593.26928430088401
 21
41.710652695968207
  0
LINE
  8
_0-1__U_30EC_U_30A4_U_30E4_U_30FC_1
  6
CONTINUOUS
 62
    7
 10
593.26928430088401
 20
41.710652695968207
 11
593.26928430088401
 21
42.746592908382794
  0
LINE
  8
_0-1__U_30EC_U_30A4_U_30E4_U_30FC_1
  6
CONTINUOUS
 62
    7
 10
593.26928430088401
 20
42.746592908382794
 11
593.26928430088401
 21
43.7225884593541
  0
LINE
  8
_0-1__U_30EC_U_30A4_U_30E4_U_30FC_1
  6
CONTINUOUS
 62
    7
 10
593.26928430088401
 20
43.7225884593541
 11
593.26928430088401
 21
44.635021998622506
  0
LINE
  8
_0-1__U_30EC_U_30A4_U_30E4_U_30FC_1
  6
CONTINUOUS
 62
    7
 10
593.26928430088401
 20
44.635021998622506
 11
593.26928430088401
 21
45.468046086955894
  0
LINE
  8
_0-1__U_30EC_U_30A4_U_30E4_U_30FC_1
  6
CONTINUOUS
 62
    7
 10
593.26928430088401
 20
45.468046086955894
 11
593.26928430088401
 21
46.216320826352216
  0
LINE
  8
_0-1__U_30EC_U_30A4_U_30E4_U_30FC_1
  6
CONTINUOUS
 62
    7
 10
593.26928430088401
 20
46.216320826352216
 11
593.26928430088401
 21
46.863309758482103
  0
LINE
  8
_0-1__U_30EC_U_30A4_U_30E4_U_30FC_1
  6
CONTINUOUS
 62
    7
 10
593.26928430088401
 20
46.863309758482103
 11
593.26928430088401
 21
47.402811711472197
  0
LINE
  8
_0-1__U_30EC_U_30A4_U_30E4_U_30FC_1
  6
CONTINUOUS
 62
    7
 10
593.26928430088401
 20
47.402811711472197
 11
593.26928430088401
 21
47.832415118482913
  0
LINE
  8
_0-1__U_30EC_U_30A4_U_30E4_U_30FC_1
  6
CONTINUOUS
 62
    7
 10
593.26928430088401
 20
47.832415118482913
 11
593.26928430088401
 21
48.143162731252417
  0
LINE
  8
_0-1__U_30EC_U_30A4_U_30E4_U_30FC_1
  6
CONTINUOUS
 62
    7
 10
593.26928430088401
 20
48.143162731252417
 11
593.26928430088401
 21
48.330748180424308
  0
LINE
  8
_0-1__U_30EC_U_30A4_U_30E4_U_30FC_1
  6
CONTINUOUS
 62
    7
 10
598.17475576233142
 20
-39.312480964331598
 11
598.44278419108377
 21
-39.02378196266767
  0
LINE
  8
_0-1__U_30EC_U_30A4_U_30E4_U_30FC_1
  6
CONTINUOUS
 62
    7
 10
598.44278419108377
 20
-39.02378196266767
 11
598.79211687328802
 21
-38.651022631163613
  0
LINE
  8
_0-1__U_30EC_U_30A4_U_30E4_U_30FC_1
  6
CONTINUOUS
 62
    7
 10
598.79211687328802
 20
-29.422989864373392
 11
598.79280589238522
 21
-31.214439516703379
  0
LINE
  8
_0-1__U_30EC_U_30A4_U_30E4_U_30FC_1
  6
CONTINUOUS
 62
    7
 10
598.79280589238522
 20
-31.214439516703379
 11
598.80245215974378
 21
-32.944566469395767
  0
LINE
  8
_0-1__U_30EC_U_30A4_U_30E4_U_30FC_1
  6
CONTINUOUS
 62
    7
 10
598.80245215974378
 20
-32.944566469395767
 11
598.8141654843937
 21
-34.53172195945038
  0
LINE
  8
_0-1__U_30EC_U_30A4_U_30E4_U_30FC_1
  6
CONTINUOUS
 62
    7
 10
598.8141654843937
 20
-34.53172195945038
 11
598.81829959897595
 21
-35.929741707364798
  0
LINE
  8
_0-1__U_30EC_U_30A4_U_30E4_U_30FC_1
  6
CONTINUOUS
 62
    7
 10
598.81829959897595
 20
-35.929741707364798
 11
598.8141654843937
 21
-37.076269484855914
  0
LINE
  8
_0-1__U_30EC_U_30A4_U_30E4_U_30FC_1
  6
CONTINUOUS
 62
    7
 10
598.8141654843937
 20
-37.076269484855914
 11
598.80245215974378
 21
-37.93478727978021
  0
LINE
  8
_0-1__U_30EC_U_30A4_U_30E4_U_30FC_1
  6
CONTINUOUS
 62
    7
 10
598.80245215974378
 20
-37.93478727978021
 11
598.79280589238522
 21
-38.466365513154187
  0
LINE
  8
_0-1__U_30EC_U_30A4_U_30E4_U_30FC_1
  6
CONTINUOUS
 62
    7
 10
598.79280589238522
 20
-38.466365513154187
 11
598.79211687328802
 21
-38.651022631163613
  0
LINE
  8
_0-1__U_30EC_U_30A4_U_30E4_U_30FC_1
  6
CONTINUOUS
 62
    7
 10
598.17475576233142
 20
-29.419544768888187
 11
598.79211687328802
 21
-29.422989864373392
  0
LINE
  8
_0-1__U_30EC_U_30A4_U_30E4_U_30FC_1
  6
CONTINUOUS
 62
    7
 10
598.17475576233142
 20
-39.312480964331598
 11
593.26928430088401
 21
-39.397919332365831
  0
LINE
  8
_0-1__U_30EC_U_30A4_U_30E4_U_30FC_1
  6
CONTINUOUS
 62
    7
 10
598.17337772413725
 20
-39.309724887943389
 11
598.17475576233142
 21
-39.157107157946882
  0
LINE
  8
_0-1__U_30EC_U_30A4_U_30E4_U_30FC_1
  6
CONTINUOUS
 62
    7
 10
598.17475576233142
 20
-39.157107157946882
 11
598.18233497239896
 21
-38.71785748357749
  0
LINE
  8
_0-1__U_30EC_U_30A4_U_30E4_U_30FC_1
  6
CONTINUOUS
 62
    7
 10
598.18233497239896
 20
-38.71785748357749
 11
598.1926702588546
 21
-38.032627991561299
  0
LINE
  8
_0-1__U_30EC_U_30A4_U_30E4_U_30FC_1
  6
CONTINUOUS
 62
    7
 10
598.1926702588546
 20
-38.032627991561299
 11
598.19956044982519
 21
-37.082126147180873
  0
LINE
  8
_0-1__U_30EC_U_30A4_U_30E4_U_30FC_1
  6
CONTINUOUS
 62
    7
 10
598.19956044982519
 20
-37.082126147180873
 11
598.19956044982519
 21
-35.942488560660195
  0
LINE
  8
_0-1__U_30EC_U_30A4_U_30E4_U_30FC_1
  6
CONTINUOUS
 62
    7
 10
598.19956044982519
 20
-35.942488560660195
 11
598.19335927795169
 21
-34.576163691210098
  0
LINE
  8
_0-1__U_30EC_U_30A4_U_30E4_U_30FC_1
  6
CONTINUOUS
 62
    7
 10
598.19335927795169
 20
-34.576163691210098
 11
598.18371301059301
 21
-33.109242033590817
  0
LINE
  8
_0-1__U_30EC_U_30A4_U_30E4_U_30FC_1
  6
CONTINUOUS
 62
    7
 10
598.18371301059301
 20
-33.109242033590817
 11
598.17475576233142
 21
-31.493836760557116
  0
LINE
  8
_0-1__U_30EC_U_30A4_U_30E4_U_30FC_1
  6
CONTINUOUS
 62
    7
 10
598.17475576233142
 20
-31.493836760557116
 11
598.17337772413725
 21
-30.468231834598186
  0
LINE
  8
_0-1__U_30EC_U_30A4_U_30E4_U_30FC_1
  6
CONTINUOUS
 62
    7
 10
598.17337772413725
 20
-30.468231834598186
 11
598.17475576233142
 21
-29.419544768888187
  0
LINE
  8
_0-1__U_30EC_U_30A4_U_30E4_U_30FC_1
  6
CONTINUOUS
 62
    7
 10
593.26928430088401
 20
-29.419544768888187
 11
598.17475576233142
 21
-29.419544768888187
  0
LINE
  8
_0-1__U_30EC_U_30A4_U_30E4_U_30FC_1
  6
CONTINUOUS
 62
    7
 10
593.26928430088401
 20
-39.334874084985728
 11
593.26928430088401
 21
-39.145738342845505
  0
LINE
  8
_0-1__U_30EC_U_30A4_U_30E4_U_30FC_1
  6
CONTINUOUS
 62
    7
 10
593.26928430088401
 20
-39.145738342845505
 11
593.26928430088401
 21
-38.838091316012708
  0
LINE
  8
_0-1__U_30EC_U_30A4_U_30E4_U_30FC_1
  6
CONTINUOUS
 62
    7
 10
593.26928430088401
 20
-38.838091316012708
 11
593.26928430088401
 21
-38.408832418550617
  0
LINE
  8
_0-1__U_30EC_U_30A4_U_30E4_U_30FC_1
  6
CONTINUOUS
 62
    7
 10
593.26928430088401
 20
-38.408832418550617
 11
593.26928430088401
 21
-37.867263408269309
  0
LINE
  8
_0-1__U_30EC_U_30A4_U_30E4_U_30FC_1
  6
CONTINUOUS
 62
    7
 10
593.26928430088401
 20
-37.867263408269309
 11
593.26928430088401
 21
-37.219585457042314
  0
LINE
  8
_0-1__U_30EC_U_30A4_U_30E4_U_30FC_1
  6
CONTINUOUS
 62
    7
 10
593.26928430088401
 20
-37.219585457042314
 11
593.26928430088401
 21
-36.472688755840238
  0
LINE
  8
_0-1__U_30EC_U_30A4_U_30E4_U_30FC_1
  6
CONTINUOUS
 62
    7
 10
593.26928430088401
 20
-36.472688755840238
 11
593.26928430088401
 21
-35.639320157958196
  0
LINE
  8
_0-1__U_30EC_U_30A4_U_30E4_U_30FC_1
  6
CONTINUOUS
 62
    7
 10
593.26928430088401
 20
-35.639320157958196
 11
593.26928430088401
 21
-34.728781421206691
  0
LINE
  8
_0-1__U_30EC_U_30A4_U_30E4_U_30FC_1
  6
CONTINUOUS
 62
    7
 10
593.26928430088401
 20
-34.728781421206691
 11
593.26928430088401
 21
-33.747618227007479
  0
LINE
  8
_0-1__U_30EC_U_30A4_U_30E4_U_30FC_1
  6
CONTINUOUS
 62
    7
 10
593.26928430088401
 20
-33.747618227007479
 11
593.26928430088401
 21
-32.7165011482723
  0
LINE
  8
_0-1__U_30EC_U_30A4_U_30E4_U_30FC_1
  6
CONTINUOUS
 62
    7
 10
593.26928430088401
 20
-32.7165011482723
 11
593.26928430088401
 21
-31.643698414165499
  0
LINE
  8
_0-1__U_30EC_U_30A4_U_30E4_U_30FC_1
  6
CONTINUOUS
 62
    7
 10
593.26928430088401
 20
-31.643698414165499
 11
593.26928430088401
 21
-30.538511782497267
  0
LINE
  8
_0-1__U_30EC_U_30A4_U_30E4_U_30FC_1
  6
CONTINUOUS
 62
    7
 10
593.26928430088401
 20
-30.538511782497267
 11
593.26928430088401
 21
-29.419544768888187
  0
LINE
  8
_0-1__U_30EC_U_30A4_U_30E4_U_30FC_1
  6
CONTINUOUS
 62
    7
 10
600.65694705945373
 20
-21.915093273368512
 11
602.15280751914929
 21
-19.429112371212199
  0
LINE
  8
_0-1__U_30EC_U_30A4_U_30E4_U_30FC_1
  6
CONTINUOUS
 62
    7
 10
602.13351498443194
 20
28.463743790859795
 11
600.59355730252537
 21
31.016042781107103
  0
LINE
  8
_0-1__U_30EC_U_30A4_U_30E4_U_30FC_1
  6
CONTINUOUS
 62
    7
 10
602.14247223269354
 20
-19.428078842566606
 11
602.70298926814371
 21
-10.130455146974299
  0
LINE
  8
_0-1__U_30EC_U_30A4_U_30E4_U_30FC_1
  6
CONTINUOUS
 62
    7
 10
602.70298926814371
 20
-10.130455146974299
 11
603.00030100852086
 21
-0.3794568855232114
  0
LINE
  8
_0-1__U_30EC_U_30A4_U_30E4_U_30FC_1
  6
CONTINUOUS
 62
    7
 10
603.00030100852086
 20
-0.3794568855232114
 11
603.00030100852086
 21
9.370852356830909
  0
LINE
  8
_0-1__U_30EC_U_30A4_U_30E4_U_30FC_1
  6
CONTINUOUS
 62
    7
 10
603.00030100852086
 20
9.370852356830909
 11
602.70298926814371
 21
19.12391767557321
  0
LINE
  8
_0-1__U_30EC_U_30A4_U_30E4_U_30FC_1
  6
CONTINUOUS
 62
    7
 10
602.70298926814371
 20
19.12391767557321
 11
602.14247223269354
 21
28.420507842519882
  0
LINE
  8
_0-1__U_30EC_U_30A4_U_30E4_U_30FC_1
  6
CONTINUOUS
 62
    7
 10
598.84379330556692
 20
47.697884139783895
 11
598.23952355745405
 21
48.302498397445191
  0
LINE
  8
_0-1__U_30EC_U_30A4_U_30E4_U_30FC_1
  6
CONTINUOUS
 62
    7
 10
598.23952355745405
 20
-39.309724887943389
 11
598.84379330556692
 21
-38.704077101636472
  0
LINE
  8
_0-1__U_30EC_U_30A4_U_30E4_U_30FC_1
  6
CONTINUOUS
 62
    7
 10
598.83552507640218
 20
-38.704077101636472
 11
600.07265886515552
 21
-28.293687564308499
  0
LINE
  8
_0-1__U_30EC_U_30A4_U_30E4_U_30FC_1
  6
CONTINUOUS
 62
    7
 10
600.07265886515552
 20
-28.293687564308499
 11
600.6011365125928
 21
-22.043939844516814
  0
LINE
  8
_0-1__U_30EC_U_30A4_U_30E4_U_30FC_1
  6
CONTINUOUS
 62
    7
 10
600.6011365125928
 20
31.040675213826603
 11
600.07265886515552
 21
37.289217150198496
  0
LINE
  8
_0-1__U_30EC_U_30A4_U_30E4_U_30FC_1
  6
CONTINUOUS
 62
    7
 10
600.07265886515552
 20
37.289217150198496
 11
598.83552507640218
 21
47.697884139783895
  0
LINE
  8
_0-1__U_30EC_U_30A4_U_30E4_U_30FC_1
  6
CONTINUOUS
 62
    7
 10
592.27950836797186
 20
48.148330374480295
 11
593.03949643201804
 21
48.148330374480295
  0
LINE
  8
_0-1__U_30EC_U_30A4_U_30E4_U_30FC_1
  6
CONTINUOUS
 62
    7
 10
593.03949643201804
 20
48.148330374480295
 11
593.03949643201804
 21
-39.145738342845505
  0
LINE
  8
_0-1__U_30EC_U_30A4_U_30E4_U_30FC_1
  6
CONTINUOUS
 62
    7
 10
593.03949643201804
 20
-39.145738342845505
 11
592.27950836797186
 21
-39.145738342845505
  0
LINE
  8
_0-1__U_30EC_U_30A4_U_30E4_U_30FC_1
  6
CONTINUOUS
 62
    7
 10
592.27950836797186
 20
-39.145738342845505
 11
592.27950836797186
 21
48.148330374480295
  0
LINE
  8
_0-1__U_30EC_U_30A4_U_30E4_U_30FC_1
  6
CONTINUOUS
 62
    7
 10
591.92741960937929
 20
-39.499894158729205
 11
593.38814009512521
 21
-39.499894158729205
  0
LINE
  8
_0-1__U_30EC_U_30A4_U_30E4_U_30FC_1
  6
CONTINUOUS
 62
    7
 10
593.38814009512521
 20
-39.499894158729205
 11
593.38814009512521
 21
48.500074623524284
  0
LINE
  8
_0-1__U_30EC_U_30A4_U_30E4_U_30FC_1
  6
CONTINUOUS
 62
    7
 10
593.38814009512521
 20
48.500074623524284
 11
591.92741960937929
 21
48.500074623524284
  0
LINE
  8
_0-1__U_30EC_U_30A4_U_30E4_U_30FC_1
  6
CONTINUOUS
 62
    7
 10
591.92741960937929
 20
48.500074623524284
 11
591.92741960937929
 21
-39.499894158729205
  0
LINE
  8
_0-1__U_30EC_U_30A4_U_30E4_U_30FC_1
  6
CONTINUOUS
 62
    7
 10
602.99995649897232
 20
-21.499959267395838
 11
602.99995649897232
 21
-51.499850752951403
  0
LINE
  8
_0-1__U_30EC_U_30A4_U_30E4_U_30FC_1
  6
CONTINUOUS
 62
    7
 10
592.00011112411812
 20
-41.49977208791671
 11
592.00011112411812
 21
-51.499850752951403
  0
INSERT
  2
-004-block_5
  8
_0-1__U_30EC_U_30A4_U_30E4_U_30FC_1
 10
210
 20
148.5
 41
1000000
 42
1000000
 50
0
  0
LINE
  8
_0-1__U_30EC_U_30A4_U_30E4_U_30FC_1
  6
CONTINUOUS
 62
    7
 10
602.99995649897232
 20
-51.499850752951403
 11
592.00011112411812
 21
-51.499850752951403
  0
LINE
  8
_0-1__U_30EC_U_30A4_U_30E4_U_30FC_1
  6
CONTINUOUS
 62
    7
 10
304.32137448813842
 20
4.4993150859133948
 11
304.5943983053445
 21
4.7275526618111883
  0
LINE
  8
_0-1__U_30EC_U_30A4_U_30E4_U_30FC_1
  6
CONTINUOUS
 62
    7
 10
304.5943983053445
 20
4.7275526618111883
 11
304.86759437732479
 21
4.9559624924831951
  0
LINE
  8
_0-1__U_30EC_U_30A4_U_30E4_U_30FC_1
  6
CONTINUOUS
 62
    7
 10
304.86759437732479
 20
4.9559624924831951
 11
305.14061819453082
 21
5.1843723231552872
  0
LINE
  8
_0-1__U_30EC_U_30A4_U_30E4_U_30FC_1
  6
CONTINUOUS
 62
    7
 10
305.14061819453082
 20
5.1843723231552872
 11
305.4136420117369
 21
5.4127821538274077
  0
LINE
  8
_0-1__U_30EC_U_30A4_U_30E4_U_30FC_1
  6
CONTINUOUS
 62
    7
 10
305.4136420117369
 20
5.4127821538274077
 11
305.4136420117369
 21
7.6846503715754011
  0
LINE
  8
_0-1__U_30EC_U_30A4_U_30E4_U_30FC_1
  6
CONTINUOUS
 62
    7
 10
305.4136420117369
 20
7.6846503715754011
 11
305.4136420117369
 21
9.9565185893233945
  0
LINE
  8
_0-1__U_30EC_U_30A4_U_30E4_U_30FC_1
  6
CONTINUOUS
 62
    7
 10
305.4136420117369
 20
9.9565185893233945
 11
305.4136420117369
 21
12.228559061845601
  0
LINE
  8
_0-1__U_30EC_U_30A4_U_30E4_U_30FC_1
  6
CONTINUOUS
 62
    7
 10
305.4136420117369
 20
12.228559061845601
 11
305.4136420117369
 21
14.500427279593595
  0
LINE
  8
_0-1__U_30EC_U_30A4_U_30E4_U_30FC_1
  6
CONTINUOUS
 62
    7
 10
305.41415877605965
 20
14.500427279593595
 11
303.65388723787123
 21
19.245185036653993
  0
LINE
  8
_0-1__U_30EC_U_30A4_U_30E4_U_30FC_1
  6
CONTINUOUS
 62
    7
 10
303.65388723787123
 20
19.245185036653993
 11
301.35686982308096
 21
23.677817142750712
  0
LINE
  8
_0-1__U_30EC_U_30A4_U_30E4_U_30FC_1
  6
CONTINUOUS
 62
    7
 10
301.35686982308096
 20
23.677817142750712
 11
298.5651366966087
 21
27.753881866124004
  0
LINE
  8
_0-1__U_30EC_U_30A4_U_30E4_U_30FC_1
  6
CONTINUOUS
 62
    7
 10
298.5651366966087
 20
27.753881866124004
 11
295.32106253292318
 21
31.429971003659915
  0
LINE
  8
_0-1__U_30EC_U_30A4_U_30E4_U_30FC_1
  6
CONTINUOUS
 62
    7
 10
295.32106253292318
 20
31.429971003659915
 11
294.90816783901602
 21
31.429971003659915
  0
LINE
  8
_0-1__U_30EC_U_30A4_U_30E4_U_30FC_1
  6
CONTINUOUS
 62
    7
 10
294.90816783901602
 20
31.429971003659915
 11
294.49527314510885
 21
31.429971003659915
  0
LINE
  8
_0-1__U_30EC_U_30A4_U_30E4_U_30FC_1
  6
CONTINUOUS
 62
    7
 10
294.49527314510885
 20
31.429971003659915
 11
294.08237845120163
 21
31.429971003659915
  0
LINE
  8
_0-1__U_30EC_U_30A4_U_30E4_U_30FC_1
  6
CONTINUOUS
 62
    7
 10
294.08237845120163
 20
31.429971003659915
 11
293.66948375729442
 21
31.429971003659915
  0
LINE
  8
_0-1__U_30EC_U_30A4_U_30E4_U_30FC_1
  6
CONTINUOUS
 62
    7
 10
293.66948375729442
 20
31.429971003659915
 11
293.63692760495883
 21
31.849411378989004
  0
LINE
  8
_0-1__U_30EC_U_30A4_U_30E4_U_30FC_1
  6
CONTINUOUS
 62
    7
 10
293.63692760495883
 20
31.849411378989004
 11
293.60419919784897
 21
32.269024009092504
  0
LINE
  8
_0-1__U_30EC_U_30A4_U_30E4_U_30FC_1
  6
CONTINUOUS
 62
    7
 10
293.60419919784897
 20
32.269024009092504
 11
293.57164304551333
 21
32.688464384421593
  0
LINE
  8
_0-1__U_30EC_U_30A4_U_30E4_U_30FC_1
  6
CONTINUOUS
 62
    7
 10
293.57164304551333
 20
32.688464384421593
 11
293.53908689317774
 21
33.107904759750795
  0
LINE
  8
_0-1__U_30EC_U_30A4_U_30E4_U_30FC_1
  6
CONTINUOUS
 62
    7
 10
293.53839787408072
 20
33.107904759750795
 11
290.00528019918272
 21
35.886202013830498
  0
LINE
  8
_0-1__U_30EC_U_30A4_U_30E4_U_30FC_1
  6
CONTINUOUS
 62
    7
 10
290.00528019918272
 20
35.886202013830498
 11
286.17398951003634
 21
38.234034587028304
  0
LINE
  8
_0-1__U_30EC_U_30A4_U_30E4_U_30FC_1
  6
CONTINUOUS
 62
    7
 10
286.17398951003634
 20
38.234034587028304
 11
282.07708195897726
 21
40.116951524491583
  0
LINE
  8
_0-1__U_30EC_U_30A4_U_30E4_U_30FC_1
  6
CONTINUOUS
 62
    7
 10
282.07708195897726
 20
40.116951524491583
 11
277.74745820788951
 21
41.499985107045106
  0
LINE
  8
_0-1__U_30EC_U_30A4_U_30E4_U_30FC_1
  6
CONTINUOUS
 62
    7
 10
277.74745820788951
 20
41.498779323625286
 11
275.50366751834633
 21
41.498779323625286
  0
LINE
  8
_0-1__U_30EC_U_30A4_U_30E4_U_30FC_1
  6
CONTINUOUS
 62
    7
 10
275.50366751834633
 20
41.498779323625286
 11
273.2598768288031
 21
41.498779323625286
  0
LINE
  8
_0-1__U_30EC_U_30A4_U_30E4_U_30FC_1
  6
CONTINUOUS
 62
    7
 10
273.2598768288031
 20
41.498779323625286
 11
271.01608613925987
 21
41.498779323625286
  0
LINE
  8
_0-1__U_30EC_U_30A4_U_30E4_U_30FC_1
  6
CONTINUOUS
 62
    7
 10
271.01608613925987
 20
41.498779323625286
 11
268.77229544971664
 21
41.498779323625286
  0
LINE
  8
_0-1__U_30EC_U_30A4_U_30E4_U_30FC_1
  6
CONTINUOUS
 62
    7
 10
268.77229544971664
 20
41.498779323625286
 11
268.50598956870681
 21
41.237468831069094
  0
LINE
  8
_0-1__U_30EC_U_30A4_U_30E4_U_30FC_1
  6
CONTINUOUS
 62
    7
 10
268.50598956870681
 20
41.237468831069094
 11
268.23968368769704
 21
40.976158338512903
  0
LINE
  8
_0-1__U_30EC_U_30A4_U_30E4_U_30FC_1
  6
CONTINUOUS
 62
    7
 10
268.23968368769704
 20
40.976158338512903
 11
267.97337780668721
 21
40.715020100730982
  0
LINE
  8
_0-1__U_30EC_U_30A4_U_30E4_U_30FC_1
  6
CONTINUOUS
 62
    7
 10
267.97337780668721
 20
40.715020100730982
 11
267.70707192567738
 21
40.45370960817479
  0
LINE
  8
_0-1__U_30EC_U_30A4_U_30E4_U_30FC_1
  6
CONTINUOUS
 62
    7
 10
304.32137448813842
 20
4.4993150859133948
 11
304.5943983053445
 21
4.2710775100154876
  0
LINE
  8
_0-1__U_30EC_U_30A4_U_30E4_U_30FC_1
  6
CONTINUOUS
 62
    7
 10
304.5943983053445
 20
4.2710775100154876
 11
304.86759437732479
 21
4.0426676793435092
  0
LINE
  8
_0-1__U_30EC_U_30A4_U_30E4_U_30FC_1
  6
CONTINUOUS
 62
    7
 10
304.86759437732479
 20
4.0426676793435092
 11
305.14061819453082
 21
3.8142578486713603
  0
LINE
  8
_0-1__U_30EC_U_30A4_U_30E4_U_30FC_1
  6
CONTINUOUS
 62
    7
 10
305.14061819453082
 20
3.8142578486713603
 11
305.4136420117369
 21
3.5858480179994103
  0
LINE
  8
_0-1__U_30EC_U_30A4_U_30E4_U_30FC_1
  6
CONTINUOUS
 62
    7
 10
305.4136420117369
 20
3.5858480179994103
 11
305.4136420117369
 21
1.3136352907027913
  0
LINE
  8
_0-1__U_30EC_U_30A4_U_30E4_U_30FC_1
  6
CONTINUOUS
 62
    7
 10
305.4136420117369
 20
1.3136352907027913
 11
305.4136420117369
 21
-0.958577436593714
  0
LINE
  8
_0-1__U_30EC_U_30A4_U_30E4_U_30FC_1
  6
CONTINUOUS
 62
    7
 10
305.4136420117369
 20
-0.958577436593714
 11
305.4136420117369
 21
-3.2306179091160061
  0
LINE
  8
_0-1__U_30EC_U_30A4_U_30E4_U_30FC_1
  6
CONTINUOUS
 62
    7
 10
305.4136420117369
 20
-3.2306179091160061
 11
305.4136420117369
 21
-5.5026583816382129
  0
LINE
  8
_0-1__U_30EC_U_30A4_U_30E4_U_30FC_1
  6
CONTINUOUS
 62
    7
 10
305.41415877605965
 20
-5.5026583816382129
 11
303.65388723787123
 21
-10.247588393472796
  0
LINE
  8
_0-1__U_30EC_U_30A4_U_30E4_U_30FC_1
  6
CONTINUOUS
 62
    7
 10
303.65388723787123
 20
-10.247588393472796
 11
301.35686982308096
 21
-14.679359225698192
  0
LINE
  8
_0-1__U_30EC_U_30A4_U_30E4_U_30FC_1
  6
CONTINUOUS
 62
    7
 10
301.35686982308096
 20
-14.679359225698192
 11
298.5651366966087
 21
-18.754907184748788
  0
LINE
  8
_0-1__U_30EC_U_30A4_U_30E4_U_30FC_1
  6
CONTINUOUS
 62
    7
 10
298.5651366966087
 20
-18.754907184748788
 11
295.32106253292318
 21
-22.430135048413263
  0
LINE
  8
_0-1__U_30EC_U_30A4_U_30E4_U_30FC_1
  6
CONTINUOUS
 62
    7
 10
295.32106253292318
 20
-22.430135048413263
 11
294.90816783901602
 21
-22.430135048413263
  0
LINE
  8
_0-1__U_30EC_U_30A4_U_30E4_U_30FC_1
  6
CONTINUOUS
 62
    7
 10
294.90816783901602
 20
-22.430135048413263
 11
294.49527314510885
 21
-22.430135048413263
  0
LINE
  8
_0-1__U_30EC_U_30A4_U_30E4_U_30FC_1
  6
CONTINUOUS
 62
    7
 10
294.49527314510885
 20
-22.430135048413263
 11
294.08237845120163
 21
-22.430135048413263
  0
LINE
  8
_0-1__U_30EC_U_30A4_U_30E4_U_30FC_1
  6
CONTINUOUS
 62
    7
 10
294.08237845120163
 20
-22.430135048413263
 11
293.66948375729442
 21
-22.430135048413263
  0
LINE
  8
_0-1__U_30EC_U_30A4_U_30E4_U_30FC_1
  6
CONTINUOUS
 62
    7
 10
293.66948375729442
 20
-22.430135048413263
 11
293.63692760495883
 21
-22.850092188065304
  0
LINE
  8
_0-1__U_30EC_U_30A4_U_30E4_U_30FC_1
  6
CONTINUOUS
 62
    7
 10
293.63692760495883
 20
-22.850092188065304
 11
293.60419919784897
 21
-23.270393837265686
  0
LINE
  8
_0-1__U_30EC_U_30A4_U_30E4_U_30FC_1
  6
CONTINUOUS
 62
    7
 10
293.60419919784897
 20
-23.270393837265686
 11
293.57164304551333
 21
-23.690350976917728
  0
LINE
  8
_0-1__U_30EC_U_30A4_U_30E4_U_30FC_1
  6
CONTINUOUS
 62
    7
 10
293.57164304551333
 20
-23.690350976917728
 11
293.53908689317774
 21
-24.11030811656974
  0
LINE
  8
_0-1__U_30EC_U_30A4_U_30E4_U_30FC_1
  6
CONTINUOUS
 62
    7
 10
293.53839787408072
 20
-24.11030811656974
 11
290.00528019918272
 21
-26.88808860632659
  0
LINE
  8
_0-1__U_30EC_U_30A4_U_30E4_U_30FC_1
  6
CONTINUOUS
 62
    7
 10
290.00528019918272
 20
-26.88808860632659
 11
286.17398951003634
 21
-29.235232160427302
  0
LINE
  8
_0-1__U_30EC_U_30A4_U_30E4_U_30FC_1
  6
CONTINUOUS
 62
    7
 10
286.17398951003634
 20
-29.235232160427302
 11
282.07708195897726
 21
-31.117287824019286
  0
LINE
  8
_0-1__U_30EC_U_30A4_U_30E4_U_30FC_1
  6
CONTINUOUS
 62
    7
 10
282.07708195897726
 20
-31.117287824019286
 11
277.74745820788951
 21
-32.50014915179861
  0
LINE
  8
_0-1__U_30EC_U_30A4_U_30E4_U_30FC_1
  6
CONTINUOUS
 62
    7
 10
277.74745820788951
 20
-32.499115623152989
 11
275.50366751834633
 21
-32.499115623152989
  0
LINE
  8
_0-1__U_30EC_U_30A4_U_30E4_U_30FC_1
  6
CONTINUOUS
 62
    7
 10
275.50366751834633
 20
-32.499115623152989
 11
273.2598768288031
 21
-32.499115623152989
  0
LINE
  8
_0-1__U_30EC_U_30A4_U_30E4_U_30FC_1
  6
CONTINUOUS
 62
    7
 10
273.2598768288031
 20
-32.499115623152989
 11
271.01608613925987
 21
-32.499115623152989
  0
LINE
  8
_0-1__U_30EC_U_30A4_U_30E4_U_30FC_1
  6
CONTINUOUS
 62
    7
 10
271.01608613925987
 20
-32.499115623152989
 11
268.77229544971664
 21
-32.499115623152989
  0
LINE
  8
_0-1__U_30EC_U_30A4_U_30E4_U_30FC_1
  6
CONTINUOUS
 62
    7
 10
268.77229544971664
 20
-32.499115623152989
 11
268.50598956870681
 21
-32.237977385371096
  0
LINE
  8
_0-1__U_30EC_U_30A4_U_30E4_U_30FC_1
  6
CONTINUOUS
 62
    7
 10
268.50598956870681
 20
-32.237977385371096
 11
268.23968368769704
 21
-31.976839147589089
  0
LINE
  8
_0-1__U_30EC_U_30A4_U_30E4_U_30FC_1
  6
CONTINUOUS
 62
    7
 10
268.23968368769704
 20
-31.976839147589089
 11
267.97337780668721
 21
-31.715700909807197
  0
LINE
  8
_0-1__U_30EC_U_30A4_U_30E4_U_30FC_1
  6
CONTINUOUS
 62
    7
 10
267.97337780668721
 20
-31.715700909807197
 11
267.70707192567738
 21
-31.454907181573788
  0
LINE
  8
_0-1__U_30EC_U_30A4_U_30E4_U_30FC_1
  6
CONTINUOUS
 62
    7
 10
231.09328612753919
 20
4.4993150859133948
 11
230.82009005555886
 21
4.7275526618111883
  0
LINE
  8
_0-1__U_30EC_U_30A4_U_30E4_U_30FC_1
  6
CONTINUOUS
 62
    7
 10
230.82009005555886
 20
4.7275526618111883
 11
230.54689398357857
 21
4.9559624924831951
  0
LINE
  8
_0-1__U_30EC_U_30A4_U_30E4_U_30FC_1
  6
CONTINUOUS
 62
    7
 10
230.54689398357857
 20
4.9559624924831951
 11
230.27369791159825
 21
5.1843723231552872
  0
LINE
  8
_0-1__U_30EC_U_30A4_U_30E4_U_30FC_1
  6
CONTINUOUS
 62
    7
 10
230.27369791159825
 20
5.1843723231552872
 11
230.00050183961793
 21
5.4127821538274077
  0
LINE
  8
_0-1__U_30EC_U_30A4_U_30E4_U_30FC_1
  6
CONTINUOUS
 62
    7
 10
230.00050183961793
 20
5.4127821538274077
 11
230.00050183961793
 21
7.6846503715754011
  0
LINE
  8
_0-1__U_30EC_U_30A4_U_30E4_U_30FC_1
  6
CONTINUOUS
 62
    7
 10
230.00050183961793
 20
7.6846503715754011
 11
230.00050183961793
 21
9.9565185893233945
  0
LINE
  8
_0-1__U_30EC_U_30A4_U_30E4_U_30FC_1
  6
CONTINUOUS
 62
    7
 10
230.00050183961793
 20
9.9565185893233945
 11
230.00050183961793
 21
12.228559061845601
  0
LINE
  8
_0-1__U_30EC_U_30A4_U_30E4_U_30FC_1
  6
CONTINUOUS
 62
    7
 10
230.00050183961793
 20
12.228559061845601
 11
230.00050183961793
 21
14.500427279593595
  0
LINE
  8
_0-1__U_30EC_U_30A4_U_30E4_U_30FC_1
  6
CONTINUOUS
 62
    7
 10
229.99998507529514
 20
14.500427279593595
 11
231.76060112303207
 21
19.245185036653993
  0
LINE
  8
_0-1__U_30EC_U_30A4_U_30E4_U_30FC_1
  6
CONTINUOUS
 62
    7
 10
231.76060112303207
 20
19.245185036653993
 11
234.05761853782241
 21
23.677817142750712
  0
LINE
  8
_0-1__U_30EC_U_30A4_U_30E4_U_30FC_1
  6
CONTINUOUS
 62
    7
 10
234.05761853782241
 20
23.677817142750712
 11
236.84900715474609
 21
27.753881866124004
  0
LINE
  8
_0-1__U_30EC_U_30A4_U_30E4_U_30FC_1
  6
CONTINUOUS
 62
    7
 10
236.84900715474609
 20
27.753881866124004
 11
240.09308131843159
 21
31.429971003659915
  0
LINE
  8
_0-1__U_30EC_U_30A4_U_30E4_U_30FC_1
  6
CONTINUOUS
 62
    7
 10
240.09308131843159
 20
31.429971003659915
 11
240.50597601233878
 21
31.429971003659915
  0
LINE
  8
_0-1__U_30EC_U_30A4_U_30E4_U_30FC_1
  6
CONTINUOUS
 62
    7
 10
240.50597601233878
 20
31.429971003659915
 11
240.91869845147173
 21
31.429971003659915
  0
LINE
  8
_0-1__U_30EC_U_30A4_U_30E4_U_30FC_1
  6
CONTINUOUS
 62
    7
 10
240.91869845147173
 20
31.429971003659915
 11
241.33159314537892
 21
31.429971003659915
  0
LINE
  8
_0-1__U_30EC_U_30A4_U_30E4_U_30FC_1
  6
CONTINUOUS
 62
    7
 10
241.33159314537892
 20
31.429971003659915
 11
241.74448783928611
 21
31.429971003659915
  0
LINE
  8
_0-1__U_30EC_U_30A4_U_30E4_U_30FC_1
  6
CONTINUOUS
 62
    7
 10
241.74448783928611
 20
31.429971003659915
 11
241.77721624639599
 21
31.849411378989004
  0
LINE
  8
_0-1__U_30EC_U_30A4_U_30E4_U_30FC_1
  6
CONTINUOUS
 62
    7
 10
241.77721624639599
 20
31.849411378989004
 11
241.80994465350585
 21
32.269024009092504
  0
LINE
  8
_0-1__U_30EC_U_30A4_U_30E4_U_30FC_1
  6
CONTINUOUS
 62
    7
 10
241.80994465350585
 20
32.269024009092504
 11
241.84267306061571
 21
32.688464384421593
  0
LINE
  8
_0-1__U_30EC_U_30A4_U_30E4_U_30FC_1
  6
CONTINUOUS
 62
    7
 10
241.84267306061571
 20
32.688464384421593
 11
241.87522921295133
 21
33.107904759750795
  0
LINE
  8
_0-1__U_30EC_U_30A4_U_30E4_U_30FC_1
  6
CONTINUOUS
 62
    7
 10
241.87591823204838
 20
33.107904759750795
 11
245.4088636521721
 21
35.886202013830498
  0
LINE
  8
_0-1__U_30EC_U_30A4_U_30E4_U_30FC_1
  6
CONTINUOUS
 62
    7
 10
245.4088636521721
 20
35.886202013830498
 11
249.2403265960927
 21
38.234034587028304
  0
LINE
  8
_0-1__U_30EC_U_30A4_U_30E4_U_30FC_1
  6
CONTINUOUS
 62
    7
 10
249.2403265960927
 20
38.234034587028304
 11
253.3372341471518
 21
40.116951524491583
  0
LINE
  8
_0-1__U_30EC_U_30A4_U_30E4_U_30FC_1
  6
CONTINUOUS
 62
    7
 10
253.3372341471518
 20
40.116951524491583
 11
257.66685789823953
 21
41.499985107045106
  0
LINE
  8
_0-1__U_30EC_U_30A4_U_30E4_U_30FC_1
  6
CONTINUOUS
 62
    7
 10
257.66685789823953
 20
41.498779323625286
 11
259.91047633300849
 21
41.498779323625286
  0
LINE
  8
_0-1__U_30EC_U_30A4_U_30E4_U_30FC_1
  6
CONTINUOUS
 62
    7
 10
259.91047633300849
 20
41.498779323625286
 11
262.15426702255172
 21
41.498779323625286
  0
LINE
  8
_0-1__U_30EC_U_30A4_U_30E4_U_30FC_1
  6
CONTINUOUS
 62
    7
 10
262.15426702255172
 20
41.498779323625286
 11
264.39805771209495
 21
41.498779323625286
  0
LINE
  8
_0-1__U_30EC_U_30A4_U_30E4_U_30FC_1
  6
CONTINUOUS
 62
    7
 10
264.39805771209495
 20
41.498779323625286
 11
266.64184840163813
 21
41.498779323625286
  0
LINE
  8
_0-1__U_30EC_U_30A4_U_30E4_U_30FC_1
  6
CONTINUOUS
 62
    7
 10
266.64184840163813
 20
41.498779323625286
 11
266.90815428264796
 21
41.237468831069094
  0
LINE
  8
_0-1__U_30EC_U_30A4_U_30E4_U_30FC_1
  6
CONTINUOUS
 62
    7
 10
266.90815428264796
 20
41.237468831069094
 11
267.17446016365778
 21
40.976158338512903
  0
LINE
  8
_0-1__U_30EC_U_30A4_U_30E4_U_30FC_1
  6
CONTINUOUS
 62
    7
 10
267.17446016365778
 20
40.976158338512903
 11
267.44076604466761
 21
40.715020100730982
  0
LINE
  8
_0-1__U_30EC_U_30A4_U_30E4_U_30FC_1
  6
CONTINUOUS
 62
    7
 10
267.44076604466761
 20
40.715020100730982
 11
267.70707192567738
 21
40.45370960817479
  0
LINE
  8
_0-1__U_30EC_U_30A4_U_30E4_U_30FC_1
  6
CONTINUOUS
 62
    7
 10
231.09328612753919
 20
4.4993150859133948
 11
230.82009005555886
 21
4.2710775100154876
  0
LINE
  8
_0-1__U_30EC_U_30A4_U_30E4_U_30FC_1
  6
CONTINUOUS
 62
    7
 10
230.82009005555886
 20
4.2710775100154876
 11
230.54689398357857
 21
4.0426676793435092
  0
LINE
  8
_0-1__U_30EC_U_30A4_U_30E4_U_30FC_1
  6
CONTINUOUS
 62
    7
 10
230.54689398357857
 20
4.0426676793435092
 11
230.27369791159825
 21
3.8142578486713603
  0
LINE
  8
_0-1__U_30EC_U_30A4_U_30E4_U_30FC_1
  6
CONTINUOUS
 62
    7
 10
230.27369791159825
 20
3.8142578486713603
 11
230.00050183961793
 21
3.5858480179994103
  0
LINE
  8
_0-1__U_30EC_U_30A4_U_30E4_U_30FC_1
  6
CONTINUOUS
 62
    7
 10
230.00050183961793
 20
3.5858480179994103
 11
230.00050183961793
 21
1.3136352907027913
  0
LINE
  8
_0-1__U_30EC_U_30A4_U_30E4_U_30FC_1
  6
CONTINUOUS
 62
    7
 10
230.00050183961793
 20
1.3136352907027913
 11
230.00050183961793
 21
-0.958577436593714
  0
LINE
  8
_0-1__U_30EC_U_30A4_U_30E4_U_30FC_1
  6
CONTINUOUS
 62
    7
 10
230.00050183961793
 20
-0.958577436593714
 11
230.00050183961793
 21
-3.2306179091160061
  0
LINE
  8
_0-1__U_30EC_U_30A4_U_30E4_U_30FC_1
  6
CONTINUOUS
 62
    7
 10
230.00050183961793
 20
-3.2306179091160061
 11
230.00050183961793
 21
-5.5026583816382129
  0
LINE
  8
_0-1__U_30EC_U_30A4_U_30E4_U_30FC_1
  6
CONTINUOUS
 62
    7
 10
229.99998507529514
 20
-5.5026583816382129
 11
231.76060112303207
 21
-10.247588393472796
  0
LINE
  8
_0-1__U_30EC_U_30A4_U_30E4_U_30FC_1
  6
CONTINUOUS
 62
    7
 10
231.76060112303207
 20
-10.247588393472796
 11
234.05761853782241
 21
-14.679359225698192
  0
LINE
  8
_0-1__U_30EC_U_30A4_U_30E4_U_30FC_1
  6
CONTINUOUS
 62
    7
 10
234.05761853782241
 20
-14.679359225698192
 11
236.84900715474609
 21
-18.754907184748788
  0
LINE
  8
_0-1__U_30EC_U_30A4_U_30E4_U_30FC_1
  6
CONTINUOUS
 62
    7
 10
236.84900715474609
 20
-18.754907184748788
 11
240.09308131843159
 21
-22.430135048413263
  0
LINE
  8
_0-1__U_30EC_U_30A4_U_30E4_U_30FC_1
  6
CONTINUOUS
 62
    7
 10
240.09308131843159
 20
-22.430135048413263
 11
240.50597601233878
 21
-22.430135048413263
  0
LINE
  8
_0-1__U_30EC_U_30A4_U_30E4_U_30FC_1
  6
CONTINUOUS
 62
    7
 10
240.50597601233878
 20
-22.430135048413263
 11
240.91869845147173
 21
-22.430135048413263
  0
LINE
  8
_0-1__U_30EC_U_30A4_U_30E4_U_30FC_1
  6
CONTINUOUS
 62
    7
 10
240.91869845147173
 20
-22.430135048413263
 11
241.33159314537892
 21
-22.430135048413263
  0
LINE
  8
_0-1__U_30EC_U_30A4_U_30E4_U_30FC_1
  6
CONTINUOUS
 62
    7
 10
241.33159314537892
 20
-22.430135048413263
 11
241.74448783928611
 21
-22.430135048413263
  0
LINE
  8
_0-1__U_30EC_U_30A4_U_30E4_U_30FC_1
  6
CONTINUOUS
 62
    7
 10
241.74448783928611
 20
-22.430135048413263
 11
241.77721624639599
 21
-22.850092188065304
  0
LINE
  8
_0-1__U_30EC_U_30A4_U_30E4_U_30FC_1
  6
CONTINUOUS
 62
    7
 10
241.77721624639599
 20
-22.850092188065304
 11
241.80994465350585
 21
-23.270393837265686
  0
LINE
  8
_0-1__U_30EC_U_30A4_U_30E4_U_30FC_1
  6
CONTINUOUS
 62
    7
 10
241.80994465350585
 20
-23.270393837265686
 11
241.84267306061571
 21
-23.690350976917728
  0
LINE
  8
_0-1__U_30EC_U_30A4_U_30E4_U_30FC_1
  6
CONTINUOUS
 62
    7
 10
241.84267306061571
 20
-23.690350976917728
 11
241.87522921295133
 21
-24.11030811656974
  0
LINE
  8
_0-1__U_30EC_U_30A4_U_30E4_U_30FC_1
  6
CONTINUOUS
 62
    7
 10
241.87591823204838
 20
-24.11030811656974
 11
245.4088636521721
 21
-26.88808860632659
  0
LINE
  8
_0-1__U_30EC_U_30A4_U_30E4_U_30FC_1
  6
CONTINUOUS
 62
    7
 10
245.4088636521721
 20
-26.88808860632659
 11
249.2403265960927
 21
-29.235232160427302
  0
LINE
  8
_0-1__U_30EC_U_30A4_U_30E4_U_30FC_1
  6
CONTINUOUS
 62
    7
 10
249.2403265960927
 20
-29.235232160427302
 11
253.3372341471518
 21
-31.117287824019286
  0
LINE
  8
_0-1__U_30EC_U_30A4_U_30E4_U_30FC_1
  6
CONTINUOUS
 62
    7
 10
253.3372341471518
 20
-31.117287824019286
 11
257.66685789823953
 21
-32.50014915179861
  0
LINE
  8
_0-1__U_30EC_U_30A4_U_30E4_U_30FC_1
  6
CONTINUOUS
 62
    7
 10
257.66685789823953
 20
-32.499115623152989
 11
259.91047633300849
 21
-32.499115623152989
  0
LINE
  8
_0-1__U_30EC_U_30A4_U_30E4_U_30FC_1
  6
CONTINUOUS
 62
    7
 10
259.91047633300849
 20
-32.499115623152989
 11
262.15426702255172
 21
-32.499115623152989
  0
LINE
  8
_0-1__U_30EC_U_30A4_U_30E4_U_30FC_1
  6
CONTINUOUS
 62
    7
 10
262.15426702255172
 20
-32.499115623152989
 11
264.39805771209495
 21
-32.499115623152989
  0
LINE
  8
_0-1__U_30EC_U_30A4_U_30E4_U_30FC_1
  6
CONTINUOUS
 62
    7
 10
264.39805771209495
 20
-32.499115623152989
 11
266.64184840163813
 21
-32.499115623152989
  0
LINE
  8
_0-1__U_30EC_U_30A4_U_30E4_U_30FC_1
  6
CONTINUOUS
 62
    7
 10
266.64184840163813
 20
-32.499115623152989
 11
266.90815428264796
 21
-32.237977385371096
  0
LINE
  8
_0-1__U_30EC_U_30A4_U_30E4_U_30FC_1
  6
CONTINUOUS
 62
    7
 10
266.90815428264796
 20
-32.237977385371096
 11
267.17446016365778
 21
-31.976839147589089
  0
LINE
  8
_0-1__U_30EC_U_30A4_U_30E4_U_30FC_1
  6
CONTINUOUS
 62
    7
 10
267.17446016365778
 20
-31.976839147589089
 11
267.44076604466761
 21
-31.715700909807197
  0
LINE
  8
_0-1__U_30EC_U_30A4_U_30E4_U_30FC_1
  6
CONTINUOUS
 62
    7
 10
267.44076604466761
 20
-31.715700909807197
 11
267.70707192567738
 21
-31.454907181573788
  0
LINE
  8
_0-1__U_30EC_U_30A4_U_30E4_U_30FC_1
  6
CONTINUOUS
 62
    7
 10
238.53124728019358
 20
7.4753608208463902
 11
234.82122395212804
 21
7.4753608208463902
  0
LINE
  8
_0-1__U_30EC_U_30A4_U_30E4_U_30FC_1
  6
CONTINUOUS
 62
    7
 10
239.13482800920934
 20
3.9046916051592007
 11
238.55364040084771
 21
2.4382867118625882
  0
LINE
  8
_0-1__U_30EC_U_30A4_U_30E4_U_30FC_1
  6
CONTINUOUS
 62
    7
 10
238.55364040084771
 20
2.4382867118625882
 11
237.1511420288025
 21
1.8310886325874094
  0
LINE
  8
_0-1__U_30EC_U_30A4_U_30E4_U_30FC_1
  6
CONTINUOUS
 62
    7
 10
237.1511420288025
 20
1.8310886325874094
 11
235.74864365675728
 21
2.4382867118625882
  0
LINE
  8
_0-1__U_30EC_U_30A4_U_30E4_U_30FC_1
  6
CONTINUOUS
 62
    7
 10
235.74864365675728
 20
2.4382867118625882
 11
235.16762830316989
 21
3.9046916051592007
  0
LINE
  8
_0-1__U_30EC_U_30A4_U_30E4_U_30FC_1
  6
CONTINUOUS
 62
    7
 10
235.16762830316989
 20
3.9046916051592007
 11
235.74864365675728
 21
5.3693739507131681
  0
LINE
  8
_0-1__U_30EC_U_30A4_U_30E4_U_30FC_1
  6
CONTINUOUS
 62
    7
 10
235.74864365675728
 20
5.3693739507131681
 11
237.1511420288025
 21
5.9767442847627876
  0
LINE
  8
_0-1__U_30EC_U_30A4_U_30E4_U_30FC_1
  6
CONTINUOUS
 62
    7
 10
237.1511420288025
 20
5.9767442847627876
 11
238.55364040084771
 21
5.3693739507131681
  0
LINE
  8
_0-1__U_30EC_U_30A4_U_30E4_U_30FC_1
  6
CONTINUOUS
 62
    7
 10
238.55364040084771
 20
5.3693739507131681
 11
239.13482800920934
 21
3.9046916051592007
  0
LINE
  8
_0-1__U_30EC_U_30A4_U_30E4_U_30FC_1
  6
CONTINUOUS
 62
    7
 10
238.9486205982316
 20
3.9046916051592007
 11
238.42203775331114
 21
2.5766072955954087
  0
LINE
  8
_0-1__U_30EC_U_30A4_U_30E4_U_30FC_1
  6
CONTINUOUS
 62
    7
 10
238.42203775331114
 20
2.5766072955954087
 11
237.1511420288025
 21
2.0267700561495872
  0
LINE
  8
_0-1__U_30EC_U_30A4_U_30E4_U_30FC_1
  6
CONTINUOUS
 62
    7
 10
237.1511420288025
 20
2.0267700561495872
 11
235.87990179474531
 21
2.5766072955954087
  0
LINE
  8
_0-1__U_30EC_U_30A4_U_30E4_U_30FC_1
  6
CONTINUOUS
 62
    7
 10
235.87990179474531
 20
2.5766072955954087
 11
235.35297444027634
 21
3.9046916051592007
  0
LINE
  8
_0-1__U_30EC_U_30A4_U_30E4_U_30FC_1
  6
CONTINUOUS
 62
    7
 10
235.35297444027634
 20
3.9046916051592007
 11
235.87990179474531
 21
5.2319146408516986
  0
LINE
  8
_0-1__U_30EC_U_30A4_U_30E4_U_30FC_1
  6
CONTINUOUS
 62
    7
 10
235.87990179474531
 20
5.2319146408516986
 11
237.1511420288025
 21
5.7820963898461173
  0
LINE
  8
_0-1__U_30EC_U_30A4_U_30E4_U_30FC_1
  6
CONTINUOUS
 62
    7
 10
237.1511420288025
 20
5.7820963898461173
 11
238.42203775331114
 21
5.2319146408516986
  0
LINE
  8
_0-1__U_30EC_U_30A4_U_30E4_U_30FC_1
  6
CONTINUOUS
 62
    7
 10
238.42203775331114
 20
5.2319146408516986
 11
238.9486205982316
 21
3.9046916051592007
  0
LINE
  8
_0-1__U_30EC_U_30A4_U_30E4_U_30FC_1
  6
CONTINUOUS
 62
    7
 10
238.53124728019358
 20
15.763571539260511
 11
237.94868163363782
 21
15.763571539260511
  0
LINE
  8
_0-1__U_30EC_U_30A4_U_30E4_U_30FC_1
  6
CONTINUOUS
 62
    7
 10
264.72379149022532
 20
35.471412517406407
 11
264.94927298973494
 21
36.637577339163499
  0
LINE
  8
_0-1__U_30EC_U_30A4_U_30E4_U_30FC_1
  6
CONTINUOUS
 62
    7
 10
264.94927298973494
 20
36.637577339163499
 11
265.56422253385199
 21
37.589973986060784
  0
LINE
  8
_0-1__U_30EC_U_30A4_U_30E4_U_30FC_1
  6
CONTINUOUS
 62
    7
 10
265.56422253385199
 20
37.589973986060784
 11
266.47613930879766
 21
38.232312039285702
  0
LINE
  8
_0-1__U_30EC_U_30A4_U_30E4_U_30FC_1
  6
CONTINUOUS
 62
    7
 10
266.47613930879766
 20
38.232312039285702
 11
267.59269475556709
 21
38.467956570476815
  0
LINE
  8
_0-1__U_30EC_U_30A4_U_30E4_U_30FC_1
  6
CONTINUOUS
 62
    7
 10
238.53124728019358
 20
15.763571539260511
 11
239.0657538447301
 21
15.071107346725313
  0
LINE
  8
_0-1__U_30EC_U_30A4_U_30E4_U_30FC_1
  6
CONTINUOUS
 62
    7
 10
239.0657538447301
 20
15.071107346725313
 11
239.95682779198995
 21
13.226086459599685
  0
LINE
  8
_0-1__U_30EC_U_30A4_U_30E4_U_30FC_1
  6
CONTINUOUS
 62
    7
 10
239.95682779198995
 20
13.226086459599685
 11
240.13493922857737
 21
10.577841560088189
  0
LINE
  8
_0-1__U_30EC_U_30A4_U_30E4_U_30FC_1
  6
CONTINUOUS
 62
    7
 10
240.13493922857737
 20
10.577841560088189
 11
238.53124728019358
 21
7.4753608208463902
  0
LINE
  8
_0-1__U_30EC_U_30A4_U_30E4_U_30FC_1
  6
CONTINUOUS
 62
    7
 10
238.61324055274252
 20
7.4753608208463902
 11
240.10496689785572
 21
5.4387926247410121
  0
LINE
  8
_0-1__U_30EC_U_30A4_U_30E4_U_30FC_1
  6
CONTINUOUS
 62
    7
 10
240.10496689785572
 20
5.4387926247410121
 11
240.10496689785572
 21
2.6207045178065869
  0
LINE
  8
_0-1__U_30EC_U_30A4_U_30E4_U_30FC_1
  6
CONTINUOUS
 62
    7
 10
240.10496689785572
 20
2.6207045178065869
 11
238.53124728019358
 21
0.6952406511005335
  0
LINE
  8
_0-1__U_30EC_U_30A4_U_30E4_U_30FC_1
  6
CONTINUOUS
 62
    7
 10
238.53124728019358
 20
0.6952406511005335
 11
236.27126464186969
 21
0.6952406511005335
  0
LINE
  8
_0-1__U_30EC_U_30A4_U_30E4_U_30FC_1
  6
CONTINUOUS
 62
    7
 10
264.72379149022532
 20
-26.483634396358298
 11
264.94927298973494
 21
-27.649454708566793
  0
LINE
  8
_0-1__U_30EC_U_30A4_U_30E4_U_30FC_1
  6
CONTINUOUS
 62
    7
 10
264.94927298973494
 20
-27.649454708566793
 11
265.56422253385199
 21
-28.601679100689893
  0
LINE
  8
_0-1__U_30EC_U_30A4_U_30E4_U_30FC_1
  6
CONTINUOUS
 62
    7
 10
265.56422253385199
 20
-28.601679100689893
 11
266.47613930879766
 21
-29.243500389591929
  0
LINE
  8
_0-1__U_30EC_U_30A4_U_30E4_U_30FC_1
  6
CONTINUOUS
 62
    7
 10
266.47613930879766
 20
-29.243500389591929
 11
267.59269475556709
 21
-29.479144920782971
  0
LINE
  8
_0-1__U_30EC_U_30A4_U_30E4_U_30FC_1
  6
CONTINUOUS
 62
    7
 10
254.22296819640954
 20
-25.413587738639706
 11
247.50951062430318
 21
-20.948054970658802
  0
LINE
  8
_0-1__U_30EC_U_30A4_U_30E4_U_30FC_1
  6
CONTINUOUS
 62
    7
 10
247.50951062430318
 20
-20.948054970658802
 11
242.09020317123094
 21
-14.91018062321001
  0
LINE
  8
_0-1__U_30EC_U_30A4_U_30E4_U_30FC_1
  6
CONTINUOUS
 62
    7
 10
242.09020317123094
 20
-14.91018062321001
 11
238.24926621472588
 21
-7.5969319271216023
  0
LINE
  8
_0-1__U_30EC_U_30A4_U_30E4_U_30FC_1
  6
CONTINUOUS
 62
    7
 10
238.24926621472588
 20
-7.5969319271216023
 11
236.27126464186969
 21
0.6952406511005335
  0
LINE
  8
_0-1__U_30EC_U_30A4_U_30E4_U_30FC_1
  6
CONTINUOUS
 62
    7
 10
237.94868163363782
 20
15.763571539260511
 11
240.63757865987532
 21
21.627296309930017
  0
LINE
  8
_0-1__U_30EC_U_30A4_U_30E4_U_30FC_1
  6
CONTINUOUS
 62
    7
 10
240.63757865987532
 20
21.627296309930017
 11
244.33330484167709
 21
26.781503665412302
  0
LINE
  8
_0-1__U_30EC_U_30A4_U_30E4_U_30FC_1
  6
CONTINUOUS
 62
    7
 10
244.33330484167709
 20
26.781503665412302
 11
248.90322400286101
 21
31.087356257651805
  0
LINE
  8
_0-1__U_30EC_U_30A4_U_30E4_U_30FC_1
  6
CONTINUOUS
 62
    7
 10
248.90322400286101
 20
31.087356257651805
 11
254.2143554576964
 21
34.406878012464205
  0
LINE
  8
_0-1__U_30EC_U_30A4_U_30E4_U_30FC_1
  6
CONTINUOUS
 62
    7
 10
296.6529364475208
 20
-6.7756211634379895
 11
297.2365356227221
 21
-6.7756211634379895
  0
LINE
  8
_0-1__U_30EC_U_30A4_U_30E4_U_30FC_1
  6
CONTINUOUS
 62
    7
 10
270.45987547316628
 20
-26.483634396358298
 11
270.40165335946557
 21
-27.087215125374001
  0
LINE
  8
_0-1__U_30EC_U_30A4_U_30E4_U_30FC_1
  6
CONTINUOUS
 62
    7
 10
270.40165335946557
 20
-27.087215125374001
 11
270.23473848320521
 21
-27.649454708566793
  0
LINE
  8
_0-1__U_30EC_U_30A4_U_30E4_U_30FC_1
  6
CONTINUOUS
 62
    7
 10
270.23473848320521
 20
-27.649454708566793
 11
269.97049965948656
 21
-28.158295311738186
  0
LINE
  8
_0-1__U_30EC_U_30A4_U_30E4_U_30FC_1
  6
CONTINUOUS
 62
    7
 10
269.97049965948656
 20
-28.158295311738186
 11
269.62030570341091
 21
-28.601679100689893
  0
LINE
  8
_0-1__U_30EC_U_30A4_U_30E4_U_30FC_1
  6
CONTINUOUS
 62
    7
 10
269.62030570341091
 20
-28.601679100689893
 11
269.19604219440237
 21
-28.967548241223369
  0
LINE
  8
_0-1__U_30EC_U_30A4_U_30E4_U_30FC_1
  6
CONTINUOUS
 62
    7
 10
269.19604219440237
 20
-28.967548241223369
 11
268.70890569278805
 21
-29.243500389591929
  0
LINE
  8
_0-1__U_30EC_U_30A4_U_30E4_U_30FC_1
  6
CONTINUOUS
 62
    7
 10
268.70890569278805
 20
-29.243500389591929
 11
268.17078177799203
 21
-29.418166730694111
  0
LINE
  8
_0-1__U_30EC_U_30A4_U_30E4_U_30FC_1
  6
CONTINUOUS
 62
    7
 10
268.17078177799203
 20
-29.418166730694111
 11
267.59269475556709
 21
-29.479144920782971
  0
LINE
  8
_0-1__U_30EC_U_30A4_U_30E4_U_30FC_1
  6
CONTINUOUS
 62
    7
 10
296.6529364475208
 20
-6.7756211634379895
 11
296.49704587681327
 21
-6.5954426695595032
  0
LINE
  8
_0-1__U_30EC_U_30A4_U_30E4_U_30FC_1
  6
CONTINUOUS
 62
    7
 10
296.49704587681327
 20
-6.5954426695595032
 11
296.11842988298429
 21
-6.0831569709027917
  0
LINE
  8
_0-1__U_30EC_U_30A4_U_30E4_U_30FC_1
  6
CONTINUOUS
 62
    7
 10
296.11842988298429
 20
-6.0831569709027917
 11
295.65075817086165
 21
-5.283205799227801
  0
LINE
  8
_0-1__U_30EC_U_30A4_U_30E4_U_30FC_1
  6
CONTINUOUS
 62
    7
 10
295.65075817086165
 20
-5.283205799227801
 11
295.22770044527294
 21
-4.238652848100088
  0
LINE
  8
_0-1__U_30EC_U_30A4_U_30E4_U_30FC_1
  6
CONTINUOUS
 62
    7
 10
295.22770044527294
 20
-4.238652848100088
 11
294.98275415627165
 21
-2.9932508301822907
  0
LINE
  8
_0-1__U_30EC_U_30A4_U_30E4_U_30FC_1
  6
CONTINUOUS
 62
    7
 10
294.98275415627165
 20
-2.9932508301822907
 11
295.04941675391126
 21
-1.5907524581369898
  0
LINE
  8
_0-1__U_30EC_U_30A4_U_30E4_U_30FC_1
  6
CONTINUOUS
 62
    7
 10
295.04941675391126
 20
-1.5907524581369898
 11
295.56153019779367
 21
-0.0745659350785956
  0
LINE
  8
_0-1__U_30EC_U_30A4_U_30E4_U_30FC_1
  6
CONTINUOUS
 62
    7
 10
295.56153019779367
 20
-0.0745659350785956
 11
296.6529364475208
 21
1.5115560263303962
  0
LINE
  8
_0-1__U_30EC_U_30A4_U_30E4_U_30FC_1
  6
CONTINUOUS
 62
    7
 10
296.57145993929464
 20
1.5115560263303962
 11
295.07921682985864
 21
3.5491577510814807
  0
LINE
  8
_0-1__U_30EC_U_30A4_U_30E4_U_30FC_1
  6
CONTINUOUS
 62
    7
 10
295.07921682985864
 20
3.5491577510814807
 11
295.07921682985864
 21
6.3684516414356835
  0
LINE
  8
_0-1__U_30EC_U_30A4_U_30E4_U_30FC_1
  6
CONTINUOUS
 62
    7
 10
295.07921682985864
 20
6.3684516414356835
 11
295.27593178206644
 21
6.6089193063060918
  0
LINE
  8
_0-1__U_30EC_U_30A4_U_30E4_U_30FC_1
  6
CONTINUOUS
 62
    7
 10
295.27593178206644
 20
6.6089193063060918
 11
295.47264673427424
 21
6.8492147164022583
  0
LINE
  8
_0-1__U_30EC_U_30A4_U_30E4_U_30FC_1
  6
CONTINUOUS
 62
    7
 10
295.47264673427424
 20
6.8492147164022583
 11
295.66936168648198
 21
7.0895101264985101
  0
LINE
  8
_0-1__U_30EC_U_30A4_U_30E4_U_30FC_1
  6
CONTINUOUS
 62
    7
 10
295.66936168648198
 20
7.0895101264985101
 11
295.86607663868972
 21
7.3299777913688899
  0
LINE
  8
_0-1__U_30EC_U_30A4_U_30E4_U_30FC_1
  6
CONTINUOUS
 62
    7
 10
295.86607663868972
 20
7.3299777913688899
 11
296.06279159089752
 21
7.5704454562392982
  0
LINE
  8
_0-1__U_30EC_U_30A4_U_30E4_U_30FC_1
  6
CONTINUOUS
 62
    7
 10
296.06279159089752
 20
7.5704454562392982
 11
296.25950654310526
 21
7.8107408663354931
  0
LINE
  8
_0-1__U_30EC_U_30A4_U_30E4_U_30FC_1
  6
CONTINUOUS
 62
    7
 10
296.25950654310526
 20
7.8107408663354931
 11
296.456221495313
 21
8.0510362764316881
  0
LINE
  8
_0-1__U_30EC_U_30A4_U_30E4_U_30FC_1
  6
CONTINUOUS
 62
    7
 10
296.456221495313
 20
8.0510362764316881
 11
296.6529364475208
 21
8.2915039413020963
  0
LINE
  8
_0-1__U_30EC_U_30A4_U_30E4_U_30FC_1
  6
CONTINUOUS
 62
    7
 10
296.6529364475208
 20
8.2915039413020963
 11
298.9134358501675
 21
8.2915039413020963
  0
LINE
  8
_0-1__U_30EC_U_30A4_U_30E4_U_30FC_1
  6
CONTINUOUS
 62
    7
 10
270.45987547316628
 20
35.471412517406407
 11
270.40165335946557
 21
36.075165501196494
  0
LINE
  8
_0-1__U_30EC_U_30A4_U_30E4_U_30FC_1
  6
CONTINUOUS
 62
    7
 10
270.40165335946557
 20
36.075165501196494
 11
270.23473848320521
 21
36.637577339163499
  0
LINE
  8
_0-1__U_30EC_U_30A4_U_30E4_U_30FC_1
  6
CONTINUOUS
 62
    7
 10
270.23473848320521
 20
36.637577339163499
 11
269.97049965948656
 21
37.146590197109205
  0
LINE
  8
_0-1__U_30EC_U_30A4_U_30E4_U_30FC_1
  6
CONTINUOUS
 62
    7
 10
269.97049965948656
 20
37.146590197109205
 11
269.62030570341091
 21
37.589973986060784
  0
LINE
  8
_0-1__U_30EC_U_30A4_U_30E4_U_30FC_1
  6
CONTINUOUS
 62
    7
 10
269.62030570341091
 20
37.589973986060784
 11
269.19604219440237
 21
37.956015381368616
  0
LINE
  8
_0-1__U_30EC_U_30A4_U_30E4_U_30FC_1
  6
CONTINUOUS
 62
    7
 10
269.19604219440237
 20
37.956015381368616
 11
268.70890569278805
 21
38.232312039285702
  0
LINE
  8
_0-1__U_30EC_U_30A4_U_30E4_U_30FC_1
  6
CONTINUOUS
 62
    7
 10
268.70890569278805
 20
38.232312039285702
 11
268.17078177799203
 21
38.406978380387784
  0
LINE
  8
_0-1__U_30EC_U_30A4_U_30E4_U_30FC_1
  6
CONTINUOUS
 62
    7
 10
268.17078177799203
 20
38.406978380387784
 11
267.59269475556709
 21
38.467956570476815
  0
LINE
  8
_0-1__U_30EC_U_30A4_U_30E4_U_30FC_1
  6
CONTINUOUS
 62
    7
 10
280.96121553130484
 20
34.401365859687786
 11
284.46194930864146
 21
32.383745688751304
  0
LINE
  8
_0-1__U_30EC_U_30A4_U_30E4_U_30FC_1
  6
CONTINUOUS
 62
    7
 10
284.46194930864146
 20
32.383745688751304
 11
287.67467310341118
 21
29.936005346481295
  0
LINE
  8
_0-1__U_30EC_U_30A4_U_30E4_U_30FC_1
  6
CONTINUOUS
 62
    7
 10
287.67467310341118
 20
29.936005346481295
 11
290.56390243211598
 21
27.095179609344314
  0
LINE
  8
_0-1__U_30EC_U_30A4_U_30E4_U_30FC_1
  6
CONTINUOUS
 62
    7
 10
290.56390243211598
 20
27.095179609344314
 11
293.09398055648347
 21
23.898303253806702
  0
LINE
  8
_0-1__U_30EC_U_30A4_U_30E4_U_30FC_1
  6
CONTINUOUS
 62
    7
 10
293.09398055648347
 20
23.898303253806702
 11
295.2295952477898
 21
20.382411056334888
  0
LINE
  8
_0-1__U_30EC_U_30A4_U_30E4_U_30FC_1
  6
CONTINUOUS
 62
    7
 10
295.2295952477898
 20
20.382411056334888
 11
296.93491751298848
 21
16.584537793395498
  0
LINE
  8
_0-1__U_30EC_U_30A4_U_30E4_U_30FC_1
  6
CONTINUOUS
 62
    7
 10
296.93491751298848
 20
16.584537793395498
 11
298.17480737812991
 21
12.541890496229087
  0
LINE
  8
_0-1__U_30EC_U_30A4_U_30E4_U_30FC_1
  6
CONTINUOUS
 62
    7
 10
298.17480737812991
 20
12.541890496229087
 11
298.9134358501675
 21
8.2915039413020963
  0
LINE
  8
_0-1__U_30EC_U_30A4_U_30E4_U_30FC_1
  6
CONTINUOUS
 62
    7
 10
297.2365356227221
 20
-6.7756211634379895
 11
296.02610132397956
 21
-9.7873236366434924
  0
LINE
  8
_0-1__U_30EC_U_30A4_U_30E4_U_30FC_1
  6
CONTINUOUS
 62
    7
 10
296.02610132397956
 20
-9.7873236366434924
 11
294.54746634171039
 21
-12.638829169784714
  0
LINE
  8
_0-1__U_30EC_U_30A4_U_30E4_U_30FC_1
  6
CONTINUOUS
 62
    7
 10
294.54746634171039
 20
-12.638829169784714
 11
292.81699487946935
 21
-15.31325679498417
  0
LINE
  8
_0-1__U_30EC_U_30A4_U_30E4_U_30FC_1
  6
CONTINUOUS
 62
    7
 10
292.81699487946935
 20
-15.31325679498417
 11
290.85156790513429
 21
-17.793036525267013
  0
LINE
  8
_0-1__U_30EC_U_30A4_U_30E4_U_30FC_1
  6
CONTINUOUS
 62
    7
 10
290.85156790513429
 20
-17.793036525267013
 11
288.66772187703447
 21
-20.060942883207019
  0
LINE
  8
_0-1__U_30EC_U_30A4_U_30E4_U_30FC_1
  6
CONTINUOUS
 62
    7
 10
288.66772187703447
 20
-20.060942883207019
 11
286.28164874395043
 21
-22.099061372280801
  0
LINE
  8
_0-1__U_30EC_U_30A4_U_30E4_U_30FC_1
  6
CONTINUOUS
 62
    7
 10
286.28164874395043
 20
-22.099061372280801
 11
283.71040172853418
 21
-23.890855534159186
  0
LINE
  8
_0-1__U_30EC_U_30A4_U_30E4_U_30FC_1
  6
CONTINUOUS
 62
    7
 10
283.71040172853418
 20
-23.890855534159186
 11
280.97051728911504
 21
-25.419099891416096
  0
LINE
  8
_0-1__U_30EC_U_30A4_U_30E4_U_30FC_1
  6
CONTINUOUS
 62
    7
 10
296.19887286256488
 20
4.6982693501865356
 11
296.77988821615224
 21
6.1643297339346077
  0
LINE
  8
_0-1__U_30EC_U_30A4_U_30E4_U_30FC_1
  6
CONTINUOUS
 62
    7
 10
296.77988821615224
 20
6.1643297339346077
 11
298.18238658819746
 21
6.7713555584355731
  0
LINE
  8
_0-1__U_30EC_U_30A4_U_30E4_U_30FC_1
  6
CONTINUOUS
 62
    7
 10
298.18238658819746
 20
6.7713555584355731
 11
299.58471270546841
 21
6.1643297339346077
  0
LINE
  8
_0-1__U_30EC_U_30A4_U_30E4_U_30FC_1
  6
CONTINUOUS
 62
    7
 10
299.58471270546841
 20
6.1643297339346077
 11
300.16538354950728
 21
4.6982693501865356
  0
LINE
  8
_0-1__U_30EC_U_30A4_U_30E4_U_30FC_1
  6
CONTINUOUS
 62
    7
 10
300.16538354950728
 20
4.6982693501865356
 11
299.58471270546841
 21
3.2339315141811085
  0
LINE
  8
_0-1__U_30EC_U_30A4_U_30E4_U_30FC_1
  6
CONTINUOUS
 62
    7
 10
299.58471270546841
 20
3.2339315141811085
 11
298.18238658819746
 21
2.6272501992285981
  0
LINE
  8
_0-1__U_30EC_U_30A4_U_30E4_U_30FC_1
  6
CONTINUOUS
 62
    7
 10
298.18238658819746
 20
2.6272501992285981
 11
296.77988821615224
 21
3.2339315141811085
  0
LINE
  8
_0-1__U_30EC_U_30A4_U_30E4_U_30FC_1
  6
CONTINUOUS
 62
    7
 10
296.77988821615224
 20
3.2339315141811085
 11
296.19887286256488
 21
4.6982693501865356
  0
LINE
  8
_0-1__U_30EC_U_30A4_U_30E4_U_30FC_1
  6
CONTINUOUS
 62
    7
 10
296.38525252831687
 20
4.6982693501865356
 11
296.91149086368881
 21
6.0260091502017872
  0
LINE
  8
_0-1__U_30EC_U_30A4_U_30E4_U_30FC_1
  6
CONTINUOUS
 62
    7
 10
296.91149086368881
 20
6.0260091502017872
 11
298.18238658819746
 21
6.5756741348733954
  0
LINE
  8
_0-1__U_30EC_U_30A4_U_30E4_U_30FC_1
  6
CONTINUOUS
 62
    7
 10
298.18238658819746
 20
6.5756741348733954
 11
299.45362682225465
 21
6.0260091502017872
  0
LINE
  8
_0-1__U_30EC_U_30A4_U_30E4_U_30FC_1
  6
CONTINUOUS
 62
    7
 10
299.45362682225465
 20
6.0260091502017872
 11
299.98020966717507
 21
4.6982693501865356
  0
LINE
  8
_0-1__U_30EC_U_30A4_U_30E4_U_30FC_1
  6
CONTINUOUS
 62
    7
 10
299.98020966717507
 20
4.6982693501865356
 11
299.45362682225465
 21
3.3715630788167914
  0
LINE
  8
_0-1__U_30EC_U_30A4_U_30E4_U_30FC_1
  6
CONTINUOUS
 62
    7
 10
299.45362682225465
 20
3.3715630788167914
 11
298.18238658819746
 21
2.8225871132423208
  0
LINE
  8
_0-1__U_30EC_U_30A4_U_30E4_U_30FC_1
  6
CONTINUOUS
 62
    7
 10
298.18238658819746
 20
2.8225871132423208
 11
296.91149086368881
 21
3.3715630788167914
  0
LINE
  8
_0-1__U_30EC_U_30A4_U_30E4_U_30FC_1
  6
CONTINUOUS
 62
    7
 10
296.91149086368881
 20
3.3715630788167914
 11
296.38525252831687
 21
4.6982693501865356
  0
LINE
  8
_0-1__U_30EC_U_30A4_U_30E4_U_30FC_1
  6
CONTINUOUS
 62
    7
 10
300.33763832376974
 20
-0.6791801927398921
 11
300.38190780075524
 21
-0.3618868985483914
  0
LINE
  8
_0-1__U_30EC_U_30A4_U_30E4_U_30FC_1
  6
CONTINUOUS
 62
    7
 10
300.38190780075524
 20
-0.3618868985483914
 11
300.42342120135248
 21
-0.0437323304855965
  0
LINE
  8
_0-1__U_30EC_U_30A4_U_30E4_U_30FC_1
  6
CONTINUOUS
 62
    7
 10
300.42342120135248
 20
-0.0437323304855965
 11
300.46217852556151
 21
0.2752835114484923
  0
LINE
  8
_0-1__U_30EC_U_30A4_U_30E4_U_30FC_1
  6
CONTINUOUS
 62
    7
 10
300.46217852556151
 20
0.2752835114484923
 11
300.49817977338239
 21
0.5953328820282308
  0
LINE
  8
_0-1__U_30EC_U_30A4_U_30E4_U_30FC_1
  6
CONTINUOUS
 62
    7
 10
300.49817977338239
 20
0.5953328820282308
 11
300.53125269004079
 21
0.9160712717049932
  0
LINE
  8
_0-1__U_30EC_U_30A4_U_30E4_U_30FC_1
  6
CONTINUOUS
 62
    7
 10
300.53125269004079
 20
0.9160712717049932
 11
300.56156953031098
 21
1.2378431900273199
  0
LINE
  8
_0-1__U_30EC_U_30A4_U_30E4_U_30FC_1
  6
CONTINUOUS
 62
    7
 10
300.56156953031098
 20
1.2378431900273199
 11
300.58913029419301
 21
1.5604763822209975
  0
LINE
  8
_0-1__U_30EC_U_30A4_U_30E4_U_30FC_1
  6
CONTINUOUS
 62
    7
 10
300.58913029419301
 20
1.5604763822209975
 11
300.61376272691257
 21
1.8839708482859123
  0
LINE
  8
_0-1__U_30EC_U_30A4_U_30E4_U_30FC_1
  6
CONTINUOUS
 62
    7
 10
300.61376272691257
 20
1.8839708482859123
 11
300.63546682846959
 21
2.2081543334479932
  0
LINE
  8
_0-1__U_30EC_U_30A4_U_30E4_U_30FC_1
  6
CONTINUOUS
 62
    7
 10
300.63546682846959
 20
2.2081543334479932
 11
300.65441485363851
 21
2.5331990924813113
  0
LINE
  8
_0-1__U_30EC_U_30A4_U_30E4_U_30FC_1
  6
CONTINUOUS
 62
    7
 10
300.65441485363851
 20
2.5331990924813113
 11
300.67060680241917
 21
2.859105125385895
  0
LINE
  8
_0-1__U_30EC_U_30A4_U_30E4_U_30FC_1
  6
CONTINUOUS
 62
    7
 10
300.67060680241917
 20
2.859105125385895
 11
300.68369816526308
 21
3.1858724321618865
  0
LINE
  8
_0-1__U_30EC_U_30A4_U_30E4_U_30FC_1
  6
CONTINUOUS
 62
    7
 10
300.68369816526308
 20
3.1858724321618865
 11
300.69386119694457
 21
3.5133287580347883
  0
LINE
  8
_0-1__U_30EC_U_30A4_U_30E4_U_30FC_1
  6
CONTINUOUS
 62
    7
 10
300.69386119694457
 20
3.5133287580347883
 11
300.7012681522379
 21
3.8416463577792115
  0
LINE
  8
_0-1__U_30EC_U_30A4_U_30E4_U_30FC_1
  6
CONTINUOUS
 62
    7
 10
300.7012681522379
 20
3.8416463577792115
 11
300.7057467763687
 21
4.1706529766204881
  0
LINE
  8
_0-1__U_30EC_U_30A4_U_30E4_U_30FC_1
  6
CONTINUOUS
 62
    7
 10
300.7057467763687
 20
4.1706529766204881
 11
300.7071248145628
 21
4.5003486145589022
  0
LINE
  8
_0-1__U_30EC_U_30A4_U_30E4_U_30FC_1
  6
CONTINUOUS
 62
    7
 10
300.7071248145628
 20
4.5003486145589022
 11
300.53676484281721
 21
8.0248535507438135
  0
LINE
  8
_0-1__U_30EC_U_30A4_U_30E4_U_30FC_1
  6
CONTINUOUS
 62
    7
 10
300.53676484281721
 20
8.0248535507438135
 11
300.03670923313319
 21
11.447383660565208
  0
LINE
  8
_0-1__U_30EC_U_30A4_U_30E4_U_30FC_1
  6
CONTINUOUS
 62
    7
 10
300.03670923313319
 20
11.447383660565208
 11
299.22349444383997
 21
14.750885721371304
  0
LINE
  8
_0-1__U_30EC_U_30A4_U_30E4_U_30FC_1
  6
CONTINUOUS
 62
    7
 10
299.22349444383997
 20
14.750885721371304
 11
298.113829188041
 21
17.917962000961495
  0
LINE
  8
_0-1__U_30EC_U_30A4_U_30E4_U_30FC_1
  6
CONTINUOUS
 62
    7
 10
298.113829188041
 20
17.917962000961495
 11
296.72424992406548
 21
20.931214767135188
  0
LINE
  8
_0-1__U_30EC_U_30A4_U_30E4_U_30FC_1
  6
CONTINUOUS
 62
    7
 10
296.72424992406548
 20
20.931214767135188
 11
295.07129311024261
 21
23.773418542466416
  0
LINE
  8
_0-1__U_30EC_U_30A4_U_30E4_U_30FC_1
  6
CONTINUOUS
 62
    7
 10
295.07129311024261
 20
23.773418542466416
 11
293.17149520490159
 21
26.427175594754289
  0
LINE
  8
_0-1__U_30EC_U_30A4_U_30E4_U_30FC_1
  6
CONTINUOUS
 62
    7
 10
293.17149520490159
 20
26.427175594754289
 11
291.04156492114583
 21
28.875260446572895
  0
LINE
  8
_0-1__U_30EC_U_30A4_U_30E4_U_30FC_1
  6
CONTINUOUS
 62
    7
 10
291.04156492114583
 20
28.875260446572895
 11
288.69803871730466
 21
31.100103110947202
  0
LINE
  8
_0-1__U_30EC_U_30A4_U_30E4_U_30FC_1
  6
CONTINUOUS
 62
    7
 10
288.69803871730466
 20
31.100103110947202
 11
286.15762530648146
 21
33.0846503652254
  0
LINE
  8
_0-1__U_30EC_U_30A4_U_30E4_U_30FC_1
  6
CONTINUOUS
 62
    7
 10
286.15762530648146
 20
33.0846503652254
 11
283.43668889223113
 21
34.811504477206796
  0
LINE
  8
_0-1__U_30EC_U_30A4_U_30E4_U_30FC_1
  6
CONTINUOUS
 62
    7
 10
283.43668889223113
 20
34.811504477206796
 11
280.5521104424314
 21
36.263095459916883
  0
LINE
  8
_0-1__U_30EC_U_30A4_U_30E4_U_30FC_1
  6
CONTINUOUS
 62
    7
 10
280.5521104424314
 20
36.263095459916883
 11
277.52025416063731
 21
37.422197835929211
  0
LINE
  8
_0-1__U_30EC_U_30A4_U_30E4_U_30FC_1
  6
CONTINUOUS
 62
    7
 10
277.52025416063731
 20
37.422197835929211
 11
274.35765650517794
 21
38.271758382591798
  0
LINE
  8
_0-1__U_30EC_U_30A4_U_30E4_U_30FC_1
  6
CONTINUOUS
 62
    7
 10
274.35765650517794
 20
38.271758382591798
 11
271.0811984439311
 21
38.794207112929882
  0
LINE
  8
_0-1__U_30EC_U_30A4_U_30E4_U_30FC_1
  6
CONTINUOUS
 62
    7
 10
271.0811984439311
 20
38.794207112929882
 11
267.70707192567738
 21
38.972146294743098
  0
LINE
  8
_0-1__U_30EC_U_30A4_U_30E4_U_30FC_1
  6
CONTINUOUS
 62
    7
 10
267.70707192567738
 20
38.972146294743098
 11
264.90345321978106
 21
38.849500895468196
  0
LINE
  8
_0-1__U_30EC_U_30A4_U_30E4_U_30FC_1
  6
CONTINUOUS
 62
    7
 10
264.90345321978106
 20
38.849500895468196
 11
262.16494681855602
 21
38.488110379065503
  0
LINE
  8
_0-1__U_30EC_U_30A4_U_30E4_U_30FC_1
  6
CONTINUOUS
 62
    7
 10
262.16494681855602
 20
38.488110379065503
 11
259.50085447981229
 21
37.897965522442206
  0
LINE
  8
_0-1__U_30EC_U_30A4_U_30E4_U_30FC_1
  6
CONTINUOUS
 62
    7
 10
259.50085447981229
 20
37.897965522442206
 11
256.92065021613445
 21
37.088712592956981
  0
LINE
  8
_0-1__U_30EC_U_30A4_U_30E4_U_30FC_1
  6
CONTINUOUS
 62
    7
 10
256.92065021613445
 20
37.088712592956981
 11
254.43380804010684
 21
36.0703423675171
  0
LINE
  8
_0-1__U_30EC_U_30A4_U_30E4_U_30FC_1
  6
CONTINUOUS
 62
    7
 10
254.43380804010684
 20
36.0703423675171
 11
252.0499742190882
 21
34.852845623029793
  0
LINE
  8
_0-1__U_30EC_U_30A4_U_30E4_U_30FC_1
  6
CONTINUOUS
 62
    7
 10
252.0499742190882
 20
34.852845623029793
 11
249.77845051088872
 21
33.445868626853795
  0
LINE
  8
_0-1__U_30EC_U_30A4_U_30E4_U_30FC_1
  6
CONTINUOUS
 62
    7
 10
249.77845051088872
 20
33.445868626853795
 11
247.62853867331856
 21
31.859402155896305
  0
LINE
  8
_0-1__U_30EC_U_30A4_U_30E4_U_30FC_1
  6
CONTINUOUS
 62
    7
 10
247.62853867331856
 20
31.859402155896305
 11
245.60988497373643
 21
30.103264732290199
  0
LINE
  8
_0-1__U_30EC_U_30A4_U_30E4_U_30FC_1
  6
CONTINUOUS
 62
    7
 10
245.60988497373643
 20
30.103264732290199
 11
243.73179116995249
 21
28.187447132942694
  0
LINE
  8
_0-1__U_30EC_U_30A4_U_30E4_U_30FC_1
  6
CONTINUOUS
 62
    7
 10
243.73179116995249
 20
28.187447132942694
 11
242.00390352932541
 21
26.121767879986905
  0
LINE
  8
_0-1__U_30EC_U_30A4_U_30E4_U_30FC_1
  6
CONTINUOUS
 62
    7
 10
242.00390352932541
 20
26.121767879986905
 11
240.43535155489116
 21
23.916045495555693
  0
LINE
  8
_0-1__U_30EC_U_30A4_U_30E4_U_30FC_1
  6
CONTINUOUS
 62
    7
 10
240.43535155489116
 20
23.916045495555693
 11
239.03578151400842
 21
21.580098501782004
  0
LINE
  8
_0-1__U_30EC_U_30A4_U_30E4_U_30FC_1
  6
CONTINUOUS
 62
    7
 10
239.03578151400842
 20
21.580098501782004
 11
237.81483967403588
 21
19.12391767557321
  0
LINE
  8
_0-1__U_30EC_U_30A4_U_30E4_U_30FC_1
  6
CONTINUOUS
 62
    7
 10
237.81483967403588
 20
19.12391767557321
 11
236.78148328323519
 21
16.557321539062087
  0
LINE
  8
_0-1__U_30EC_U_30A4_U_30E4_U_30FC_1
  6
CONTINUOUS
 62
    7
 10
236.78148328323519
 20
16.557321539062087
 11
235.94570311851356
 21
13.890128614381609
  0
LINE
  8
_0-1__U_30EC_U_30A4_U_30E4_U_30FC_1
  6
CONTINUOUS
 62
    7
 10
235.01966145207842
 20
9.263193122916789
 11
234.9821099112892
 21
8.9707045162190866
  0
LINE
  8
_0-1__U_30EC_U_30A4_U_30E4_U_30FC_1
  6
CONTINUOUS
 62
    7
 10
234.9821099112892
 20
8.9707045162190866
 11
234.94714219211392
 21
8.6775268904243887
  0
LINE
  8
_0-1__U_30EC_U_30A4_U_30E4_U_30FC_1
  6
CONTINUOUS
 62
    7
 10
234.94714219211392
 20
8.6775268904243887
 11
234.91424153022976
 21
8.3834879907582831
  0
LINE
  8
_0-1__U_30EC_U_30A4_U_30E4_U_30FC_1
  6
CONTINUOUS
 62
    7
 10
234.91424153022976
 20
8.3834879907582831
 11
234.88392468995957
 21
8.088760071995182
  0
LINE
  8
_0-1__U_30EC_U_30A4_U_30E4_U_30FC_1
  6
CONTINUOUS
 62
    7
 10
234.88392468995957
 20
8.088760071995182
 11
234.85584716175478
 21
7.7935153889092135
  0
LINE
  8
_0-1__U_30EC_U_30A4_U_30E4_U_30FC_1
  6
CONTINUOUS
 62
    7
 10
234.85584716175478
 20
7.7935153889092135
 11
234.83018120038969
 21
7.4972371771777944
  0
LINE
  8
_0-1__U_30EC_U_30A4_U_30E4_U_30FC_1
  6
CONTINUOUS
 62
    7
 10
234.83018120038969
 20
7.4972371771777944
 11
234.80692680586424
 21
7.2004422011235079
  0
LINE
  8
_0-1__U_30EC_U_30A4_U_30E4_U_30FC_1
  6
CONTINUOUS
 62
    7
 10
234.80692680586424
 20
7.2004422011235079
 11
234.78608397817848
 21
6.9029582059721974
  0
LINE
  8
_0-1__U_30EC_U_30A4_U_30E4_U_30FC_1
  6
CONTINUOUS
 62
    7
 10
234.78608397817848
 20
6.9029582059721974
 11
234.7676527173324
 21
6.6047851917238063
  0
LINE
  8
_0-1__U_30EC_U_30A4_U_30E4_U_30FC_1
  6
CONTINUOUS
 62
    7
 10
234.7676527173324
 20
6.6047851917238063
 11
234.75163302332598
 21
6.3060954131526046
  0
LINE
  8
_0-1__U_30EC_U_30A4_U_30E4_U_30FC_1
  6
CONTINUOUS
 62
    7
 10
234.75163302332598
 20
6.3060954131526046
 11
234.7381971509335
 21
6.0067166154844074
  0
LINE
  8
_0-1__U_30EC_U_30A4_U_30E4_U_30FC_1
  6
CONTINUOUS
 62
    7
 10
234.7381971509335
 20
6.0067166154844074
 11
234.72700059060645
 21
5.7066487987191863
  0
LINE
  8
_0-1__U_30EC_U_30A4_U_30E4_U_30FC_1
  6
CONTINUOUS
 62
    7
 10
234.72700059060645
 20
5.7066487987191863
 11
234.71821559711907
 21
5.4058919628569129
  0
LINE
  8
_0-1__U_30EC_U_30A4_U_30E4_U_30FC_1
  6
CONTINUOUS
 62
    7
 10
234.71821559711907
 20
5.4058919628569129
 11
234.71218668001987
 21
5.1046183626716868
  0
LINE
  8
_0-1__U_30EC_U_30A4_U_30E4_U_30FC_1
  6
CONTINUOUS
 62
    7
 10
234.71218668001987
 20
5.1046183626716868
 11
234.7083970749861
 21
4.8026557433896073
  0
LINE
  8
_0-1__U_30EC_U_30A4_U_30E4_U_30FC_1
  6
CONTINUOUS
 62
    7
 10
234.7083970749861
 20
4.8026557433896073
 11
234.70719129156626
 21
4.5003486145589022
  0
LINE
  8
_0-1__U_30EC_U_30A4_U_30E4_U_30FC_1
  6
CONTINUOUS
 62
    7
 10
234.70719129156626
 20
4.5003486145589022
 11
234.87755126331186
 21
0.9754991688255927
  0
LINE
  8
_0-1__U_30EC_U_30A4_U_30E4_U_30FC_1
  6
CONTINUOUS
 62
    7
 10
234.87755126331186
 20
0.9754991688255927
 11
235.3776068729959
 21
-2.4472031957701859
  0
LINE
  8
_0-1__U_30EC_U_30A4_U_30E4_U_30FC_1
  6
CONTINUOUS
 62
    7
 10
235.3776068729959
 20
-2.4472031957701859
 11
236.1908216622891
 21
-5.7510497661247086
  0
LINE
  8
_0-1__U_30EC_U_30A4_U_30E4_U_30FC_1
  6
CONTINUOUS
 62
    7
 10
236.1908216622891
 20
-5.7510497661247086
 11
237.30048691808807
 21
-8.9184705552634114
  0
LINE
  8
_0-1__U_30EC_U_30A4_U_30E4_U_30FC_1
  6
CONTINUOUS
 62
    7
 10
237.30048691808807
 20
-8.9184705552634114
 11
238.69006618206359
 21
-11.931895576211502
  0
LINE
  8
_0-1__U_30EC_U_30A4_U_30E4_U_30FC_1
  6
CONTINUOUS
 62
    7
 10
238.69006618206359
 20
-11.931895576211502
 11
240.34302299588649
 21
-14.7744438610911
  0
LINE
  8
_0-1__U_30EC_U_30A4_U_30E4_U_30FC_1
  6
CONTINUOUS
 62
    7
 10
240.34302299588649
 20
-14.7744438610911
 11
242.2428209012275
 21
-17.428200913379101
  0
LINE
  8
_0-1__U_30EC_U_30A4_U_30E4_U_30FC_1
  6
CONTINUOUS
 62
    7
 10
242.2428209012275
 20
-17.428200913379101
 11
244.37257893020893
 21
-19.876285765197593
  0
LINE
  8
_0-1__U_30EC_U_30A4_U_30E4_U_30FC_1
  6
CONTINUOUS
 62
    7
 10
244.37257893020893
 20
-19.876285765197593
 11
246.71610513405014
 21
-22.101128429571986
  0
LINE
  8
_0-1__U_30EC_U_30A4_U_30E4_U_30FC_1
  6
CONTINUOUS
 62
    7
 10
246.71610513405014
 20
-22.101128429571986
 11
249.25651854487336
 21
-24.085847938624397
  0
LINE
  8
_0-1__U_30EC_U_30A4_U_30E4_U_30FC_1
  6
CONTINUOUS
 62
    7
 10
249.25651854487336
 20
-24.085847938624397
 11
251.97745495912369
 21
-25.812874305380092
  0
LINE
  8
_0-1__U_30EC_U_30A4_U_30E4_U_30FC_1
  6
CONTINUOUS
 62
    7
 10
251.97745495912369
 20
-25.812874305380092
 11
254.86203340892337
 21
-27.264293033315937
  0
LINE
  8
_0-1__U_30EC_U_30A4_U_30E4_U_30FC_1
  6
CONTINUOUS
 62
    7
 10
254.86203340892337
 20
-27.264293033315937
 11
257.89388969071751
 21
-28.423567664102393
  0
LINE
  8
_0-1__U_30EC_U_30A4_U_30E4_U_30FC_1
  6
CONTINUOUS
 62
    7
 10
257.89388969071751
 20
-28.423567664102393
 11
261.05648734617682
 21
-29.273128210765094
  0
LINE
  8
_0-1__U_30EC_U_30A4_U_30E4_U_30FC_1
  6
CONTINUOUS
 62
    7
 10
261.05648734617682
 20
-29.273128210765094
 11
264.33294540742372
 21
-29.795404686328936
  0
LINE
  8
_0-1__U_30EC_U_30A4_U_30E4_U_30FC_1
  6
CONTINUOUS
 62
    7
 10
264.33294540742372
 20
-29.795404686328936
 11
267.70707192567738
 21
-29.973516122916436
  0
LINE
  8
_0-1__U_30EC_U_30A4_U_30E4_U_30FC_1
  6
CONTINUOUS
 62
    7
 10
267.70707192567738
 20
-29.973516122916436
 11
270.48485241543437
 21
-29.853282290481104
  0
LINE
  8
_0-1__U_30EC_U_30A4_U_30E4_U_30FC_1
  6
CONTINUOUS
 62
    7
 10
270.48485241543437
 20
-29.853282290481104
 11
273.19889863871418
 21
-29.498437455500436
  0
LINE
  8
_0-1__U_30EC_U_30A4_U_30E4_U_30FC_1
  6
CONTINUOUS
 62
    7
 10
273.19889863871418
 20
-29.498437455500436
 11
275.83990883770667
 21
-28.91862788533291
  0
LINE
  8
_0-1__U_30EC_U_30A4_U_30E4_U_30FC_1
  6
CONTINUOUS
 62
    7
 10
275.83990883770667
 20
-28.91862788533291
 11
278.39875350937598
 21
-28.124188866434281
  0
LINE
  8
_0-1__U_30EC_U_30A4_U_30E4_U_30FC_1
  6
CONTINUOUS
 62
    7
 10
278.39875350937598
 20
-28.124188866434281
 11
280.86647540546045
 21
-27.123733137517661
  0
LINE
  8
_0-1__U_30EC_U_30A4_U_30E4_U_30FC_1
  6
CONTINUOUS
 62
    7
 10
280.86647540546045
 20
-27.123733137517661
 11
283.23360051337562
 21
-25.927595985038863
  0
LINE
  8
_0-1__U_30EC_U_30A4_U_30E4_U_30FC_1
  6
CONTINUOUS
 62
    7
 10
283.23360051337562
 20
-25.927595985038863
 11
285.49099933008557
 21
-24.544734657259738
  0
LINE
  8
_0-1__U_30EC_U_30A4_U_30E4_U_30FC_1
  6
CONTINUOUS
 62
    7
 10
285.49099933008557
 20
-24.544734657259738
 11
287.62954235255444
 21
-22.985139931086962
  0
LINE
  8
_0-1__U_30EC_U_30A4_U_30E4_U_30FC_1
  6
CONTINUOUS
 62
    7
 10
287.62954235255444
 20
-22.985139931086962
 11
289.64010007774624
 21
-21.258113564331296
  0
LINE
  8
_0-1__U_30EC_U_30A4_U_30E4_U_30FC_1
  6
CONTINUOUS
 62
    7
 10
289.64010007774624
 20
-21.258113564331296
 11
291.51319849307652
 21
-19.37399084344824
  0
LINE
  8
_0-1__U_30EC_U_30A4_U_30E4_U_30FC_1
  6
CONTINUOUS
 62
    7
 10
291.51319849307652
 20
-19.37399084344824
 11
293.24005260505805
 21
-17.341384507150792
  0
LINE
  8
_0-1__U_30EC_U_30A4_U_30E4_U_30FC_1
  6
CONTINUOUS
 62
    7
 10
293.24005260505805
 20
-17.341384507150792
 11
294.81136065588049
 21
-15.170629841894907
  0
LINE
  8
_0-1__U_30EC_U_30A4_U_30E4_U_30FC_1
  6
CONTINUOUS
 62
    7
 10
294.81136065588049
 20
-15.170629841894907
 11
296.21782088773375
 21
-12.871028605490608
  0
LINE
  8
_0-1__U_30EC_U_30A4_U_30E4_U_30FC_1
  6
CONTINUOUS
 62
    7
 10
296.21782088773375
 20
-12.871028605490608
 11
297.45013154280764
 21
-10.452227065296711
  0
LINE
  8
_0-1__U_30EC_U_30A4_U_30E4_U_30FC_1
  6
CONTINUOUS
 62
    7
 10
297.45013154280764
 20
-10.452227065296711
 11
298.49933537284045
 21
-7.9238714886718071
  0
LINE
  8
_0-1__U_30EC_U_30A4_U_30E4_U_30FC_1
  6
CONTINUOUS
 62
    7
 10
298.49933537284045
 20
-7.9238714886718071
 11
299.3561306200221
 21
-5.2952636334262024
  0
LINE
  8
_0-1__U_30EC_U_30A4_U_30E4_U_30FC_1
  6
CONTINUOUS
 62
    7
 10
264.86038952621544
 20
35.401132569507396
 11
265.66034069789049
 21
37.420303033412296
  0
LINE
  8
_0-1__U_30EC_U_30A4_U_30E4_U_30FC_1
  6
CONTINUOUS
 62
    7
 10
265.66034069789049
 20
37.420303033412296
 11
267.59269475556709
 21
38.256255452908107
  0
LINE
  8
_0-1__U_30EC_U_30A4_U_30E4_U_30FC_1
  6
CONTINUOUS
 62
    7
 10
267.59269475556709
 20
38.256255452908107
 11
269.52401528459814
 21
37.420303033412296
  0
LINE
  8
_0-1__U_30EC_U_30A4_U_30E4_U_30FC_1
  6
CONTINUOUS
 62
    7
 10
269.52401528459814
 20
37.420303033412296
 11
270.32396645627318
 21
35.401132569507396
  0
LINE
  8
_0-1__U_30EC_U_30A4_U_30E4_U_30FC_1
  6
CONTINUOUS
 62
    7
 10
270.32396645627318
 20
35.401132569507396
 11
269.52401528459814
 21
33.384373672442095
  0
LINE
  8
_0-1__U_30EC_U_30A4_U_30E4_U_30FC_1
  6
CONTINUOUS
 62
    7
 10
269.52401528459814
 20
33.384373672442095
 11
267.59269475556709
 21
32.54755997907489
  0
LINE
  8
_0-1__U_30EC_U_30A4_U_30E4_U_30FC_1
  6
CONTINUOUS
 62
    7
 10
267.59269475556709
 20
32.54755997907489
 11
265.66034069789049
 21
33.384373672442095
  0
LINE
  8
_0-1__U_30EC_U_30A4_U_30E4_U_30FC_1
  6
CONTINUOUS
 62
    7
 10
265.66034069789049
 20
33.384373672442095
 11
264.86038952621544
 21
35.401132569507396
  0
LINE
  8
_0-1__U_30EC_U_30A4_U_30E4_U_30FC_1
  6
CONTINUOUS
 62
    7
 10
268.08396537176372
 20
37.214286323394305
 11
268.08396537176372
 21
36.270502415210103
  0
LINE
  8
_0-1__U_30EC_U_30A4_U_30E4_U_30FC_1
  6
CONTINUOUS
 62
    7
 10
268.08396537176372
 20
36.270502415210103
 11
268.53475611600868
 21
35.799730117150801
  0
LINE
  8
_0-1__U_30EC_U_30A4_U_30E4_U_30FC_1
  6
CONTINUOUS
 62
    7
 10
268.53475611600868
 20
35.799730117150801
 11
269.44081622862939
 21
35.799730117150801
  0
LINE
  8
_0-1__U_30EC_U_30A4_U_30E4_U_30FC_1
  6
CONTINUOUS
 62
    7
 10
269.44081622862939
 20
35.799730117150801
 11
269.43909368088674
 21
34.939317519709604
  0
LINE
  8
_0-1__U_30EC_U_30A4_U_30E4_U_30FC_1
  6
CONTINUOUS
 62
    7
 10
269.43909368088674
 20
34.939317519709604
 11
268.53355033258885
 21
34.939317519709604
  0
LINE
  8
_0-1__U_30EC_U_30A4_U_30E4_U_30FC_1
  6
CONTINUOUS
 62
    7
 10
268.53355033258885
 20
34.939317519709604
 11
268.08396537176372
 21
34.469406495521497
  0
LINE
  8
_0-1__U_30EC_U_30A4_U_30E4_U_30FC_1
  6
CONTINUOUS
 62
    7
 10
268.08396537176372
 20
34.469406495521497
 11
268.08396537176372
 21
33.522522001400617
  0
LINE
  8
_0-1__U_30EC_U_30A4_U_30E4_U_30FC_1
  6
CONTINUOUS
 62
    7
 10
268.08396537176372
 20
33.522522001400617
 11
267.09694551523967
 21
33.522522001400617
  0
LINE
  8
_0-1__U_30EC_U_30A4_U_30E4_U_30FC_1
  6
CONTINUOUS
 62
    7
 10
267.09694551523967
 20
33.522522001400617
 11
267.09694551523967
 21
34.469406495521497
  0
LINE
  8
_0-1__U_30EC_U_30A4_U_30E4_U_30FC_1
  6
CONTINUOUS
 62
    7
 10
267.09694551523967
 20
34.469406495521497
 11
266.64736055441455
 21
34.939317519709604
  0
LINE
  8
_0-1__U_30EC_U_30A4_U_30E4_U_30FC_1
  6
CONTINUOUS
 62
    7
 10
266.64736055441455
 20
34.939317519709604
 11
265.74250622521367
 21
34.939317519709604
  0
LINE
  8
_0-1__U_30EC_U_30A4_U_30E4_U_30FC_1
  6
CONTINUOUS
 62
    7
 10
265.74250622521367
 20
34.939317519709604
 11
265.74250622521367
 21
35.797663059859602
  0
LINE
  8
_0-1__U_30EC_U_30A4_U_30E4_U_30FC_1
  6
CONTINUOUS
 62
    7
 10
265.74250622521367
 20
35.797663059859602
 11
266.64736055441455
 21
35.797663059859602
  0
LINE
  8
_0-1__U_30EC_U_30A4_U_30E4_U_30FC_1
  6
CONTINUOUS
 62
    7
 10
266.64736055441455
 20
35.797663059859602
 11
267.09694551523967
 21
36.269296631790297
  0
LINE
  8
_0-1__U_30EC_U_30A4_U_30E4_U_30FC_1
  6
CONTINUOUS
 62
    7
 10
267.09694551523967
 20
36.269296631790297
 11
267.09694551523967
 21
37.216525635459703
  0
LINE
  8
_0-1__U_30EC_U_30A4_U_30E4_U_30FC_1
  6
CONTINUOUS
 62
    7
 10
267.09694551523967
 20
37.216525635459703
 11
268.08396537176372
 21
37.214286323394305
  0
LINE
  8
_0-1__U_30EC_U_30A4_U_30E4_U_30FC_1
  6
CONTINUOUS
 62
    7
 10
264.86038952621544
 20
-26.389583289611011
 11
265.66034069789049
 21
-24.3721353734486
  0
LINE
  8
_0-1__U_30EC_U_30A4_U_30E4_U_30FC_1
  6
CONTINUOUS
 62
    7
 10
265.66034069789049
 20
-24.3721353734486
 11
267.59269475556709
 21
-23.536699718275486
  0
LINE
  8
_0-1__U_30EC_U_30A4_U_30E4_U_30FC_1
  6
CONTINUOUS
 62
    7
 10
267.59269475556709
 20
-23.536699718275486
 11
269.52401528459814
 21
-24.3721353734486
  0
LINE
  8
_0-1__U_30EC_U_30A4_U_30E4_U_30FC_1
  6
CONTINUOUS
 62
    7
 10
269.52401528459814
 20
-24.3721353734486
 11
270.32396645627318
 21
-26.389583289611011
  0
LINE
  8
_0-1__U_30EC_U_30A4_U_30E4_U_30FC_1
  6
CONTINUOUS
 62
    7
 10
270.32396645627318
 20
-26.389583289611011
 11
269.52401528459814
 21
-28.407720224870275
  0
LINE
  8
_0-1__U_30EC_U_30A4_U_30E4_U_30FC_1
  6
CONTINUOUS
 62
    7
 10
269.52401528459814
 20
-28.407720224870275
 11
267.59269475556709
 21
-29.244533918237522
  0
LINE
  8
_0-1__U_30EC_U_30A4_U_30E4_U_30FC_1
  6
CONTINUOUS
 62
    7
 10
267.59269475556709
 20
-29.244533918237522
 11
265.66034069789049
 21
-28.407720224870275
  0
LINE
  8
_0-1__U_30EC_U_30A4_U_30E4_U_30FC_1
  6
CONTINUOUS
 62
    7
 10
265.66034069789049
 20
-28.407720224870275
 11
264.86038952621544
 21
-26.389583289611011
  0
LINE
  8
_0-1__U_30EC_U_30A4_U_30E4_U_30FC_1
  6
CONTINUOUS
 62
    7
 10
268.08396537176372
 20
-24.579185612112212
 11
268.08396537176372
 21
-25.522452755973575
  0
LINE
  8
_0-1__U_30EC_U_30A4_U_30E4_U_30FC_1
  6
CONTINUOUS
 62
    7
 10
268.08396537176372
 20
-25.522452755973575
 11
268.53475611600868
 21
-25.993397308807204
  0
LINE
  8
_0-1__U_30EC_U_30A4_U_30E4_U_30FC_1
  6
CONTINUOUS
 62
    7
 10
268.53475611600868
 20
-25.993397308807204
 11
269.44081622862939
 21
-25.993397308807204
  0
LINE
  8
_0-1__U_30EC_U_30A4_U_30E4_U_30FC_1
  6
CONTINUOUS
 62
    7
 10
269.44081622862939
 20
-25.993397308807204
 11
269.43909368088674
 21
-26.8519151037315
  0
LINE
  8
_0-1__U_30EC_U_30A4_U_30E4_U_30FC_1
  6
CONTINUOUS
 62
    7
 10
269.43909368088674
 20
-26.8519151037315
 11
268.53355033258885
 21
-26.8519151037315
  0
LINE
  8
_0-1__U_30EC_U_30A4_U_30E4_U_30FC_1
  6
CONTINUOUS
 62
    7
 10
268.53355033258885
 20
-26.8519151037315
 11
268.08396537176372
 21
-27.32251514701656
  0
LINE
  8
_0-1__U_30EC_U_30A4_U_30E4_U_30FC_1
  6
CONTINUOUS
 62
    7
 10
268.08396537176372
 20
-27.32251514701656
 11
268.08396537176372
 21
-28.270605424557289
  0
LINE
  8
_0-1__U_30EC_U_30A4_U_30E4_U_30FC_1
  6
CONTINUOUS
 62
    7
 10
268.08396537176372
 20
-28.270605424557289
 11
267.09694551523967
 21
-28.270605424557289
  0
LINE
  8
_0-1__U_30EC_U_30A4_U_30E4_U_30FC_1
  6
CONTINUOUS
 62
    7
 10
267.09694551523967
 20
-28.270605424557289
 11
267.09694551523967
 21
-27.32251514701656
  0
LINE
  8
_0-1__U_30EC_U_30A4_U_30E4_U_30FC_1
  6
CONTINUOUS
 62
    7
 10
267.09694551523967
 20
-27.32251514701656
 11
266.64736055441455
 21
-26.8519151037315
  0
LINE
  8
_0-1__U_30EC_U_30A4_U_30E4_U_30FC_1
  6
CONTINUOUS
 62
    7
 10
266.64736055441455
 20
-26.8519151037315
 11
265.74250622521367
 21
-26.8519151037315
  0
LINE
  8
_0-1__U_30EC_U_30A4_U_30E4_U_30FC_1
  6
CONTINUOUS
 62
    7
 10
265.74250622521367
 20
-26.8519151037315
 11
265.74250622521367
 21
-25.994430837452796
  0
LINE
  8
_0-1__U_30EC_U_30A4_U_30E4_U_30FC_1
  6
CONTINUOUS
 62
    7
 10
265.74250622521367
 20
-25.994430837452796
 11
266.64736055441455
 21
-25.994430837452796
  0
LINE
  8
_0-1__U_30EC_U_30A4_U_30E4_U_30FC_1
  6
CONTINUOUS
 62
    7
 10
266.64736055441455
 20
-25.994430837452796
 11
267.09694551523967
 21
-25.522452755973575
  0
LINE
  8
_0-1__U_30EC_U_30A4_U_30E4_U_30FC_1
  6
CONTINUOUS
 62
    7
 10
267.09694551523967
 20
-25.522452755973575
 11
267.09694551523967
 21
-24.576774045272515
  0
LINE
  8
_0-1__U_30EC_U_30A4_U_30E4_U_30FC_1
  6
CONTINUOUS
 62
    7
 10
267.09694551523967
 20
-24.576774045272515
 11
268.08396537176372
 21
-24.579185612112212
  0
LINE
  8
_0-1__U_30EC_U_30A4_U_30E4_U_30FC_1
  6
CONTINUOUS
 62
    7
 10
236.11795789277608
 20
13.141853874985401
 11
237.10532225884867
 21
13.141853874985401
  0
LINE
  8
_0-1__U_30EC_U_30A4_U_30E4_U_30FC_1
  6
CONTINUOUS
 62
    7
 10
238.46372340868268
 20
11.72626414009622
 11
238.46372340868268
 21
10.866885071300572
  0
LINE
  8
_0-1__U_30EC_U_30A4_U_30E4_U_30FC_1
  6
CONTINUOUS
 62
    7
 10
233.88226317762317
 20
11.328011102001312
 11
234.68238660407246
 21
13.346837056357714
  0
LINE
  8
_0-1__U_30EC_U_30A4_U_30E4_U_30FC_1
  6
CONTINUOUS
 62
    7
 10
234.68238660407246
 20
13.346837056357714
 11
236.61422389742631
 21
14.182617221079312
  0
LINE
  8
_0-1__U_30EC_U_30A4_U_30E4_U_30FC_1
  6
CONTINUOUS
 62
    7
 10
236.61422389742631
 20
14.182617221079312
 11
238.54519991690884
 21
13.346837056357714
  0
LINE
  8
_0-1__U_30EC_U_30A4_U_30E4_U_30FC_1
  6
CONTINUOUS
 62
    7
 10
238.54519991690884
 20
13.346837056357714
 11
239.3453233433581
 21
11.328011102001312
  0
LINE
  8
_0-1__U_30EC_U_30A4_U_30E4_U_30FC_1
  6
CONTINUOUS
 62
    7
 10
239.3453233433581
 20
11.328011102001312
 11
238.54519991690884
 21
9.3114244597103379
  0
LINE
  8
_0-1__U_30EC_U_30A4_U_30E4_U_30FC_1
  6
CONTINUOUS
 62
    7
 10
238.54519991690884
 20
9.3114244597103379
 11
236.61422389742631
 21
8.4763333140857924
  0
LINE
  8
_0-1__U_30EC_U_30A4_U_30E4_U_30FC_1
  6
CONTINUOUS
 62
    7
 10
236.61422389742631
 20
8.4763333140857924
 11
234.68238660407246
 21
9.3114244597103379
  0
LINE
  8
_0-1__U_30EC_U_30A4_U_30E4_U_30FC_1
  6
CONTINUOUS
 62
    7
 10
234.68238660407246
 20
9.3114244597103379
 11
233.88226317762317
 21
11.328011102001312
  0
LINE
  8
_0-1__U_30EC_U_30A4_U_30E4_U_30FC_1
  6
CONTINUOUS
 62
    7
 10
237.10532225884867
 20
13.140820346339808
 11
237.10532225884867
 21
12.194969380864393
  0
LINE
  8
_0-1__U_30EC_U_30A4_U_30E4_U_30FC_1
  6
CONTINUOUS
 62
    7
 10
237.10532225884867
 20
12.194969380864393
 11
237.55559623877082
 21
11.72626414009622
  0
LINE
  8
_0-1__U_30EC_U_30A4_U_30E4_U_30FC_1
  6
CONTINUOUS
 62
    7
 10
237.55559623877082
 20
11.72626414009622
 11
238.46372340868268
 21
11.72626414009622
  0
LINE
  8
_0-1__U_30EC_U_30A4_U_30E4_U_30FC_1
  6
CONTINUOUS
 62
    7
 10
238.46372340868268
 20
11.72626414009622
 11
238.46010605842318
 21
10.866885071300572
  0
LINE
  8
_0-1__U_30EC_U_30A4_U_30E4_U_30FC_1
  6
CONTINUOUS
 62
    7
 10
238.46010605842318
 20
10.866885071300572
 11
237.55507947444804
 21
10.866885071300572
  0
LINE
  8
_0-1__U_30EC_U_30A4_U_30E4_U_30FC_1
  6
CONTINUOUS
 62
    7
 10
237.55507947444804
 20
10.866885071300572
 11
237.10532225884867
 21
10.397318556661077
  0
LINE
  8
_0-1__U_30EC_U_30A4_U_30E4_U_30FC_1
  6
CONTINUOUS
 62
    7
 10
237.10532225884867
 20
10.397318556661077
 11
237.10532225884867
 21
9.4468167122807074
  0
LINE
  8
_0-1__U_30EC_U_30A4_U_30E4_U_30FC_1
  6
CONTINUOUS
 62
    7
 10
237.10532225884867
 20
9.4468167122807074
 11
236.11795789277608
 21
9.4468167122807074
  0
LINE
  8
_0-1__U_30EC_U_30A4_U_30E4_U_30FC_1
  6
CONTINUOUS
 62
    7
 10
236.11795789277608
 20
9.4468167122807074
 11
236.11795789277608
 21
10.397318556661077
  0
LINE
  8
_0-1__U_30EC_U_30A4_U_30E4_U_30FC_1
  6
CONTINUOUS
 62
    7
 10
236.11795789277608
 20
10.397318556661077
 11
235.6687174414995
 21
10.866885071300572
  0
LINE
  8
_0-1__U_30EC_U_30A4_U_30E4_U_30FC_1
  6
CONTINUOUS
 62
    7
 10
235.6687174414995
 20
10.866885071300572
 11
234.76386311229862
 21
10.866885071300572
  0
LINE
  8
_0-1__U_30EC_U_30A4_U_30E4_U_30FC_1
  6
CONTINUOUS
 62
    7
 10
234.76386311229862
 20
10.866885071300572
 11
234.76386311229862
 21
11.724024828030792
  0
LINE
  8
_0-1__U_30EC_U_30A4_U_30E4_U_30FC_1
  6
CONTINUOUS
 62
    7
 10
234.76386311229862
 20
11.724024828030792
 11
235.6687174414995
 21
11.724024828030792
  0
LINE
  8
_0-1__U_30EC_U_30A4_U_30E4_U_30FC_1
  6
CONTINUOUS
 62
    7
 10
235.6687174414995
 20
11.724024828030792
 11
236.11795789277608
 21
12.194969380864393
  0
LINE
  8
_0-1__U_30EC_U_30A4_U_30E4_U_30FC_1
  6
CONTINUOUS
 62
    7
 10
236.11795789277608
 20
12.194969380864393
 11
236.11795789277608
 21
13.141853874985401
  0
LINE
  8
_0-1__U_30EC_U_30A4_U_30E4_U_30FC_1
  6
CONTINUOUS
 62
    7
 10
236.11795789277608
 20
13.141853874985401
 11
237.10532225884867
 21
13.140820346339808
  0
LINE
  8
_0-1__U_30EC_U_30A4_U_30E4_U_30FC_1
  6
CONTINUOUS
 62
    7
 10
295.98837752841609
 20
-2.7255669109783014
 11
296.78832870009109
 21
-0.7077744852674925
  0
LINE
  8
_0-1__U_30EC_U_30A4_U_30E4_U_30FC_1
  6
CONTINUOUS
 62
    7
 10
296.78832870009109
 20
-0.7077744852674925
 11
298.71964922912218
 21
0.1285224437768874
  0
LINE
  8
_0-1__U_30EC_U_30A4_U_30E4_U_30FC_1
  6
CONTINUOUS
 62
    7
 10
298.71964922912218
 20
0.1285224437768874
 11
300.65148652247603
 21
-0.7077744852674925
  0
LINE
  8
_0-1__U_30EC_U_30A4_U_30E4_U_30FC_1
  6
CONTINUOUS
 62
    7
 10
300.65148652247603
 20
-0.7077744852674925
 11
301.45143769415102
 21
-2.7255669109783014
  0
LINE
  8
_0-1__U_30EC_U_30A4_U_30E4_U_30FC_1
  6
CONTINUOUS
 62
    7
 10
301.45143769415102
 20
-2.7255669109783014
 11
300.65148652247603
 21
-4.743014827140712
  0
LINE
  8
_0-1__U_30EC_U_30A4_U_30E4_U_30FC_1
  6
CONTINUOUS
 62
    7
 10
300.65148652247603
 20
-4.743014827140712
 11
298.71964922912218
 21
-5.5791395014108218
  0
LINE
  8
_0-1__U_30EC_U_30A4_U_30E4_U_30FC_1
  6
CONTINUOUS
 62
    7
 10
298.71964922912218
 20
-5.5791395014108218
 11
296.78832870009109
 21
-4.743014827140712
  0
LINE
  8
_0-1__U_30EC_U_30A4_U_30E4_U_30FC_1
  6
CONTINUOUS
 62
    7
 10
296.78832870009109
 20
-4.743014827140712
 11
295.98837752841609
 21
-2.7255669109783014
  0
LINE
  8
_0-1__U_30EC_U_30A4_U_30E4_U_30FC_1
  6
CONTINUOUS
 62
    7
 10
299.21212562873865
 20
-0.9134466857368863
 11
299.21212562873865
 21
-1.8574028486954148
  0
LINE
  8
_0-1__U_30EC_U_30A4_U_30E4_U_30FC_1
  6
CONTINUOUS
 62
    7
 10
299.21212562873865
 20
-1.8574028486954148
 11
299.66222735388652
 21
-2.3280028919805034
  0
LINE
  8
_0-1__U_30EC_U_30A4_U_30E4_U_30FC_1
  6
CONTINUOUS
 62
    7
 10
299.66222735388652
 20
-2.3280028919805034
 11
300.56932099515279
 21
-2.3280028919805034
  0
LINE
  8
_0-1__U_30EC_U_30A4_U_30E4_U_30FC_1
  6
CONTINUOUS
 62
    7
 10
300.56932099515279
 20
-2.3280028919805034
 11
300.56604815444183
 21
-3.1885877441958996
  0
LINE
  8
_0-1__U_30EC_U_30A4_U_30E4_U_30FC_1
  6
CONTINUOUS
 62
    7
 10
300.56604815444183
 20
-3.1885877441958996
 11
299.66067706091815
 21
-3.1885877441958996
  0
LINE
  8
_0-1__U_30EC_U_30A4_U_30E4_U_30FC_1
  6
CONTINUOUS
 62
    7
 10
299.66067706091815
 20
-3.1885877441958996
 11
299.21212562873865
 21
-3.6584987683839927
  0
LINE
  8
_0-1__U_30EC_U_30A4_U_30E4_U_30FC_1
  6
CONTINUOUS
 62
    7
 10
299.21212562873865
 20
-3.6584987683839927
 11
299.21212562873865
 21
-4.6052110077305883
  0
LINE
  8
_0-1__U_30EC_U_30A4_U_30E4_U_30FC_1
  6
CONTINUOUS
 62
    7
 10
299.21212562873865
 20
-4.6052110077305883
 11
298.22458900789178
 21
-4.6052110077305883
  0
LINE
  8
_0-1__U_30EC_U_30A4_U_30E4_U_30FC_1
  6
CONTINUOUS
 62
    7
 10
298.22458900789178
 20
-4.6052110077305883
 11
298.22458900789178
 21
-3.6584987683839927
  0
LINE
  8
_0-1__U_30EC_U_30A4_U_30E4_U_30FC_1
  6
CONTINUOUS
 62
    7
 10
298.22458900789178
 20
-3.6584987683839927
 11
297.77431502796958
 21
-3.1885877441958996
  0
LINE
  8
_0-1__U_30EC_U_30A4_U_30E4_U_30FC_1
  6
CONTINUOUS
 62
    7
 10
297.77431502796958
 20
-3.1885877441958996
 11
296.86946069876876
 21
-3.1885877441958996
  0
LINE
  8
_0-1__U_30EC_U_30A4_U_30E4_U_30FC_1
  6
CONTINUOUS
 62
    7
 10
296.86946069876876
 20
-3.1885877441958996
 11
296.86946069876876
 21
-2.3314479874657934
  0
LINE
  8
_0-1__U_30EC_U_30A4_U_30E4_U_30FC_1
  6
CONTINUOUS
 62
    7
 10
296.86946069876876
 20
-2.3314479874657934
 11
297.77431502796958
 21
-2.3314479874657934
  0
LINE
  8
_0-1__U_30EC_U_30A4_U_30E4_U_30FC_1
  6
CONTINUOUS
 62
    7
 10
297.77431502796958
 20
-2.3314479874657934
 11
298.22458900789178
 21
-1.8598144155351122
  0
LINE
  8
_0-1__U_30EC_U_30A4_U_30E4_U_30FC_1
  6
CONTINUOUS
 62
    7
 10
298.22458900789178
 20
-1.8598144155351122
 11
298.22458900789178
 21
-0.9113796284458146
  0
LINE
  8
_0-1__U_30EC_U_30A4_U_30E4_U_30FC_1
  6
CONTINUOUS
 62
    7
 10
298.22458900789178
 20
-0.9113796284458146
 11
299.21212562873865
 21
-0.9134466857368863
  0
LINE
  8
_0-1__U_30EC_U_30A4_U_30E4_U_30FC_1
  6
CONTINUOUS
 62
    7
 10
280.55693357611074
 20
33.363875354304895
 11
276.3937079369606
 21
24.460887346548006
  0
LINE
  8
_0-1__U_30EC_U_30A4_U_30E4_U_30FC_1
  6
CONTINUOUS
 62
    7
 10
254.63879122147921
 20
33.363875354304895
 11
258.80218911540362
 21
24.460887346548006
  0
LINE
  8
_0-1__U_30EC_U_30A4_U_30E4_U_30FC_1
  6
CONTINUOUS
 62
    7
 10
280.55693357611074
 20
-24.377992035773559
 11
276.3937079369606
 21
-15.473109225499798
  0
LINE
  8
_0-1__U_30EC_U_30A4_U_30E4_U_30FC_1
  6
CONTINUOUS
 62
    7
 10
254.63879122147921
 20
-24.377992035773559
 11
258.80218911540362
 21
-15.473109225499798
  0
LINE
  8
_0-1__U_30EC_U_30A4_U_30E4_U_30FC_1
  6
CONTINUOUS
 62
    7
 10
284.57908255513996
 20
4.5003486145589022
 11
284.23629555435758
 21
0.9479384049436134
  0
LINE
  8
_0-1__U_30EC_U_30A4_U_30E4_U_30FC_1
  6
CONTINUOUS
 62
    7
 10
284.23629555435758
 20
0.9479384049436134
 11
283.2530653028673
 21
-2.3607312990903608
  0
LINE
  8
_0-1__U_30EC_U_30A4_U_30E4_U_30FC_1
  6
CONTINUOUS
 62
    7
 10
283.2530653028673
 20
-2.3607312990903608
 11
281.69760469127698
 21
-5.3545192757725033
  0
LINE
  8
_0-1__U_30EC_U_30A4_U_30E4_U_30FC_1
  6
CONTINUOUS
 62
    7
 10
281.69760469127698
 20
-5.3545192757725033
 11
279.63726533632331
 21
-7.9628010676551071
  0
LINE
  8
_0-1__U_30EC_U_30A4_U_30E4_U_30FC_1
  6
CONTINUOUS
 62
    7
 10
279.63726533632331
 20
-7.9628010676551071
 11
277.14026012861427
 21
-10.114952217290693
  0
LINE
  8
_0-1__U_30EC_U_30A4_U_30E4_U_30FC_1
  6
CONTINUOUS
 62
    7
 10
277.14026012861427
 20
-10.114952217290693
 11
274.27428519443492
 21
-11.739659248134501
  0
LINE
  8
_0-1__U_30EC_U_30A4_U_30E4_U_30FC_1
  6
CONTINUOUS
 62
    7
 10
274.27428519443492
 20
-11.739659248134501
 11
271.10738116961898
 21
-12.766642212287508
  0
LINE
  8
_0-1__U_30EC_U_30A4_U_30E4_U_30FC_1
  6
CONTINUOUS
 62
    7
 10
271.10738116961898
 20
-12.766642212287508
 11
267.70707192567738
 21
-13.12458763320501
  0
LINE
  8
_0-1__U_30EC_U_30A4_U_30E4_U_30FC_1
  6
CONTINUOUS
 62
    7
 10
267.70707192567738
 20
-13.12458763320501
 11
264.30676268173579
 21
-12.766642212287508
  0
LINE
  8
_0-1__U_30EC_U_30A4_U_30E4_U_30FC_1
  6
CONTINUOUS
 62
    7
 10
264.30676268173579
 20
-12.766642212287508
 11
261.1398586569199
 21
-11.739659248134501
  0
LINE
  8
_0-1__U_30EC_U_30A4_U_30E4_U_30FC_1
  6
CONTINUOUS
 62
    7
 10
261.1398586569199
 20
-11.739659248134501
 11
258.27388372274055
 21
-10.114952217290693
  0
LINE
  8
_0-1__U_30EC_U_30A4_U_30E4_U_30FC_1
  6
CONTINUOUS
 62
    7
 10
258.27388372274055
 20
-10.114952217290693
 11
255.77687851503148
 21
-7.9628010676551071
  0
LINE
  8
_0-1__U_30EC_U_30A4_U_30E4_U_30FC_1
  6
CONTINUOUS
 62
    7
 10
255.77687851503148
 20
-7.9628010676551071
 11
253.71653916007784
 21
-5.3545192757725033
  0
LINE
  8
_0-1__U_30EC_U_30A4_U_30E4_U_30FC_1
  6
CONTINUOUS
 62
    7
 10
253.71653916007784
 20
-5.3545192757725033
 11
252.16107854848752
 21
-2.3607312990903608
  0
LINE
  8
_0-1__U_30EC_U_30A4_U_30E4_U_30FC_1
  6
CONTINUOUS
 62
    7
 10
252.16107854848752
 20
-2.3607312990903608
 11
251.17784829699718
 21
0.9479384049436134
  0
LINE
  8
_0-1__U_30EC_U_30A4_U_30E4_U_30FC_1
  6
CONTINUOUS
 62
    7
 10
251.17784829699718
 20
0.9479384049436134
 11
250.83506129621486
 21
4.5003486145589022
  0
LINE
  8
_0-1__U_30EC_U_30A4_U_30E4_U_30FC_1
  6
CONTINUOUS
 62
    7
 10
250.83506129621486
 20
4.5003486145589022
 11
251.17784829699718
 21
8.051725295528712
  0
LINE
  8
_0-1__U_30EC_U_30A4_U_30E4_U_30FC_1
  6
CONTINUOUS
 62
    7
 10
251.17784829699718
 20
8.051725295528712
 11
252.16107854848752
 21
11.359705980465606
  0
LINE
  8
_0-1__U_30EC_U_30A4_U_30E4_U_30FC_1
  6
CONTINUOUS
 62
    7
 10
252.16107854848752
 20
11.359705980465606
 11
253.71653916007784
 21
14.353493957147691
  0
LINE
  8
_0-1__U_30EC_U_30A4_U_30E4_U_30FC_1
  6
CONTINUOUS
 62
    7
 10
253.71653916007784
 20
14.353493957147691
 11
255.77687851503148
 21
16.961948003804707
  0
LINE
  8
_0-1__U_30EC_U_30A4_U_30E4_U_30FC_1
  6
CONTINUOUS
 62
    7
 10
255.77687851503148
 20
16.961948003804707
 11
258.27388372274055
 21
19.114271408214506
  0
LINE
  8
_0-1__U_30EC_U_30A4_U_30E4_U_30FC_1
  6
CONTINUOUS
 62
    7
 10
258.27388372274055
 20
19.114271408214506
 11
261.1398586569199
 21
20.739322948606798
  0
LINE
  8
_0-1__U_30EC_U_30A4_U_30E4_U_30FC_1
  6
CONTINUOUS
 62
    7
 10
261.1398586569199
 20
20.739322948606798
 11
264.30676268173579
 21
21.76630591275979
  0
LINE
  8
_0-1__U_30EC_U_30A4_U_30E4_U_30FC_1
  6
CONTINUOUS
 62
    7
 10
264.30676268173579
 20
21.76630591275979
 11
267.70707192567738
 21
22.124423588451492
  0
LINE
  8
_0-1__U_30EC_U_30A4_U_30E4_U_30FC_1
  6
CONTINUOUS
 62
    7
 10
267.70707192567738
 20
22.124423588451492
 11
271.10738116961898
 21
21.76630591275979
  0
LINE
  8
_0-1__U_30EC_U_30A4_U_30E4_U_30FC_1
  6
CONTINUOUS
 62
    7
 10
271.10738116961898
 20
21.76630591275979
 11
274.27428519443492
 21
20.739322948606798
  0
LINE
  8
_0-1__U_30EC_U_30A4_U_30E4_U_30FC_1
  6
CONTINUOUS
 62
    7
 10
274.27428519443492
 20
20.739322948606798
 11
277.14026012861427
 21
19.114271408214506
  0
LINE
  8
_0-1__U_30EC_U_30A4_U_30E4_U_30FC_1
  6
CONTINUOUS
 62
    7
 10
277.14026012861427
 20
19.114271408214506
 11
279.63726533632331
 21
16.961948003804707
  0
LINE
  8
_0-1__U_30EC_U_30A4_U_30E4_U_30FC_1
  6
CONTINUOUS
 62
    7
 10
279.63726533632331
 20
16.961948003804707
 11
281.69760469127698
 21
14.353493957147691
  0
LINE
  8
_0-1__U_30EC_U_30A4_U_30E4_U_30FC_1
  6
CONTINUOUS
 62
    7
 10
281.69760469127698
 20
14.353493957147691
 11
283.2530653028673
 21
11.359705980465606
  0
LINE
  8
_0-1__U_30EC_U_30A4_U_30E4_U_30FC_1
  6
CONTINUOUS
 62
    7
 10
283.2530653028673
 20
11.359705980465606
 11
284.23629555435758
 21
8.051725295528712
  0
LINE
  8
_0-1__U_30EC_U_30A4_U_30E4_U_30FC_1
  6
CONTINUOUS
 62
    7
 10
284.23629555435758
 20
8.051725295528712
 11
284.57908255513996
 21
4.5003486145589022
  0
LINE
  8
_0-1__U_30EC_U_30A4_U_30E4_U_30FC_1
  6
CONTINUOUS
 62
    7
 10
288.72094860228157
 20
4.5003486145589022
 11
288.29392901688482
 21
0.0759847376268112
  0
LINE
  8
_0-1__U_30EC_U_30A4_U_30E4_U_30FC_1
  6
CONTINUOUS
 62
    7
 10
288.29392901688482
 20
0.0759847376268112
 11
287.06954208142707
 21
-4.0450384818290104
  0
LINE
  8
_0-1__U_30EC_U_30A4_U_30E4_U_30FC_1
  6
CONTINUOUS
 62
    7
 10
287.06954208142707
 20
-4.0450384818290104
 11
285.13202038052253
 21
-7.7740098350635094
  0
LINE
  8
_0-1__U_30EC_U_30A4_U_30E4_U_30FC_1
  6
CONTINUOUS
 62
    7
 10
285.13202038052253
 20
-7.7740098350635094
 11
282.56594100833422
 21
-11.022734877653988
  0
LINE
  8
_0-1__U_30EC_U_30A4_U_30E4_U_30FC_1
  6
CONTINUOUS
 62
    7
 10
282.56594100833422
 20
-11.022734877653988
 11
279.45588105902493
 21
-13.703363674726916
  0
LINE
  8
_0-1__U_30EC_U_30A4_U_30E4_U_30FC_1
  6
CONTINUOUS
 62
    7
 10
279.45588105902493
 20
-13.703363674726916
 11
275.88641762675752
 21
-15.727357272311224
  0
LINE
  8
_0-1__U_30EC_U_30A4_U_30E4_U_30FC_1
  6
CONTINUOUS
 62
    7
 10
275.88641762675752
 20
-15.727357272311224
 11
271.94195555092074
 21
-17.0065212259845
  0
LINE
  8
_0-1__U_30EC_U_30A4_U_30E4_U_30FC_1
  6
CONTINUOUS
 62
    7
 10
271.94195555092074
 20
-17.0065212259845
 11
267.70707192567738
 21
-17.45231658177579
  0
LINE
  8
_0-1__U_30EC_U_30A4_U_30E4_U_30FC_1
  6
CONTINUOUS
 62
    7
 10
267.70707192567738
 20
-17.45231658177579
 11
263.47201604565976
 21
-17.0065212259845
  0
LINE
  8
_0-1__U_30EC_U_30A4_U_30E4_U_30FC_1
  6
CONTINUOUS
 62
    7
 10
263.47201604565976
 20
-17.0065212259845
 11
259.5273817150487
 21
-15.727357272311224
  0
LINE
  8
_0-1__U_30EC_U_30A4_U_30E4_U_30FC_1
  6
CONTINUOUS
 62
    7
 10
259.5273817150487
 20
-15.727357272311224
 11
255.95791828278135
 21
-13.703363674726916
  0
LINE
  8
_0-1__U_30EC_U_30A4_U_30E4_U_30FC_1
  6
CONTINUOUS
 62
    7
 10
255.95791828278135
 20
-13.703363674726916
 11
252.84803058824633
 21
-11.022734877653988
  0
LINE
  8
_0-1__U_30EC_U_30A4_U_30E4_U_30FC_1
  6
CONTINUOUS
 62
    7
 10
252.84803058824633
 20
-11.022734877653988
 11
250.28212347083226
 21
-7.7740098350635094
  0
LINE
  8
_0-1__U_30EC_U_30A4_U_30E4_U_30FC_1
  6
CONTINUOUS
 62
    7
 10
250.28212347083226
 20
-7.7740098350635094
 11
248.34460176992775
 21
-4.0450384818290104
  0
LINE
  8
_0-1__U_30EC_U_30A4_U_30E4_U_30FC_1
  6
CONTINUOUS
 62
    7
 10
248.34460176992775
 20
-4.0450384818290104
 11
247.12004257969568
 21
0.0759847376268112
  0
LINE
  8
_0-1__U_30EC_U_30A4_U_30E4_U_30FC_1
  6
CONTINUOUS
 62
    7
 10
247.12004257969568
 20
0.0759847376268112
 11
246.69319524907323
 21
4.5003486145589022
  0
LINE
  8
_0-1__U_30EC_U_30A4_U_30E4_U_30FC_1
  6
CONTINUOUS
 62
    7
 10
246.69319524907323
 20
4.5003486145589022
 11
247.12004257969568
 21
8.9238512176196991
  0
LINE
  8
_0-1__U_30EC_U_30A4_U_30E4_U_30FC_1
  6
CONTINUOUS
 62
    7
 10
247.12004257969568
 20
8.9238512176196991
 11
248.34460176992775
 21
13.044013163204312
  0
LINE
  8
_0-1__U_30EC_U_30A4_U_30E4_U_30FC_1
  6
CONTINUOUS
 62
    7
 10
248.34460176992775
 20
13.044013163204312
 11
250.28212347083226
 21
16.772467752115887
  0
LINE
  8
_0-1__U_30EC_U_30A4_U_30E4_U_30FC_1
  6
CONTINUOUS
 62
    7
 10
250.28212347083226
 20
16.772467752115887
 11
252.84803058824633
 21
20.021192794706508
  0
LINE
  8
_0-1__U_30EC_U_30A4_U_30E4_U_30FC_1
  6
CONTINUOUS
 62
    7
 10
252.84803058824633
 20
20.021192794706508
 11
255.95791828278135
 21
22.701821591779407
  0
LINE
  8
_0-1__U_30EC_U_30A4_U_30E4_U_30FC_1
  6
CONTINUOUS
 62
    7
 10
255.95791828278135
 20
22.701821591779407
 11
259.5273817150487
 21
24.725815189363701
  0
LINE
  8
_0-1__U_30EC_U_30A4_U_30E4_U_30FC_1
  6
CONTINUOUS
 62
    7
 10
259.5273817150487
 20
24.725815189363701
 11
263.47201604565976
 21
26.004979143036905
  0
LINE
  8
_0-1__U_30EC_U_30A4_U_30E4_U_30FC_1
  6
CONTINUOUS
 62
    7
 10
263.47201604565976
 20
26.004979143036905
 11
267.70707192567738
 21
26.451119008376807
  0
LINE
  8
_0-1__U_30EC_U_30A4_U_30E4_U_30FC_1
  6
CONTINUOUS
 62
    7
 10
267.70707192567738
 20
26.451119008376807
 11
271.94195555092074
 21
26.004979143036905
  0
LINE
  8
_0-1__U_30EC_U_30A4_U_30E4_U_30FC_1
  6
CONTINUOUS
 62
    7
 10
271.94195555092074
 20
26.004979143036905
 11
275.88641762675752
 21
24.725815189363701
  0
LINE
  8
_0-1__U_30EC_U_30A4_U_30E4_U_30FC_1
  6
CONTINUOUS
 62
    7
 10
275.88641762675752
 20
24.725815189363701
 11
279.45588105902493
 21
22.701821591779407
  0
LINE
  8
_0-1__U_30EC_U_30A4_U_30E4_U_30FC_1
  6
CONTINUOUS
 62
    7
 10
279.45588105902493
 20
22.701821591779407
 11
282.56594100833422
 21
20.021192794706508
  0
LINE
  8
_0-1__U_30EC_U_30A4_U_30E4_U_30FC_1
  6
CONTINUOUS
 62
    7
 10
282.56594100833422
 20
20.021192794706508
 11
285.13202038052253
 21
16.772467752115887
  0
LINE
  8
_0-1__U_30EC_U_30A4_U_30E4_U_30FC_1
  6
CONTINUOUS
 62
    7
 10
285.13202038052253
 20
16.772467752115887
 11
287.06954208142707
 21
13.044013163204312
  0
LINE
  8
_0-1__U_30EC_U_30A4_U_30E4_U_30FC_1
  6
CONTINUOUS
 62
    7
 10
287.06954208142707
 20
13.044013163204312
 11
288.29392901688482
 21
8.9238512176196991
  0
LINE
  8
_0-1__U_30EC_U_30A4_U_30E4_U_30FC_1
  6
CONTINUOUS
 62
    7
 10
288.29392901688482
 20
8.9238512176196991
 11
288.72094860228157
 21
4.5003486145589022
  0
LINE
  8
_0-1__U_30EC_U_30A4_U_30E4_U_30FC_1
  6
CONTINUOUS
 62
    7
 10
238.53124728019358
 20
15.763571539260511
 11
242.78232285421763
 21
10.284663934293405
  0
LINE
  8
_0-1__U_30EC_U_30A4_U_30E4_U_30FC_1
  6
CONTINUOUS
 62
    7
 10
300.5827568675453
 20
1.5115560263303962
 11
296.57145993929464
 21
1.5115560263303962
  0
LINE
  8
_0-1__U_30EC_U_30A4_U_30E4_U_30FC_1
  6
CONTINUOUS
 62
    7
 10
240.10496689785572
 20
5.4387926247410121
 11
241.82027993996161
 21
3.9046916051592007
  0
LINE
  8
_0-1__U_30EC_U_30A4_U_30E4_U_30FC_1
  6
CONTINUOUS
 62
    7
 10
240.10496689785572
 20
2.6207045178065869
 11
242.34238416075121
 21
0.5376275326503048
  0
LINE
  8
_0-1__U_30EC_U_30A4_U_30E4_U_30FC_1
  6
CONTINUOUS
 62
    7
 10
242.50327011991237
 20
10.627967699398596
 11
242.5482286159949
 21
10.054703810652995
  0
LINE
  8
_0-1__U_30EC_U_30A4_U_30E4_U_30FC_1
  6
CONTINUOUS
 62
    7
 10
242.5482286159949
 20
10.054703810652995
 11
242.56648762206672
 21
8.5388617971431131
  0
LINE
  8
_0-1__U_30EC_U_30A4_U_30E4_U_30FC_1
  6
CONTINUOUS
 62
    7
 10
242.56648762206672
 20
8.5388617971431131
 11
242.38217501360586
 21
6.3868829022817124
  0
LINE
  8
_0-1__U_30EC_U_30A4_U_30E4_U_30FC_1
  6
CONTINUOUS
 62
    7
 10
242.38217501360586
 20
6.3868829022817124
 11
241.82027993996161
 21
3.9046916051592007
  0
LINE
  8
_0-1__U_30EC_U_30A4_U_30E4_U_30FC_1
  6
CONTINUOUS
 62
    7
 10
238.53124728019358
 20
0.6952406511005335
 11
240.76849228831483
 21
-1.3874918245072934
  0
LINE
  8
_0-1__U_30EC_U_30A4_U_30E4_U_30FC_1
  6
CONTINUOUS
 62
    7
 10
236.28263345697101
 20
0.6952406511005335
 11
238.52039522941504
 21
-1.3874918245072934
  0
LINE
  8
_0-1__U_30EC_U_30A4_U_30E4_U_30FC_1
  6
CONTINUOUS
 62
    7
 10
241.82027993996161
 20
3.9046916051592007
 11
242.34238416075121
 21
0.5376275326503048
  0
LINE
  8
_0-1__U_30EC_U_30A4_U_30E4_U_30FC_1
  6
CONTINUOUS
 62
    7
 10
242.34238416075121
 20
0.5376275326503048
 11
240.76849228831483
 21
-1.3874918245072934
  0
LINE
  8
_0-1__U_30EC_U_30A4_U_30E4_U_30FC_1
  6
CONTINUOUS
 62
    7
 10
240.76849228831483
 20
-1.3874918245072934
 11
238.52039522941504
 21
-1.3874918245072934
  0
LINE
  8
_0-1__U_30EC_U_30A4_U_30E4_U_30FC_1
  6
CONTINUOUS
 62
    7
 10
242.78232285421763
 20
10.284663934293405
 11
243.51388888051042
 21
8.2992554061439137
  0
LINE
  8
_0-1__U_30EC_U_30A4_U_30E4_U_30FC_1
  6
CONTINUOUS
 62
    7
 10
296.66482202694488
 20
-6.7649413674338064
 11
292.41374645292086
 21
-1.285172488595407
  0
LINE
  8
_0-1__U_30EC_U_30A4_U_30E4_U_30FC_1
  6
CONTINUOUS
 62
    7
 10
295.09110240928277
 20
3.5631103877967121
 11
293.37596162195115
 21
5.0953166048616083
  0
LINE
  8
_0-1__U_30EC_U_30A4_U_30E4_U_30FC_1
  6
CONTINUOUS
 62
    7
 10
295.09110240928277
 20
6.3793036922141937
 11
292.85437416548433
 21
8.4620361678219922
  0
LINE
  8
_0-1__U_30EC_U_30A4_U_30E4_U_30FC_1
  6
CONTINUOUS
 62
    7
 10
292.69245467767757
 20
-1.6276149798291897
 11
292.64732392682083
 21
-1.0546956006321864
  0
LINE
  8
_0-1__U_30EC_U_30A4_U_30E4_U_30FC_1
  6
CONTINUOUS
 62
    7
 10
292.64732392682083
 20
-1.0546956006321864
 11
292.62906492074899
 21
0.4608019033292407
  0
LINE
  8
_0-1__U_30EC_U_30A4_U_30E4_U_30FC_1
  6
CONTINUOUS
 62
    7
 10
292.62906492074899
 20
0.4608019033292407
 11
292.8133775292099
 21
2.612608543416286
  0
LINE
  8
_0-1__U_30EC_U_30A4_U_30E4_U_30FC_1
  6
CONTINUOUS
 62
    7
 10
292.8133775292099
 20
2.612608543416286
 11
293.37596162195115
 21
5.0953166048616083
  0
LINE
  8
_0-1__U_30EC_U_30A4_U_30E4_U_30FC_1
  6
CONTINUOUS
 62
    7
 10
296.66482202694488
 20
8.3054565780174414
 11
294.42757701882368
 21
10.387327779753861
  0
LINE
  8
_0-1__U_30EC_U_30A4_U_30E4_U_30FC_1
  6
CONTINUOUS
 62
    7
 10
298.9134358501675
 20
8.3054565780174414
 11
296.67619084204625
 21
10.387327779753861
  0
LINE
  8
_0-1__U_30EC_U_30A4_U_30E4_U_30FC_1
  6
CONTINUOUS
 62
    7
 10
293.37596162195115
 20
5.0953166048616083
 11
292.85437416548433
 21
8.4620361678219922
  0
LINE
  8
_0-1__U_30EC_U_30A4_U_30E4_U_30FC_1
  6
CONTINUOUS
 62
    7
 10
292.85437416548433
 20
8.4620361678219922
 11
294.42757701882368
 21
10.387327779753861
  0
LINE
  8
_0-1__U_30EC_U_30A4_U_30E4_U_30FC_1
  6
CONTINUOUS
 62
    7
 10
294.42757701882368
 20
10.387327779753861
 11
296.67619084204625
 21
10.387327779753861
  0
LINE
  8
_0-1__U_30EC_U_30A4_U_30E4_U_30FC_1
  6
CONTINUOUS
 62
    7
 10
292.41374645292086
 20
-1.285172488595407
 11
291.68235268140234
 21
0.7007528038768953
  0
LINE
  8
_0-1__U_30EC_U_30A4_U_30E4_U_30FC_1
  6
CONTINUOUS
 62
    7
 10
383.91703283412488
 20
-32.50014915179861
 11
383.0004651802742
 21
-32.50014915179861
  0
LINE
  8
_0-1__U_30EC_U_30A4_U_30E4_U_30FC_1
  6
CONTINUOUS
 62
    7
 10
383.0004651802742
 20
-32.50014915179861
 11
383.0004651802742
 21
41.499985107045106
  0
LINE
  8
_0-1__U_30EC_U_30A4_U_30E4_U_30FC_1
  6
CONTINUOUS
 62
    7
 10
383.0004651802742
 20
41.499985107045106
 11
383.91703283412488
 21
41.499985107045106
  0
LINE
  8
_0-1__U_30EC_U_30A4_U_30E4_U_30FC_1
  6
CONTINUOUS
 62
    7
 10
383.91703283412488
 20
41.499985107045106
 11
383.91703283412488
 21
-32.50014915179861
  0
LINE
  8
_0-1__U_30EC_U_30A4_U_30E4_U_30FC_1
  6
CONTINUOUS
 62
    7
 10
382.99994841595139
 20
50.499952552711818
 11
382.99994841595139
 21
42.499924071638915
  0
LINE
  8
_0-1__U_30EC_U_30A4_U_30E4_U_30FC_1
  6
CONTINUOUS
 62
    7
 10
339.99998911680564
 20
50.499952552711818
 11
339.99998911680564
 21
30.499967477416703
  0
LINE
  8
_0-1__U_30EC_U_30A4_U_30E4_U_30FC_1
  6
CONTINUOUS
 62
    7
 10
339.99998911680564
 20
50.499952552711818
 11
382.99994841595139
 21
50.499952552711818
  0
INSERT
  2
-006-block_7
  8
_0-1__U_30EC_U_30A4_U_30E4_U_30FC_1
 10
210
 20
148.5
 41
1000000
 42
1000000
 50
0
  0
LINE
  8
_0-1__U_30EC_U_30A4_U_30E4_U_30FC_1
  6
CONTINUOUS
 62
    7
 10
381.00007048676389
 20
-32.50014915179861
 11
320.00000404151041
 21
-32.50014915179861
  0
LINE
  8
_0-1__U_30EC_U_30A4_U_30E4_U_30FC_1
  6
CONTINUOUS
 62
    7
 10
381.00007048676389
 20
41.499985107045106
 11
320.00000404151041
 21
41.499985107045106
  0
LINE
  8
_0-1__U_30EC_U_30A4_U_30E4_U_30FC_1
  6
CONTINUOUS
 62
    7
 10
347.00007863328472
 20
38.499995958489606
 11
333.00007185510071
 21
38.499995958489606
  0
LINE
  8
_0-1__U_30EC_U_30A4_U_30E4_U_30FC_1
  6
CONTINUOUS
 62
    7
 10
347.00007863328472
 20
-29.500160003242968
 11
333.00007185510071
 21
-29.500160003242968
  0
LINE
  8
_0-1__U_30EC_U_30A4_U_30E4_U_30FC_1
  6
CONTINUOUS
 62
    7
 10
320.00000404151041
 20
41.499985107045106
 11
320.00000404151041
 21
-32.50014915179861
  0
LINE
  8
_0-1__U_30EC_U_30A4_U_30E4_U_30FC_1
  6
CONTINUOUS
 62
    7
 10
333.00007185510071
 20
38.499995958489606
 11
333.00007185510071
 21
-29.500160003242968
  0
INSERT
  2
-008-block_9
  8
_0-1__U_30EC_U_30A4_U_30E4_U_30FC_1
 10
210
 20
148.5
 41
1000000
 42
1000000
 50
0
  0
INSERT
  2
-010-block_11
  8
_0-1__U_30EC_U_30A4_U_30E4_U_30FC_1
 10
210
 20
148.5
 41
1000000
 42
1000000
 50
0
  0
LINE
  8
_0-1__U_30EC_U_30A4_U_30E4_U_30FC_1
  6
CONTINUOUS
 62
    7
 10
624.99999175822927
 20
-143.50009215790283
 11
215.00003933251736
 21
-143.50009215790283
  0
LINE
  8
_0-1__U_30EC_U_30A4_U_30E4_U_30FC_1
  6
CONTINUOUS
 62
    7
 10
215.00003933251736
 20
-143.50009215790283
 11
215.00003933251736
 21
143.49996066748264
  0
LINE
  8
_0-1__U_30EC_U_30A4_U_30E4_U_30FC_1
  6
CONTINUOUS
 62
    7
 10
215.00003933251736
 20
143.49996066748264
 11
624.99999175822927
 21
143.49996066748264
  0
LINE
  8
_0-1__U_30EC_U_30A4_U_30E4_U_30FC_1
  6
CONTINUOUS
 62
    7
 10
624.99999175822927
 20
143.49996066748264
 11
624.99999175822927
 21
-143.50009215790283
  0
LINE
  8
_0-1__U_30EC_U_30A4_U_30E4_U_30FC_1
  6
CONTINUOUS
 62
    7
 10
215.00003933251736
 20
-128.50014641512502
 11
624.99999175822927
 21
-128.50014641512502
  0
INSERT
  2
-011-block_13
  8
_0-1__U_30EC_U_30A4_U_30E4_U_30FC_1
 10
210
 20
148.5
 41
1000000
 42
1000000
 50
0
  0
INSERT
  2
-012-block_14
  8
_0-1__U_30EC_U_30A4_U_30E4_U_30FC_1
 10
210
 20
148.5
 41
1000000
 42
1000000
 50
0
  0
INSERT
  2
-013-block_15
  8
_0-1__U_30EC_U_30A4_U_30E4_U_30FC_1
 10
210
 20
148.5
 41
1000000
 42
1000000
 50
0
  0
LINE
  8
_0-1__U_30EC_U_30A4_U_30E4_U_30FC_1
  6
CONTINUOUS
 62
    7
 10
507.4998425905556
 20
4.4998318502360917
 11
507.02235235630002
 21
-0.2361409133368113
  0
LINE
  8
_0-1__U_30EC_U_30A4_U_30E4_U_30FC_1
  6
CONTINUOUS
 62
    7
 10
507.02235235630002
 20
-0.2361409133368113
 11
505.65327141046168
 21
-4.6475856821992068
  0
LINE
  8
_0-1__U_30EC_U_30A4_U_30E4_U_30FC_1
  6
CONTINUOUS
 62
    7
 10
505.65327141046168
 20
-4.6475856821992068
 11
503.48630635023949
 21
-8.6390733114097031
  0
LINE
  8
_0-1__U_30EC_U_30A4_U_30E4_U_30FC_1
  6
CONTINUOUS
 62
    7
 10
503.48630635023949
 20
-8.6390733114097031
 11
500.61688632057502
 21
-12.117241713317895
  0
LINE
  8
_0-1__U_30EC_U_30A4_U_30E4_U_30FC_1
  6
CONTINUOUS
 62
    7
 10
500.61688632057502
 20
-12.117241713317895
 11
497.13906242821531
 21
-14.986661742982477
  0
LINE
  8
_0-1__U_30EC_U_30A4_U_30E4_U_30FC_1
  6
CONTINUOUS
 62
    7
 10
497.13906242821531
 20
-14.986661742982477
 11
493.14723028945627
 21
-17.153282293656076
  0
LINE
  8
_0-1__U_30EC_U_30A4_U_30E4_U_30FC_1
  6
CONTINUOUS
 62
    7
 10
493.14723028945627
 20
-17.153282293656076
 11
488.73613003014248
 21
-18.522707749042979
  0
LINE
  8
_0-1__U_30EC_U_30A4_U_30E4_U_30FC_1
  6
CONTINUOUS
 62
    7
 10
488.73613003014248
 20
-18.522707749042979
 11
483.99981275702089
 21
-19.000197983298591
  0
LINE
  8
_0-1__U_30EC_U_30A4_U_30E4_U_30FC_1
  6
CONTINUOUS
 62
    7
 10
483.99981275702089
 20
-19.000197983298591
 11
479.26349548389942
 21
-18.522707749042979
  0
LINE
  8
_0-1__U_30EC_U_30A4_U_30E4_U_30FC_1
  6
CONTINUOUS
 62
    7
 10
479.26349548389942
 20
-18.522707749042979
 11
474.85239522458551
 21
-17.153282293656076
  0
LINE
  8
_0-1__U_30EC_U_30A4_U_30E4_U_30FC_1
  6
CONTINUOUS
 62
    7
 10
474.85239522458551
 20
-17.153282293656076
 11
470.86056308582653
 21
-14.986661742982477
  0
LINE
  8
_0-1__U_30EC_U_30A4_U_30E4_U_30FC_1
  6
CONTINUOUS
 62
    7
 10
470.86056308582653
 20
-14.986661742982477
 11
467.38273919346682
 21
-12.117241713317895
  0
LINE
  8
_0-1__U_30EC_U_30A4_U_30E4_U_30FC_1
  6
CONTINUOUS
 62
    7
 10
467.38273919346682
 20
-12.117241713317895
 11
464.51331916380218
 21
-8.6390733114097031
  0
LINE
  8
_0-1__U_30EC_U_30A4_U_30E4_U_30FC_1
  6
CONTINUOUS
 62
    7
 10
464.51331916380218
 20
-8.6390733114097031
 11
462.3463541035801
 21
-4.6475856821992068
  0
LINE
  8
_0-1__U_30EC_U_30A4_U_30E4_U_30FC_1
  6
CONTINUOUS
 62
    7
 10
462.3463541035801
 20
-4.6475856821992068
 11
460.97727315774182
 21
-0.2361409133368113
  0
LINE
  8
_0-1__U_30EC_U_30A4_U_30E4_U_30FC_1
  6
CONTINUOUS
 62
    7
 10
460.97727315774182
 20
-0.2361409133368113
 11
460.49978292348618
 21
4.4998318502360917
  0
LINE
  8
_0-1__U_30EC_U_30A4_U_30E4_U_30FC_1
  6
CONTINUOUS
 62
    7
 10
460.49978292348618
 20
4.4998318502360917
 11
460.97727315774182
 21
9.2359768685834069
  0
LINE
  8
_0-1__U_30EC_U_30A4_U_30E4_U_30FC_1
  6
CONTINUOUS
 62
    7
 10
460.97727315774182
 20
9.2359768685834069
 11
462.3463541035801
 21
13.64707712789729
  0
LINE
  8
_0-1__U_30EC_U_30A4_U_30E4_U_30FC_1
  6
CONTINUOUS
 62
    7
 10
462.3463541035801
 20
13.64707712789729
 11
464.51331916380218
 21
17.638909266656214
  0
LINE
  8
_0-1__U_30EC_U_30A4_U_30E4_U_30FC_1
  6
CONTINUOUS
 62
    7
 10
464.51331916380218
 20
17.638909266656214
 11
467.38273919346682
 21
21.116905413790192
  0
LINE
  8
_0-1__U_30EC_U_30A4_U_30E4_U_30FC_1
  6
CONTINUOUS
 62
    7
 10
467.38273919346682
 20
21.116905413790192
 11
470.86056308582653
 21
23.986497698229101
  0
LINE
  8
_0-1__U_30EC_U_30A4_U_30E4_U_30FC_1
  6
CONTINUOUS
 62
    7
 10
470.86056308582653
 20
23.986497698229101
 11
474.85239522458551
 21
26.153290503676985
  0
LINE
  8
_0-1__U_30EC_U_30A4_U_30E4_U_30FC_1
  6
CONTINUOUS
 62
    7
 10
474.85239522458551
 20
26.153290503676985
 11
479.26349548389942
 21
27.522715959063788
  0
LINE
  8
_0-1__U_30EC_U_30A4_U_30E4_U_30FC_1
  6
CONTINUOUS
 62
    7
 10
479.26349548389942
 20
27.522715959063788
 11
483.99981275702089
 21
28.000033938545101
  0
LINE
  8
_0-1__U_30EC_U_30A4_U_30E4_U_30FC_1
  6
CONTINUOUS
 62
    7
 10
483.99981275702089
 20
28.000033938545101
 11
488.73613003014248
 21
27.522715959063788
  0
LINE
  8
_0-1__U_30EC_U_30A4_U_30E4_U_30FC_1
  6
CONTINUOUS
 62
    7
 10
488.73613003014248
 20
27.522715959063788
 11
493.14723028945627
 21
26.153290503676985
  0
LINE
  8
_0-1__U_30EC_U_30A4_U_30E4_U_30FC_1
  6
CONTINUOUS
 62
    7
 10
493.14723028945627
 20
26.153290503676985
 11
497.13906242821531
 21
23.986497698229101
  0
LINE
  8
_0-1__U_30EC_U_30A4_U_30E4_U_30FC_1
  6
CONTINUOUS
 62
    7
 10
497.13906242821531
 20
23.986497698229101
 11
500.61688632057502
 21
21.116905413790192
  0
LINE
  8
_0-1__U_30EC_U_30A4_U_30E4_U_30FC_1
  6
CONTINUOUS
 62
    7
 10
500.61688632057502
 20
21.116905413790192
 11
503.48630635023949
 21
17.638909266656214
  0
LINE
  8
_0-1__U_30EC_U_30A4_U_30E4_U_30FC_1
  6
CONTINUOUS
 62
    7
 10
503.48630635023949
 20
17.638909266656214
 11
505.65327141046168
 21
13.64707712789729
  0
LINE
  8
_0-1__U_30EC_U_30A4_U_30E4_U_30FC_1
  6
CONTINUOUS
 62
    7
 10
505.65327141046168
 20
13.64707712789729
 11
507.02235235630002
 21
9.2359768685834069
  0
LINE
  8
_0-1__U_30EC_U_30A4_U_30E4_U_30FC_1
  6
CONTINUOUS
 62
    7
 10
507.02235235630002
 20
9.2359768685834069
 11
507.4998425905556
 21
4.4998318502360917
  0
LINE
  8
_0-1__U_30EC_U_30A4_U_30E4_U_30FC_1
  6
CONTINUOUS
 62
    7
 10
510.09158792410898
 20
4.4998318502360917
 11
509.56138772892911
 21
-0.7587618984491939
  0
LINE
  8
_0-1__U_30EC_U_30A4_U_30E4_U_30FC_1
  6
CONTINUOUS
 62
    7
 10
509.56138772892911
 20
-0.7587618984491939
 11
508.04106709128848
 21
-5.6563096402803978
  0
LINE
  8
_0-1__U_30EC_U_30A4_U_30E4_U_30FC_1
  6
CONTINUOUS
 62
    7
 10
508.04106709128848
 20
-5.6563096402803978
 11
505.63535691393838
 21
-10.088424982054306
  0
LINE
  8
_0-1__U_30EC_U_30A4_U_30E4_U_30FC_1
  6
CONTINUOUS
 62
    7
 10
505.63535691393838
 20
-10.088424982054306
 11
502.44933260917941
 21
-13.950032511470795
  0
LINE
  8
_0-1__U_30EC_U_30A4_U_30E4_U_30FC_1
  6
CONTINUOUS
 62
    7
 10
502.44933260917941
 20
-13.950032511470795
 11
498.58806958931132
 21
-17.13605681622991
  0
LINE
  8
_0-1__U_30EC_U_30A4_U_30E4_U_30FC_1
  6
CONTINUOUS
 62
    7
 10
498.58806958931132
 20
-17.13605681622991
 11
494.15595424753741
 21
-19.54142248403133
  0
LINE
  8
_0-1__U_30EC_U_30A4_U_30E4_U_30FC_1
  6
CONTINUOUS
 62
    7
 10
494.15595424753741
 20
-19.54142248403133
 11
489.25806199615772
 21
-21.061743121672095
  0
LINE
  8
_0-1__U_30EC_U_30A4_U_30E4_U_30FC_1
  6
CONTINUOUS
 62
    7
 10
489.25806199615772
 20
-21.061743121672095
 11
483.99981275702089
 21
-21.591943316851996
  0
LINE
  8
_0-1__U_30EC_U_30A4_U_30E4_U_30FC_1
  6
CONTINUOUS
 62
    7
 10
483.99981275702089
 20
-21.591943316851996
 11
478.74121900833552
 21
-21.061743121672095
  0
LINE
  8
_0-1__U_30EC_U_30A4_U_30E4_U_30FC_1
  6
CONTINUOUS
 62
    7
 10
478.74121900833552
 20
-21.061743121672095
 11
473.84332675695578
 21
-19.54142248403133
  0
LINE
  8
_0-1__U_30EC_U_30A4_U_30E4_U_30FC_1
  6
CONTINUOUS
 62
    7
 10
473.84332675695578
 20
-19.54142248403133
 11
469.41155592473058
 21
-17.13605681622991
  0
LINE
  8
_0-1__U_30EC_U_30A4_U_30E4_U_30FC_1
  6
CONTINUOUS
 62
    7
 10
469.41155592473058
 20
-17.13605681622991
 11
465.54994839531389
 21
-13.950032511470795
  0
LINE
  8
_0-1__U_30EC_U_30A4_U_30E4_U_30FC_1
  6
CONTINUOUS
 62
    7
 10
465.54994839531389
 20
-13.950032511470795
 11
462.36392409055492
 21
-10.088424982054306
  0
LINE
  8
_0-1__U_30EC_U_30A4_U_30E4_U_30FC_1
  6
CONTINUOUS
 62
    7
 10
462.36392409055492
 20
-10.088424982054306
 11
459.95821391320487
 21
-5.6563096402803978
  0
LINE
  8
_0-1__U_30EC_U_30A4_U_30E4_U_30FC_1
  6
CONTINUOUS
 62
    7
 10
459.95821391320487
 20
-5.6563096402803978
 11
458.43789327556408
 21
-0.7587618984491939
  0
LINE
  8
_0-1__U_30EC_U_30A4_U_30E4_U_30FC_1
  6
CONTINUOUS
 62
    7
 10
458.43789327556408
 20
-0.7587618984491939
 11
457.90769308038421
 21
4.4998318502360917
  0
LINE
  8
_0-1__U_30EC_U_30A4_U_30E4_U_30FC_1
  6
CONTINUOUS
 62
    7
 10
457.90769308038421
 20
4.4998318502360917
 11
458.43789327556408
 21
9.7584255989214626
  0
LINE
  8
_0-1__U_30EC_U_30A4_U_30E4_U_30FC_1
  6
CONTINUOUS
 62
    7
 10
458.43789327556408
 20
9.7584255989214626
 11
459.95821391320487
 21
14.656145595526908
  0
LINE
  8
_0-1__U_30EC_U_30A4_U_30E4_U_30FC_1
  6
CONTINUOUS
 62
    7
 10
459.95821391320487
 20
14.656145595526908
 11
462.36392409055492
 21
19.088433192075087
  0
LINE
  8
_0-1__U_30EC_U_30A4_U_30E4_U_30FC_1
  6
CONTINUOUS
 62
    7
 10
462.36392409055492
 20
19.088433192075087
 11
465.54994839531389
 21
22.949868466717405
  0
LINE
  8
_0-1__U_30EC_U_30A4_U_30E4_U_30FC_1
  6
CONTINUOUS
 62
    7
 10
465.54994839531389
 20
22.949868466717405
 11
469.41155592473058
 21
26.135892771476421
  0
LINE
  8
_0-1__U_30EC_U_30A4_U_30E4_U_30FC_1
  6
CONTINUOUS
 62
    7
 10
469.41155592473058
 20
26.135892771476421
 11
473.84332675695578
 21
28.541602948826394
  0
LINE
  8
_0-1__U_30EC_U_30A4_U_30E4_U_30FC_1
  6
CONTINUOUS
 62
    7
 10
473.84332675695578
 20
28.541602948826394
 11
478.74121900833552
 21
30.061923586467202
  0
LINE
  8
_0-1__U_30EC_U_30A4_U_30E4_U_30FC_1
  6
CONTINUOUS
 62
    7
 10
478.74121900833552
 20
30.061923586467202
 11
483.99981275702089
 21
30.591951526872791
  0
LINE
  8
_0-1__U_30EC_U_30A4_U_30E4_U_30FC_1
  6
CONTINUOUS
 62
    7
 10
483.99981275702089
 20
30.591951526872791
 11
489.25806199615772
 21
30.061923586467202
  0
LINE
  8
_0-1__U_30EC_U_30A4_U_30E4_U_30FC_1
  6
CONTINUOUS
 62
    7
 10
489.25806199615772
 20
30.061923586467202
 11
494.15595424753741
 21
28.541602948826394
  0
LINE
  8
_0-1__U_30EC_U_30A4_U_30E4_U_30FC_1
  6
CONTINUOUS
 62
    7
 10
494.15595424753741
 20
28.541602948826394
 11
498.58806958931132
 21
26.135892771476421
  0
LINE
  8
_0-1__U_30EC_U_30A4_U_30E4_U_30FC_1
  6
CONTINUOUS
 62
    7
 10
498.58806958931132
 20
26.135892771476421
 11
502.44933260917941
 21
22.949868466717405
  0
LINE
  8
_0-1__U_30EC_U_30A4_U_30E4_U_30FC_1
  6
CONTINUOUS
 62
    7
 10
502.44933260917941
 20
22.949868466717405
 11
505.63535691393838
 21
19.088433192075087
  0
LINE
  8
_0-1__U_30EC_U_30A4_U_30E4_U_30FC_1
  6
CONTINUOUS
 62
    7
 10
505.63535691393838
 20
19.088433192075087
 11
508.04106709128848
 21
14.656145595526908
  0
LINE
  8
_0-1__U_30EC_U_30A4_U_30E4_U_30FC_1
  6
CONTINUOUS
 62
    7
 10
508.04106709128848
 20
14.656145595526908
 11
509.56138772892911
 21
9.7584255989214626
  0
LINE
  8
_0-1__U_30EC_U_30A4_U_30E4_U_30FC_1
  6
CONTINUOUS
 62
    7
 10
509.56138772892911
 20
9.7584255989214626
 11
510.09158792410898
 21
4.4998318502360917
  0
LINE
  8
_0-1__U_30EC_U_30A4_U_30E4_U_30FC_1
  6
CONTINUOUS
 62
    7
 10
549.71087502357932
 20
14.673887837275998
 11
549.71087502357932
 21
-5.6756021749978061
  0
LINE
  8
_0-1__U_30EC_U_30A4_U_30E4_U_30FC_1
  6
CONTINUOUS
 62
    7
 10
549.11487350463108
 20
14.979812316366235
 11
550.50738109976908
 21
14.196914367343084
  0
LINE
  8
_0-1__U_30EC_U_30A4_U_30E4_U_30FC_1
  6
CONTINUOUS
 62
    7
 10
550.50738109976908
 20
14.196914367343084
 11
551.77035310466158
 21
13.22763675256806
  0
LINE
  8
_0-1__U_30EC_U_30A4_U_30E4_U_30FC_1
  6
CONTINUOUS
 62
    7
 10
551.77035310466158
 20
13.22763675256806
 11
552.88725306097956
 21
12.089549459015814
  0
LINE
  8
_0-1__U_30EC_U_30A4_U_30E4_U_30FC_1
  6
CONTINUOUS
 62
    7
 10
552.88725306097956
 20
12.089549459015814
 11
553.84051098174825
 21
10.800739237983805
  0
LINE
  8
_0-1__U_30EC_U_30A4_U_30E4_U_30FC_1
  6
CONTINUOUS
 62
    7
 10
553.84051098174825
 20
10.800739237983805
 11
554.61255687999278
 21
9.3794650955440204
  0
LINE
  8
_0-1__U_30EC_U_30A4_U_30E4_U_30FC_1
  6
CONTINUOUS
 62
    7
 10
554.61255687999278
 20
9.3794650955440204
 11
555.18582076873827
 21
7.8436415282195924
  0
LINE
  8
_0-1__U_30EC_U_30A4_U_30E4_U_30FC_1
  6
CONTINUOUS
 62
    7
 10
555.18582076873827
 20
7.8436415282195924
 11
555.54307717055872
 21
6.2113552873083222
  0
LINE
  8
_0-1__U_30EC_U_30A4_U_30E4_U_30FC_1
  6
CONTINUOUS
 62
    7
 10
555.54307717055872
 20
6.2113552873083222
 11
555.66572256983363
 21
4.5005208693332008
  0
LINE
  8
_0-1__U_30EC_U_30A4_U_30E4_U_30FC_1
  6
CONTINUOUS
 62
    7
 10
555.66572256983363
 20
4.5005208693332008
 11
555.54307717055872
 21
2.7896864513581079
  0
LINE
  8
_0-1__U_30EC_U_30A4_U_30E4_U_30FC_1
  6
CONTINUOUS
 62
    7
 10
555.54307717055872
 20
2.7896864513581079
 11
555.18582076873827
 21
1.1572279556725107
  0
LINE
  8
_0-1__U_30EC_U_30A4_U_30E4_U_30FC_1
  6
CONTINUOUS
 62
    7
 10
555.18582076873827
 20
1.1572279556725107
 11
554.61221237044424
 21
-0.3787678664261875
  0
LINE
  8
_0-1__U_30EC_U_30A4_U_30E4_U_30FC_1
  6
CONTINUOUS
 62
    7
 10
554.61221237044424
 20
-0.3787678664261875
 11
553.84016647219971
 21
-1.8002142636402141
  0
LINE
  8
_0-1__U_30EC_U_30A4_U_30E4_U_30FC_1
  6
CONTINUOUS
 62
    7
 10
553.84016647219971
 20
-1.8002142636402141
 11
552.88690855143113
 21
-3.0890244846721941
  0
LINE
  8
_0-1__U_30EC_U_30A4_U_30E4_U_30FC_1
  6
CONTINUOUS
 62
    7
 10
552.88690855143113
 20
-3.0890244846721941
 11
551.76966408556461
 21
-4.2269395234501985
  0
LINE
  8
_0-1__U_30EC_U_30A4_U_30E4_U_30FC_1
  6
CONTINUOUS
 62
    7
 10
551.76966408556461
 20
-4.2269395234501985
 11
550.50669208067188
 21
-5.1960448834510089
  0
LINE
  8
_0-1__U_30EC_U_30A4_U_30E4_U_30FC_1
  6
CONTINUOUS
 62
    7
 10
550.50669208067188
 20
-5.1960448834510089
 11
549.11487350463108
 21
-5.9787705776996916
  0
LINE
  8
_0-1__U_30EC_U_30A4_U_30E4_U_30FC_1
  6
CONTINUOUS
 62
    7
 10
549.11487350463108
 20
17.78360327703669
 11
557.50058042527758
 21
21.116044139918912
  0
LINE
  8
_0-1__U_30EC_U_30A4_U_30E4_U_30FC_1
  6
CONTINUOUS
 62
    7
 10
557.50058042527758
 20
21.116044139918912
 11
559.88079689603683
 21
14.979812316366235
  0
LINE
  8
_0-1__U_30EC_U_30A4_U_30E4_U_30FC_1
  6
CONTINUOUS
 62
    7
 10
559.88079689603683
 20
14.979812316366235
 11
588.1757106259422
 21
14.979812316366235
  0
LINE
  8
_0-1__U_30EC_U_30A4_U_30E4_U_30FC_1
  6
CONTINUOUS
 62
    7
 10
588.1757106259422
 20
14.979812316366235
 11
588.1757106259422
 21
8.4055366018639006
  0
LINE
  8
_0-1__U_30EC_U_30A4_U_30E4_U_30FC_1
  6
CONTINUOUS
 62
    7
 10
588.1757106259422
 20
8.4055366018639006
 11
566.37307933799002
 21
8.4055366018639006
  0
LINE
  8
_0-1__U_30EC_U_30A4_U_30E4_U_30FC_1
  6
CONTINUOUS
 62
    7
 10
566.37307933799002
 20
8.4055366018639006
 11
566.37307933799002
 21
6.5742960966792907
  0
LINE
  8
_0-1__U_30EC_U_30A4_U_30E4_U_30FC_1
  6
CONTINUOUS
 62
    7
 10
566.37307933799002
 20
6.5742960966792907
 11
578.92390670030375
 21
6.5742960966792907
  0
LINE
  8
_0-1__U_30EC_U_30A4_U_30E4_U_30FC_1
  6
CONTINUOUS
 62
    7
 10
578.92390670030375
 20
6.5742960966792907
 11
578.92390670030375
 21
1.9676866685774996
  0
LINE
  8
_0-1__U_30EC_U_30A4_U_30E4_U_30FC_1
  6
CONTINUOUS
 62
    7
 10
578.92390670030375
 20
1.9676866685774996
 11
567.88892135150002
 21
1.9676866685774996
  0
LINE
  8
_0-1__U_30EC_U_30A4_U_30E4_U_30FC_1
  6
CONTINUOUS
 62
    7
 10
567.88892135150002
 20
1.9676866685774996
 11
569.88983280933303
 21
-4.0801784557785936
  0
LINE
  8
_0-1__U_30EC_U_30A4_U_30E4_U_30FC_1
  6
CONTINUOUS
 62
    7
 10
569.88983280933303
 20
-4.0801784557785936
 11
559.88079689603683
 21
-4.0801784557785936
  0
LINE
  8
_0-1__U_30EC_U_30A4_U_30E4_U_30FC_1
  6
CONTINUOUS
 62
    7
 10
559.88079689603683
 20
-4.0801784557785936
 11
559.88079689603683
 21
-5.9787705776996916
  0
LINE
  8
_0-1__U_30EC_U_30A4_U_30E4_U_30FC_1
  6
CONTINUOUS
 62
    7
 10
559.88079689603683
 20
-5.9787705776996916
 11
557.50058042527758
 21
-12.463473809585508
  0
LINE
  8
_0-1__U_30EC_U_30A4_U_30E4_U_30FC_1
  6
CONTINUOUS
 62
    7
 10
557.50058042527758
 20
-12.463473809585508
 11
549.11487350463108
 21
-8.8557698174319057
  0
LINE
  8
_0-1__U_30EC_U_30A4_U_30E4_U_30FC_1
  6
CONTINUOUS
 62
    7
 10
557.50058042527758
 20
-12.463473809585508
 11
557.50058042527758
 21
-28.443893727465394
  0
LINE
  8
_0-1__U_30EC_U_30A4_U_30E4_U_30FC_1
  6
CONTINUOUS
 62
    7
 10
557.50058042527758
 20
21.116044139918912
 11
557.50058042527758
 21
37.207223877649582
  0
LINE
  8
_0-1__U_30EC_U_30A4_U_30E4_U_30FC_1
  6
CONTINUOUS
 62
    7
 10
565.74986156470845
 20
11.180044250909816
 11
574.02808150621513
 21
11.180044250909816
  0
LINE
  8
_0-1__U_30EC_U_30A4_U_30E4_U_30FC_1
  6
CONTINUOUS
 62
    7
 10
574.02808150621513
 20
11.180044250909816
 11
588.1757106259422
 21
11.180044250909816
  0
LINE
  8
_0-1__U_30EC_U_30A4_U_30E4_U_30FC_1
  6
CONTINUOUS
 62
    7
 10
588.1757106259422
 20
11.180044250909816
 11
588.1757106259422
 21
12.01306833924329
  0
LINE
  8
_0-1__U_30EC_U_30A4_U_30E4_U_30FC_1
  6
CONTINUOUS
 62
    7
 10
588.1757106259422
 20
12.01306833924329
 11
588.1757106259422
 21
12.846092427576707
  0
LINE
  8
_0-1__U_30EC_U_30A4_U_30E4_U_30FC_1
  6
CONTINUOUS
 62
    7
 10
588.1757106259422
 20
12.846092427576707
 11
574.02808150621513
 21
12.846092427576707
  0
LINE
  8
_0-1__U_30EC_U_30A4_U_30E4_U_30FC_1
  6
CONTINUOUS
 62
    7
 10
574.02808150621513
 20
12.846092427576707
 11
565.74986156470845
 21
12.846092427576707
  0
LINE
  8
_0-1__U_30EC_U_30A4_U_30E4_U_30FC_1
  6
CONTINUOUS
 62
    7
 10
564.12481002431605
 20
12.846092427576707
 11
559.88079689603683
 21
12.846092427576707
  0
LINE
  8
_0-1__U_30EC_U_30A4_U_30E4_U_30FC_1
  6
CONTINUOUS
 62
    7
 10
559.88079689603683
 20
12.846092427576707
 11
559.27342656198721
 21
12.58771026618291
  0
LINE
  8
_0-1__U_30EC_U_30A4_U_30E4_U_30FC_1
  6
CONTINUOUS
 62
    7
 10
559.27342656198721
 20
12.58771026618291
 11
559.07016592835748
 21
12.01306833924329
  0
LINE
  8
_0-1__U_30EC_U_30A4_U_30E4_U_30FC_1
  6
CONTINUOUS
 62
    7
 10
559.07016592835748
 20
12.01306833924329
 11
559.32200240832913
 21
11.443938565080032
  0
LINE
  8
_0-1__U_30EC_U_30A4_U_30E4_U_30FC_1
  6
CONTINUOUS
 62
    7
 10
559.32200240832913
 20
11.443938565080032
 11
559.88079689603683
 21
11.180044250909816
  0
LINE
  8
_0-1__U_30EC_U_30A4_U_30E4_U_30FC_1
  6
CONTINUOUS
 62
    7
 10
559.88079689603683
 20
11.180044250909816
 11
564.02765833163198
 21
11.180044250909816
  0
LINE
  8
_0-1__U_30EC_U_30A4_U_30E4_U_30FC_1
  6
CONTINUOUS
 62
    7
 10
549.11487350463108
 20
14.979812316366235
 11
549.11487350463108
 21
27.252620473020187
  0
LINE
  8
_0-1__U_30EC_U_30A4_U_30E4_U_30FC_1
  6
CONTINUOUS
 62
    7
 10
549.11487350463108
 20
27.252620473020187
 11
558.19097756052167
 21
38.499995958489606
  0
LINE
  8
_0-1__U_30EC_U_30A4_U_30E4_U_30FC_1
  6
CONTINUOUS
 62
    7
 10
558.19097756052167
 20
38.499995958489606
 11
592.11483280377695
 21
38.499995958489606
  0
LINE
  8
_0-1__U_30EC_U_30A4_U_30E4_U_30FC_1
  6
CONTINUOUS
 62
    7
 10
549.11487350463108
 20
-5.9798041063453127
 11
549.11487350463108
 21
-18.252612262999321
  0
LINE
  8
_0-1__U_30EC_U_30A4_U_30E4_U_30FC_1
  6
CONTINUOUS
 62
    7
 10
549.11487350463108
 20
-18.252612262999321
 11
558.19097756052167
 21
-29.500160003242968
  0
LINE
  8
_0-1__U_30EC_U_30A4_U_30E4_U_30FC_1
  6
CONTINUOUS
 62
    7
 10
558.19097756052167
 20
-29.500160003242968
 11
592.11483280377695
 21
-29.500160003242968
  0
LINE
  8
_0-1__U_30EC_U_30A4_U_30E4_U_30FC_1
  6
CONTINUOUS
 62
    7
 10
563.97357033251365
 20
7.0903714003698042
 11
564.29430872219041
 21
13.80606828454151
  0
LINE
  8
_0-1__U_30EC_U_30A4_U_30E4_U_30FC_1
  6
CONTINUOUS
 62
    7
 10
564.29430872219041
 20
13.80606828454151
 11
564.44003626121639
 21
14.253586188075474
  0
LINE
  8
_0-1__U_30EC_U_30A4_U_30E4_U_30FC_1
  6
CONTINUOUS
 62
    7
 10
564.44003626121639
 20
14.253586188075474
 11
564.73114682971993
 21
14.377781880318707
  0
LINE
  8
_0-1__U_30EC_U_30A4_U_30E4_U_30FC_1
  6
CONTINUOUS
 62
    7
 10
564.73114682971993
 20
14.377781880318707
 11
565.38605948146596
 21
14.328172505331111
  0
LINE
  8
_0-1__U_30EC_U_30A4_U_30E4_U_30FC_1
  6
CONTINUOUS
 62
    7
 10
565.38605948146596
 20
14.328172505331111
 11
565.67717004996962
 21
14.178999870819808
  0
LINE
  8
_0-1__U_30EC_U_30A4_U_30E4_U_30FC_1
  6
CONTINUOUS
 62
    7
 10
565.67717004996962
 20
14.178999870819808
 11
565.72574589631176
 21
13.80606828454151
  0
LINE
  8
_0-1__U_30EC_U_30A4_U_30E4_U_30FC_1
  6
CONTINUOUS
 62
    7
 10
565.72574589631176
 20
13.80606828454151
 11
565.4587509962048
 21
7.2671047987631141
  0
LINE
  8
_0-1__U_30EC_U_30A4_U_30E4_U_30FC_1
  6
CONTINUOUS
 62
    7
 10
565.4587509962048
 20
7.2671047987631141
 11
569.12157651612233
 21
-2.3793348147106883
  0
LINE
  8
_0-1__U_30EC_U_30A4_U_30E4_U_30FC_1
  6
CONTINUOUS
 62
    7
 10
569.12157651612233
 20
-2.3793348147106883
 11
569.14569218451902
 21
-2.578461333758213
  0
LINE
  8
_0-1__U_30EC_U_30A4_U_30E4_U_30FC_1
  6
CONTINUOUS
 62
    7
 10
569.14569218451902
 20
-2.578461333758213
 11
568.97619348664477
 21
-2.777243343257112
  0
LINE
  8
_0-1__U_30EC_U_30A4_U_30E4_U_30FC_1
  6
CONTINUOUS
 62
    7
 10
568.97619348664477
 20
-2.777243343257112
 11
568.17555329587287
 21
-2.9760253527559826
  0
LINE
  8
_0-1__U_30EC_U_30A4_U_30E4_U_30FC_1
  6
CONTINUOUS
 62
    7
 10
568.17555329587287
 20
-2.9760253527559826
 11
567.90855839576591
 21
-2.8520019152869907
  0
LINE
  8
_0-1__U_30EC_U_30A4_U_30E4_U_30FC_1
  6
CONTINUOUS
 62
    7
 10
567.90855839576591
 20
-2.8520019152869907
 11
567.66636818315294
 21
-2.4788980742345075
  0
LINE
  8
_0-1__U_30EC_U_30A4_U_30E4_U_30FC_1
  6
CONTINUOUS
 62
    7
 10
567.66636818315294
 20
-2.4788980742345075
 11
563.97357033251365
 21
7.0903714003698042
  0
LINE
  8
_0-1__U_30EC_U_30A4_U_30E4_U_30FC_1
  6
CONTINUOUS
 62
    7
 10
340.59599063575376
 20
14.673887837275998
 11
340.59599063575376
 21
-5.6756021749978061
  0
LINE
  8
_0-1__U_30EC_U_30A4_U_30E4_U_30FC_1
  6
CONTINUOUS
 62
    7
 10
339.99998911680564
 20
14.979812316366235
 11
341.39249671194364
 21
14.196914367343084
  0
LINE
  8
_0-1__U_30EC_U_30A4_U_30E4_U_30FC_1
  6
CONTINUOUS
 62
    7
 10
341.39249671194364
 20
14.196914367343084
 11
342.65546871683614
 21
13.22763675256806
  0
LINE
  8
_0-1__U_30EC_U_30A4_U_30E4_U_30FC_1
  6
CONTINUOUS
 62
    7
 10
342.65546871683614
 20
13.22763675256806
 11
343.77236867315412
 21
12.089549459015814
  0
LINE
  8
_0-1__U_30EC_U_30A4_U_30E4_U_30FC_1
  6
CONTINUOUS
 62
    7
 10
343.77236867315412
 20
12.089549459015814
 11
344.72562659392281
 21
10.800739237983805
  0
LINE
  8
_0-1__U_30EC_U_30A4_U_30E4_U_30FC_1
  6
CONTINUOUS
 62
    7
 10
344.72562659392281
 20
10.800739237983805
 11
345.49767249216734
 21
9.3794650955440204
  0
LINE
  8
_0-1__U_30EC_U_30A4_U_30E4_U_30FC_1
  6
CONTINUOUS
 62
    7
 10
345.49767249216734
 20
9.3794650955440204
 11
346.07093638091283
 21
7.8436415282195924
  0
LINE
  8
_0-1__U_30EC_U_30A4_U_30E4_U_30FC_1
  6
CONTINUOUS
 62
    7
 10
346.07093638091283
 20
7.8436415282195924
 11
346.42819278273316
 21
6.2113552873083222
  0
LINE
  8
_0-1__U_30EC_U_30A4_U_30E4_U_30FC_1
  6
CONTINUOUS
 62
    7
 10
346.42819278273316
 20
6.2113552873083222
 11
346.55083818200808
 21
4.5005208693332008
  0
LINE
  8
_0-1__U_30EC_U_30A4_U_30E4_U_30FC_1
  6
CONTINUOUS
 62
    7
 10
346.55083818200808
 20
4.5005208693332008
 11
346.42819278273316
 21
2.7896864513581079
  0
LINE
  8
_0-1__U_30EC_U_30A4_U_30E4_U_30FC_1
  6
CONTINUOUS
 62
    7
 10
346.42819278273316
 20
2.7896864513581079
 11
346.07093638091283
 21
1.1572279556725107
  0
LINE
  8
_0-1__U_30EC_U_30A4_U_30E4_U_30FC_1
  6
CONTINUOUS
 62
    7
 10
346.07093638091283
 20
1.1572279556725107
 11
345.49732798261869
 21
-0.3787678664261875
  0
LINE
  8
_0-1__U_30EC_U_30A4_U_30E4_U_30FC_1
  6
CONTINUOUS
 62
    7
 10
345.49732798261869
 20
-0.3787678664261875
 11
344.72528208437416
 21
-1.8002142636402141
  0
LINE
  8
_0-1__U_30EC_U_30A4_U_30E4_U_30FC_1
  6
CONTINUOUS
 62
    7
 10
344.72528208437416
 20
-1.8002142636402141
 11
343.77202416360558
 21
-3.0890244846721941
  0
LINE
  8
_0-1__U_30EC_U_30A4_U_30E4_U_30FC_1
  6
CONTINUOUS
 62
    7
 10
343.77202416360558
 20
-3.0890244846721941
 11
342.65477969773906
 21
-4.2269395234501985
  0
LINE
  8
_0-1__U_30EC_U_30A4_U_30E4_U_30FC_1
  6
CONTINUOUS
 62
    7
 10
342.65477969773906
 20
-4.2269395234501985
 11
341.39180769284644
 21
-5.1960448834510089
  0
LINE
  8
_0-1__U_30EC_U_30A4_U_30E4_U_30FC_1
  6
CONTINUOUS
 62
    7
 10
341.39180769284644
 20
-5.1960448834510089
 11
339.99998911680564
 21
-5.9787705776996916
  0
LINE
  8
_0-1__U_30EC_U_30A4_U_30E4_U_30FC_1
  6
CONTINUOUS
 62
    7
 10
339.99998911680564
 20
17.78360327703669
 11
348.38569603745219
 21
21.116044139918912
  0
LINE
  8
_0-1__U_30EC_U_30A4_U_30E4_U_30FC_1
  6
CONTINUOUS
 62
    7
 10
348.38569603745219
 20
21.116044139918912
 11
350.76591250821127
 21
14.979812316366235
  0
LINE
  8
_0-1__U_30EC_U_30A4_U_30E4_U_30FC_1
  6
CONTINUOUS
 62
    7
 10
350.76591250821127
 20
14.979812316366235
 11
379.0608262381167
 21
14.979812316366235
  0
LINE
  8
_0-1__U_30EC_U_30A4_U_30E4_U_30FC_1
  6
CONTINUOUS
 62
    7
 10
379.0608262381167
 20
14.979812316366235
 11
379.0608262381167
 21
8.4055366018639006
  0
LINE
  8
_0-1__U_30EC_U_30A4_U_30E4_U_30FC_1
  6
CONTINUOUS
 62
    7
 10
379.0608262381167
 20
8.4055366018639006
 11
357.25819495016458
 21
8.4055366018639006
  0
LINE
  8
_0-1__U_30EC_U_30A4_U_30E4_U_30FC_1
  6
CONTINUOUS
 62
    7
 10
357.25819495016458
 20
8.4055366018639006
 11
357.25819495016458
 21
6.5742960966792907
  0
LINE
  8
_0-1__U_30EC_U_30A4_U_30E4_U_30FC_1
  6
CONTINUOUS
 62
    7
 10
357.25819495016458
 20
6.5742960966792907
 11
369.80902231247831
 21
6.5742960966792907
  0
LINE
  8
_0-1__U_30EC_U_30A4_U_30E4_U_30FC_1
  6
CONTINUOUS
 62
    7
 10
369.80902231247831
 20
6.5742960966792907
 11
369.80902231247831
 21
1.9676866685774996
  0
LINE
  8
_0-1__U_30EC_U_30A4_U_30E4_U_30FC_1
  6
CONTINUOUS
 62
    7
 10
369.80902231247831
 20
1.9676866685774996
 11
358.77403696367446
 21
1.9676866685774996
  0
LINE
  8
_0-1__U_30EC_U_30A4_U_30E4_U_30FC_1
  6
CONTINUOUS
 62
    7
 10
358.77403696367446
 20
1.9676866685774996
 11
360.77494842150759
 21
-4.0801784557785936
  0
LINE
  8
_0-1__U_30EC_U_30A4_U_30E4_U_30FC_1
  6
CONTINUOUS
 62
    7
 10
360.77494842150759
 20
-4.0801784557785936
 11
350.76591250821127
 21
-4.0801784557785936
  0
LINE
  8
_0-1__U_30EC_U_30A4_U_30E4_U_30FC_1
  6
CONTINUOUS
 62
    7
 10
350.76591250821127
 20
-4.0801784557785936
 11
350.76591250821127
 21
-5.9787705776996916
  0
LINE
  8
_0-1__U_30EC_U_30A4_U_30E4_U_30FC_1
  6
CONTINUOUS
 62
    7
 10
350.76591250821127
 20
-5.9787705776996916
 11
348.38569603745219
 21
-12.463473809585508
  0
LINE
  8
_0-1__U_30EC_U_30A4_U_30E4_U_30FC_1
  6
CONTINUOUS
 62
    7
 10
348.38569603745219
 20
-12.463473809585508
 11
339.99998911680564
 21
-8.8557698174319057
  0
LINE
  8
_0-1__U_30EC_U_30A4_U_30E4_U_30FC_1
  6
CONTINUOUS
 62
    7
 10
348.38569603745219
 20
-12.463473809585508
 11
348.38569603745219
 21
-28.443893727465394
  0
LINE
  8
_0-1__U_30EC_U_30A4_U_30E4_U_30FC_1
  6
CONTINUOUS
 62
    7
 10
348.38569603745219
 20
21.116044139918912
 11
348.38569603745219
 21
37.207223877649582
  0
LINE
  8
_0-1__U_30EC_U_30A4_U_30E4_U_30FC_1
  6
CONTINUOUS
 62
    7
 10
356.6349771768829
 20
11.180044250909816
 11
364.9131971183898
 21
11.180044250909816
  0
LINE
  8
_0-1__U_30EC_U_30A4_U_30E4_U_30FC_1
  6
CONTINUOUS
 62
    7
 10
364.9131971183898
 20
11.180044250909816
 11
379.0608262381167
 21
11.180044250909816
  0
LINE
  8
_0-1__U_30EC_U_30A4_U_30E4_U_30FC_1
  6
CONTINUOUS
 62
    7
 10
379.0608262381167
 20
11.180044250909816
 11
379.0608262381167
 21
12.01306833924329
  0
LINE
  8
_0-1__U_30EC_U_30A4_U_30E4_U_30FC_1
  6
CONTINUOUS
 62
    7
 10
379.0608262381167
 20
12.01306833924329
 11
379.0608262381167
 21
12.846092427576707
  0
LINE
  8
_0-1__U_30EC_U_30A4_U_30E4_U_30FC_1
  6
CONTINUOUS
 62
    7
 10
379.0608262381167
 20
12.846092427576707
 11
364.9131971183898
 21
12.846092427576707
  0
LINE
  8
_0-1__U_30EC_U_30A4_U_30E4_U_30FC_1
  6
CONTINUOUS
 62
    7
 10
364.9131971183898
 20
12.846092427576707
 11
356.6349771768829
 21
12.846092427576707
  0
LINE
  8
_0-1__U_30EC_U_30A4_U_30E4_U_30FC_1
  6
CONTINUOUS
 62
    7
 10
355.00992563649061
 20
12.846092427576707
 11
350.76591250821127
 21
12.846092427576707
  0
LINE
  8
_0-1__U_30EC_U_30A4_U_30E4_U_30FC_1
  6
CONTINUOUS
 62
    7
 10
350.76591250821127
 20
12.846092427576707
 11
350.15854217416177
 21
12.58771026618291
  0
LINE
  8
_0-1__U_30EC_U_30A4_U_30E4_U_30FC_1
  6
CONTINUOUS
 62
    7
 10
350.15854217416177
 20
12.58771026618291
 11
349.95528154053204
 21
12.01306833924329
  0
LINE
  8
_0-1__U_30EC_U_30A4_U_30E4_U_30FC_1
  6
CONTINUOUS
 62
    7
 10
349.95528154053204
 20
12.01306833924329
 11
350.2071180205038
 21
11.443938565080032
  0
LINE
  8
_0-1__U_30EC_U_30A4_U_30E4_U_30FC_1
  6
CONTINUOUS
 62
    7
 10
350.2071180205038
 20
11.443938565080032
 11
350.76591250821127
 21
11.180044250909816
  0
LINE
  8
_0-1__U_30EC_U_30A4_U_30E4_U_30FC_1
  6
CONTINUOUS
 62
    7
 10
350.76591250821127
 20
11.180044250909816
 11
354.91277394380649
 21
11.180044250909816
  0
LINE
  8
_0-1__U_30EC_U_30A4_U_30E4_U_30FC_1
  6
CONTINUOUS
 62
    7
 10
339.99998911680564
 20
14.979812316366235
 11
339.99998911680564
 21
27.252620473020187
  0
LINE
  8
_0-1__U_30EC_U_30A4_U_30E4_U_30FC_1
  6
CONTINUOUS
 62
    7
 10
339.99998911680564
 20
27.252620473020187
 11
349.07609317269629
 21
38.499995958489606
  0
LINE
  8
_0-1__U_30EC_U_30A4_U_30E4_U_30FC_1
  6
CONTINUOUS
 62
    7
 10
349.07609317269629
 20
38.499995958489606
 11
382.99994841595139
 21
38.499995958489606
  0
LINE
  8
_0-1__U_30EC_U_30A4_U_30E4_U_30FC_1
  6
CONTINUOUS
 62
    7
 10
339.99998911680564
 20
-5.9798041063453127
 11
339.99998911680564
 21
-18.252612262999321
  0
LINE
  8
_0-1__U_30EC_U_30A4_U_30E4_U_30FC_1
  6
CONTINUOUS
 62
    7
 10
339.99998911680564
 20
-18.252612262999321
 11
349.07609317269629
 21
-29.500160003242968
  0
LINE
  8
_0-1__U_30EC_U_30A4_U_30E4_U_30FC_1
  6
CONTINUOUS
 62
    7
 10
349.07609317269629
 20
-29.500160003242968
 11
382.99994841595139
 21
-29.500160003242968
  0
LINE
  8
_0-1__U_30EC_U_30A4_U_30E4_U_30FC_1
  6
CONTINUOUS
 62
    7
 10
354.85868594468809
 20
7.0903714003698042
 11
355.17942433436491
 21
13.80606828454151
  0
LINE
  8
_0-1__U_30EC_U_30A4_U_30E4_U_30FC_1
  6
CONTINUOUS
 62
    7
 10
355.17942433436491
 20
13.80606828454151
 11
355.32515187339101
 21
14.253586188075474
  0
LINE
  8
_0-1__U_30EC_U_30A4_U_30E4_U_30FC_1
  6
CONTINUOUS
 62
    7
 10
355.32515187339101
 20
14.253586188075474
 11
355.61626244189449
 21
14.377781880318707
  0
LINE
  8
_0-1__U_30EC_U_30A4_U_30E4_U_30FC_1
  6
CONTINUOUS
 62
    7
 10
355.61626244189449
 20
14.377781880318707
 11
356.27117509364064
 21
14.328172505331111
  0
LINE
  8
_0-1__U_30EC_U_30A4_U_30E4_U_30FC_1
  6
CONTINUOUS
 62
    7
 10
356.27117509364064
 20
14.328172505331111
 11
356.56228566214406
 21
14.178999870819808
  0
LINE
  8
_0-1__U_30EC_U_30A4_U_30E4_U_30FC_1
  6
CONTINUOUS
 62
    7
 10
356.56228566214406
 20
14.178999870819808
 11
356.61086150848621
 21
13.80606828454151
  0
LINE
  8
_0-1__U_30EC_U_30A4_U_30E4_U_30FC_1
  6
CONTINUOUS
 62
    7
 10
356.61086150848621
 20
13.80606828454151
 11
356.3438666083793
 21
7.2671047987631141
  0
LINE
  8
_0-1__U_30EC_U_30A4_U_30E4_U_30FC_1
  6
CONTINUOUS
 62
    7
 10
356.3438666083793
 20
7.2671047987631141
 11
360.00669212829689
 21
-2.3793348147106883
  0
LINE
  8
_0-1__U_30EC_U_30A4_U_30E4_U_30FC_1
  6
CONTINUOUS
 62
    7
 10
360.00669212829689
 20
-2.3793348147106883
 11
360.03080779669369
 21
-2.578461333758213
  0
LINE
  8
_0-1__U_30EC_U_30A4_U_30E4_U_30FC_1
  6
CONTINUOUS
 62
    7
 10
360.03080779669369
 20
-2.578461333758213
 11
359.86130909881939
 21
-2.777243343257112
  0
LINE
  8
_0-1__U_30EC_U_30A4_U_30E4_U_30FC_1
  6
CONTINUOUS
 62
    7
 10
359.86130909881939
 20
-2.777243343257112
 11
359.06066890804732
 21
-2.9760253527559826
  0
LINE
  8
_0-1__U_30EC_U_30A4_U_30E4_U_30FC_1
  6
CONTINUOUS
 62
    7
 10
359.06066890804732
 20
-2.9760253527559826
 11
358.79367400794047
 21
-2.8520019152869907
  0
LINE
  8
_0-1__U_30EC_U_30A4_U_30E4_U_30FC_1
  6
CONTINUOUS
 62
    7
 10
358.79367400794047
 20
-2.8520019152869907
 11
358.55148379532739
 21
-2.4788980742345075
  0
LINE
  8
_0-1__U_30EC_U_30A4_U_30E4_U_30FC_1
  6
CONTINUOUS
 62
    7
 10
358.55148379532739
 20
-2.4788980742345075
 11
354.85868594468809
 21
7.0903714003698042
  0
LINE
  8
_0-1__U_30EC_U_30A4_U_30E4_U_30FC_1
  6
CONTINUOUS
 62
    7
 10
254.21401094814789
 20
34.407050267238503
 11
254.62707789682935
 21
33.364047609079094
  0
LINE
  8
_0-1__U_30EC_U_30A4_U_30E4_U_30FC_1
  6
CONTINUOUS
 62
    7
 10
254.62707789682935
 20
33.364047609079094
 11
264.26163193087905
 21
33.362152806562193
  0
LINE
  8
_0-1__U_30EC_U_30A4_U_30E4_U_30FC_1
  6
CONTINUOUS
 62
    7
 10
264.26163193087905
 20
33.362152806562193
 11
264.72465276409662
 21
33.560590306512594
  0
LINE
  8
_0-1__U_30EC_U_30A4_U_30E4_U_30FC_1
  6
CONTINUOUS
 62
    7
 10
264.72465276409662
 20
33.560590306512594
 11
264.72396374499959
 21
35.471068007857895
  0
LINE
  8
_0-1__U_30EC_U_30A4_U_30E4_U_30FC_1
  6
CONTINUOUS
 62
    7
 10
280.97068954388931
 20
34.407050267238503
 11
280.55762259520782
 21
33.364047609079094
  0
LINE
  8
_0-1__U_30EC_U_30A4_U_30E4_U_30FC_1
  6
CONTINUOUS
 62
    7
 10
280.55762259520782
 20
33.364047609079094
 11
270.92306856115812
 21
33.362152806562193
  0
LINE
  8
_0-1__U_30EC_U_30A4_U_30E4_U_30FC_1
  6
CONTINUOUS
 62
    7
 10
270.92306856115812
 20
33.362152806562193
 11
270.46004772794055
 21
33.560590306512594
  0
LINE
  8
_0-1__U_30EC_U_30A4_U_30E4_U_30FC_1
  6
CONTINUOUS
 62
    7
 10
270.46004772794055
 20
33.560590306512594
 11
270.46073674703757
 21
35.471068007857895
  0
LINE
  8
_0-1__U_30EC_U_30A4_U_30E4_U_30FC_1
  6
CONTINUOUS
 62
    7
 10
254.21401094814789
 20
-25.422889496449812
 11
254.62707789682935
 21
-24.380059093064659
  0
LINE
  8
_0-1__U_30EC_U_30A4_U_30E4_U_30FC_1
  6
CONTINUOUS
 62
    7
 10
254.62707789682935
 20
-24.380059093064659
 11
264.26163193087905
 21
-24.377992035773559
  0
LINE
  8
_0-1__U_30EC_U_30A4_U_30E4_U_30FC_1
  6
CONTINUOUS
 62
    7
 10
264.26163193087905
 20
-24.377992035773559
 11
264.72465276409662
 21
-24.576429535723889
  0
LINE
  8
_0-1__U_30EC_U_30A4_U_30E4_U_30FC_1
  6
CONTINUOUS
 62
    7
 10
264.72465276409662
 20
-24.576429535723889
 11
264.72396374499959
 21
-26.487079491843502
  0
LINE
  8
_0-1__U_30EC_U_30A4_U_30E4_U_30FC_1
  6
CONTINUOUS
 62
    7
 10
280.97068954388931
 20
-25.422889496449812
 11
280.55762259520782
 21
-24.380059093064659
  0
LINE
  8
_0-1__U_30EC_U_30A4_U_30E4_U_30FC_1
  6
CONTINUOUS
 62
    7
 10
280.55762259520782
 20
-24.380059093064659
 11
270.92306856115812
 21
-24.377992035773559
  0
LINE
  8
_0-1__U_30EC_U_30A4_U_30E4_U_30FC_1
  6
CONTINUOUS
 62
    7
 10
270.92306856115812
 20
-24.377992035773559
 11
270.46004772794055
 21
-24.576429535723889
  0
LINE
  8
_0-1__U_30EC_U_30A4_U_30E4_U_30FC_1
  6
CONTINUOUS
 62
    7
 10
270.46004772794055
 20
-24.576429535723889
 11
270.46073674703757
 21
-26.487079491843502
  0
LINE
  8
_0-1__U_30EC_U_30A4_U_30E4_U_30FC_1
  6
CONTINUOUS
 62
    7
 10
243.51406113528469
 20
8.2990831513697003
 11
243.53593749161601
 21
-6.8324652389446783
  0
LINE
  8
_0-1__U_30EC_U_30A4_U_30E4_U_30FC_1
  6
CONTINUOUS
 62
    7
 10
243.53593749161601
 20
-6.8324652389446783
 11
243.44774304719363
 21
-7.5821180165349915
  0
LINE
  8
_0-1__U_30EC_U_30A4_U_30E4_U_30FC_1
  6
CONTINUOUS
 62
    7
 10
243.44774304719363
 20
-7.5821180165349915
 11
243.29340276945442
 21
-8.2435763497030052
  0
LINE
  8
_0-1__U_30EC_U_30A4_U_30E4_U_30FC_1
  6
CONTINUOUS
 62
    7
 10
243.29340276945442
 20
-8.2435763497030052
 11
243.16111110282083
 21
-8.4861110718645705
  0
LINE
  8
_0-1__U_30EC_U_30A4_U_30E4_U_30FC_1
  6
CONTINUOUS
 62
    7
 10
243.16111110282083
 20
-8.4861110718645705
 11
242.96267360287044
 21
-8.6845485718150144
  0
LINE
  8
_0-1__U_30EC_U_30A4_U_30E4_U_30FC_1
  6
CONTINUOUS
 62
    7
 10
242.96267360287044
 20
-8.6845485718150144
 11
238.81753471501784
 21
-8.6624999607093969
  0
LINE
  8
_0-1__U_30EC_U_30A4_U_30E4_U_30FC_1
  6
CONTINUOUS
 62
    7
 10
242.78232285421763
 20
10.284663934293405
 11
242.80833332513126
 21
-5.3111110726582922
  0
LINE
  8
_0-1__U_30EC_U_30A4_U_30E4_U_30FC_1
  6
CONTINUOUS
 62
    7
 10
242.80833332513126
 20
-5.3111110726582922
 11
242.72013888070887
 21
-6.2151041279878996
  0
LINE
  8
_0-1__U_30EC_U_30A4_U_30E4_U_30FC_1
  6
CONTINUOUS
 62
    7
 10
242.72013888070887
 20
-6.2151041279878996
 11
242.60989582518087
 21
-6.7001735723110869
  0
LINE
  8
_0-1__U_30EC_U_30A4_U_30E4_U_30FC_1
  6
CONTINUOUS
 62
    7
 10
242.60989582518087
 20
-6.7001735723110869
 11
242.47760415854728
 21
-7.0970485722118895
  0
LINE
  8
_0-1__U_30EC_U_30A4_U_30E4_U_30FC_1
  6
CONTINUOUS
 62
    7
 10
242.47760415854728
 20
-7.0970485722118895
 11
242.27916665859686
 21
-7.3395832943735115
  0
LINE
  8
_0-1__U_30EC_U_30A4_U_30E4_U_30FC_1
  6
CONTINUOUS
 62
    7
 10
242.27916665859686
 20
-7.3395832943735115
 11
238.22222221516665
 21
-7.3395832943735115
  0
LINE
  8
_0-1__U_30EC_U_30A4_U_30E4_U_30FC_1
  6
CONTINUOUS
 62
    7
 10
291.70388452818514
 20
0.6862834028387965
 11
291.68200817185379
 21
15.817831793153204
  0
LINE
  8
_0-1__U_30EC_U_30A4_U_30E4_U_30FC_1
  6
CONTINUOUS
 62
    7
 10
291.68200817185379
 20
15.817831793153204
 11
291.77020261627621
 21
16.567484570743488
  0
LINE
  8
_0-1__U_30EC_U_30A4_U_30E4_U_30FC_1
  6
CONTINUOUS
 62
    7
 10
291.77020261627621
 20
16.567484570743488
 11
291.92454289401542
 21
17.228942903911502
  0
LINE
  8
_0-1__U_30EC_U_30A4_U_30E4_U_30FC_1
  6
CONTINUOUS
 62
    7
 10
291.92454289401542
 20
17.228942903911502
 11
292.05683456064901
 21
17.471477626073096
  0
LINE
  8
_0-1__U_30EC_U_30A4_U_30E4_U_30FC_1
  6
CONTINUOUS
 62
    7
 10
292.05683456064901
 20
17.471477626073096
 11
292.2552720605994
 21
17.669915126023511
  0
LINE
  8
_0-1__U_30EC_U_30A4_U_30E4_U_30FC_1
  6
CONTINUOUS
 62
    7
 10
292.2552720605994
 20
17.669915126023511
 11
296.40041094845202
 21
17.647866514917894
  0
LINE
  8
_0-1__U_30EC_U_30A4_U_30E4_U_30FC_1
  6
CONTINUOUS
 62
    7
 10
292.43562280925221
 20
-1.2992973800849086
 11
292.40961233833855
 21
14.296477626866789
  0
LINE
  8
_0-1__U_30EC_U_30A4_U_30E4_U_30FC_1
  6
CONTINUOUS
 62
    7
 10
292.40961233833855
 20
14.296477626866789
 11
292.49780678276096
 21
15.200470682196396
  0
LINE
  8
_0-1__U_30EC_U_30A4_U_30E4_U_30FC_1
  6
CONTINUOUS
 62
    7
 10
292.49780678276096
 20
15.200470682196396
 11
292.60804983828893
 21
15.685540126519612
  0
LINE
  8
_0-1__U_30EC_U_30A4_U_30E4_U_30FC_1
  6
CONTINUOUS
 62
    7
 10
292.60804983828893
 20
15.685540126519612
 11
292.74034150492253
 21
16.082415126420358
  0
LINE
  8
_0-1__U_30EC_U_30A4_U_30E4_U_30FC_1
  6
CONTINUOUS
 62
    7
 10
292.74034150492253
 20
16.082415126420358
 11
292.93877900487291
 21
16.324949848582008
  0
LINE
  8
_0-1__U_30EC_U_30A4_U_30E4_U_30FC_1
  6
CONTINUOUS
 62
    7
 10
292.93877900487291
 20
16.324949848582008
 11
296.99572344830312
 21
16.324949848582008
  0
TEXT
  8
_0-0_0
 62
    3
 10
226.44745222929933
 20
-138.72611464968151
 40
5
 41
1
 50
0
  1
MODEL CleanSwitch Outlet-Box
  0
TEXT
  8
_0-0_0
 62
    3
 10
519.87420382165601
 20
-139.14649681528658
 40
5
 41
1
 50
0
  1
Copyright (C) 2020 OPTEX.CO., LTD.
  0
TEXT
  8
_0-0_0
 62
    3
 10
590.49840764331202
 20
-123.38216560509551
 40
5
 41
1
 50
0
  1
unit: mm
  0
TEXT
  8
_0-0_0
 62
    3
 10
594.91242038216558
 20
-59.694267515923542
 40
5
 41
1
 50
0
  1
11
  0
TEXT
  8
_0-0_0
 62
    3
 10
480.1480891719745
 20
-59.484076433121004
 40
5
 41
1
 50
0
  1
88
  0
TEXT
  8
_0-0_0
 62
    3
 10
357.81687898089172
 20
52.337579617834407
 40
5
 41
1
 50
0
  1
43
  0
TEXT
  8
_0-0_0
 62
    3
 10
317.88057324840764
 20
3.9936305732484243
 40
5
 41
1
 50
90
  1
74
  0
TEXT
  8
_0-0_0
 62
    3
 10
330.91242038216558
 20
4.2038216560509625
 40
5
 41
1
 50
90
  1
68
  0
TEXT
  8
_0-0_0
 62
    3
 10
428.02070063694265
 20
3.9936305732484243
 40
5
 41
1
 50
90
  1
88
  0
ENDSEC
  0
EOF
