  0
SECTION
  2
HEADER
  9
$ACADVER
  1
AC1009
  9
$INSBASE
 10
0
 20
0
 30
0
  9
$EXTMIN
 10
0
 20
0
  9
$EXTMAX
 10
420
 20
297
  9
$LIMMIN
 10
0
 20
0
  9
$LIMMAX
 10
420
 20
297
  9
$LTSCALE
 40
1
  0
ENDSEC
  0
SECTION
  2
TABLES
  0
TABLE
  2
LTYPE
 70
     9
  0
LTYPE
  2
CONTINUOUS
 70
    64
  3
実線
 72
    65
 73
     0
 40
0.0
  0
LTYPE
  2
DASHED1
 70
    64
  3
--  --  --  --  --  --  --  --  
 72
    65
 73
     2
 40
2.5
 49
1.25
 49
-1.25
  0
LTYPE
  2
DASHED2
 70
    64
  3
----    ----    ----    ----    
 72
    65
 73
     2
 40
5.0
 49
2.5
 49
-2.5
  0
LTYPE
  2
DASHED3
 70
    64
  3
------  ------  ------  ------  
 72
    65
 73
     2
 40
5.0
 49
3.75
 49
-1.25
  0
LTYPE
  2
CENTER1
 70
    64
  3
----- - ----- - ----- - ----- - 
 72
    65
 73
     4
 40
10.0
 49
6.25
 49
-1.25
 49
1.25
 49
-1.25
  0
LTYPE
  2
CENTER2
 70
    64
  3
----------  --  ----------  --  
 72
    65
 73
     4
 40
20.0
 49
12.5
 49
-2.5
 49
2.5
 49
-2.5
  0
LTYPE
  2
PHANTOM1
 70
    64
  3
--- - - --- - - --- - - --- - - 
 72
    65
 73
     6
 40
10.0
 49
3.25
 49
-1.25
 49
1.25
 49
-1.25
 49
1.25
 49
-1.25
  0
LTYPE
  2
PHANTOM2
 70
    64
  3
--------  -  -  --------  -  -  
 72
    65
 73
     6
 40
20.0
 49
10.0
 49
-2.5
 49
1.25
 49
-2.5
 49
1.25
 49
-2.5
  0
LTYPE
  2
DOT
 70
    64
  3
-   -   -   -   -   -   -   -   
 72
    65
 73
     2
 40
2.5
 49
0.625
 49
-1.875
  0
LTYPE
  2
DUMMY
 70
    64
  3
ダミー
 72
    65
 73
     0
 40
0.0
  0
LTYPE
  2
RAND1
 70
    64
  3
ランダム線1
 72
    65
 73
     4
 40
10.0
 49
1.0
 49
-2.0
 49
3.0
 49
-4.0
  0
LTYPE
  2
RAND2
 70
    64
  3
ランダム線2
 72
    65
 73
     4
 40
14.0
 49
2.0
 49
-3.0
 49
4.0
 49
-5.0
  0
LTYPE
  2
RAND3
 70
    64
  3
ランダム線3
 72
    65
 73
     4
 40
18.0
 49
3.0
 49
-4.0
 49
5.0
 49
-6.0
  0
LTYPE
  2
RAND4
 70
    64
  3
ランダム線4
 72
    65
 73
     4
 40
22.0
 49
4.0
 49
-5.0
 49
6.0
 49
-7.0
  0
LTYPE
  2
RAND5
 70
    64
  3
ランダム線5
 72
    65
 73
     4
 40
26.0
 49
5.0
 49
-6.0
 49
7.0
 49
-8.0
  0
LTYPE
  2
LONG1
 70
    64
  3
----------  --  ----------  --  
 72
    65
 73
     4
 40
40.0
 49
32.5
 49
-2.5
 49
2.5
 49
-2.5
  0
LTYPE
  2
LONG2
 70
    64
  3
--------  -  -  --------  -  -  
 72
    65
 73
     6
 40
40.0
 49
30.0
 49
-2.5
 49
1.25
 49
-2.5
 49
1.25
 49
-2.5
  0
LTYPE
  2
LONG3
 70
    64
  3
+++++++++++++++..+++++++++++++++
 72
    65
 73
     2
 40
40.0
 49
37.5
 49
-2.5
  0
LTYPE
  2
LONG4
 70
    64
  3
+++++++++++++++..+++++++++++++++
 72
    65
 73
     2
 40
80.0
 49
75.0
 49
-5.0
  0
LTYPE
  2
LONG5
 70
    64
  3
----------  --  ----------  --  
 72
    65
 73
     4
 40
60.0
 49
37.5
 49
-7.5
 49
7.5
 49
-7.5
  0
LTYPE
  2
dashed
 70
   64
  3
-------   -------------   ------
 72
   65
 73
    2
 40
7.5
 49
6
 49
-1.5
  0
LTYPE
  2
dashed_spaced
 70
   64
  3
----        --------        ----
 72
   65
 73
    2
 40
12
 49
6
 49
-6
  0
LTYPE
  2
long_dashed_dotted
 70
   64
  3
------------- --- --------------
 72
   65
 73
    4
 40
15.25
 49
12
 49
-1.5
 49
0.25
 49
-1.5
  0
LTYPE
  2
long_dashed_double-dotted
 70
   64
  3
----------- --- --- ------------
 72
   65
 73
    6
 40
17
 49
12
 49
-1.5
 49
0.25
 49
-1.5
 49
0.25
 49
-1.5
  0
LTYPE
  2
long_dashed_triplicate-dotted
 70
   64
  3
--------- --- --- --- ----------
 72
   65
 73
    8
 40
18.75
 49
12
 49
-1.5
 49
0.25
 49
-1.5
 49
0.25
 49
-1.5
 49
0.25
 49
-1.5
  0
LTYPE
  2
dotted
 70
   64
  3
   -       -       -       -    
 72
   65
 73
    2
 40
1.75
 49
0.25
 49
-1.5
  0
LTYPE
  2
chain
 70
   64
  3
-------------- -- --------------
 72
   65
 73
    4
 40
18.5
 49
12
 49
-1.5
 49
3.5
 49
-1.5
  0
LTYPE
  2
chain_double_dash
 70
   64
  3
------------ -- -- -------------
 72
   65
 73
    6
 40
23.5
 49
12
 49
-1.5
 49
3.5
 49
-1.5
 49
3.5
 49
-1.5
  0
LTYPE
  2
dashed_dotted
 70
   64
  3
-----------     -     ----------
 72
   65
 73
    4
 40
9.25
 49
6
 49
-1.5
 49
0.25
 49
-1.5
  0
LTYPE
  2
double-dashed_dotted
 70
   64
  3
------   -----------   -   -----
 72
   65
 73
    6
 40
16.75
 49
6
 49
-1.5
 49
6
 49
-1.5
 49
0.25
 49
-1.5
  0
LTYPE
  2
dashed_double-dotted
 70
   64
  3
---------    -    -    ---------
 72
   65
 73
    6
 40
11
 49
6
 49
-1.5
 49
0.25
 49
-1.5
 49
0.25
 49
-1.5
  0
LTYPE
  2
double-dashed_double-dotted
 70
   64
  3
-----   ---------   -   -   ----
 72
   65
 73
    8
 40
18.5
 49
6
 49
-1.5
 49
6
 49
-1.5
 49
0.25
 49
-1.5
 49
0.25
 49
-1.5
  0
LTYPE
  2
dashed_triplicate-dotted
 70
   64
  3
-------    -    -    -    ------
 72
   65
 73
    8
 40
12.75
 49
6
 49
-1.5
 49
0.25
 49
-1.5
 49
0.25
 49
-1.5
 49
0.25
 49
-1.5
  0
LTYPE
  2
double-dashed_triplicate-dotted
 70
   64
  3
-----  ---------  -  -  -  -----
 72
   65
 73
   10
 40
20.25
 49
6
 49
-1.5
 49
6
 49
-1.5
 49
0.25
 49
-1.5
 49
0.25
 49
-1.5
 49
0.25
 49
-1.5
  0
LTYPE
  2
undefined
 70
   64
  3
--------------------------------
 72
   65
 73
    0
 40
0
  0
LTYPE
  2
AI-Linetype-1
 70
   64
  3
----------     ----    ---------
 72
   65
 73
    4
 40
2.5001361569141221
 49
1.5151805820915689
 49
-0.3788833335750476
 49
0.3030361206237526
 49
-0.3030361206237526
  0
LTYPE
  2
AI-Linetype-2
 70
   64
  3
----        --------        ----
 72
   65
 73
    2
 40
0.5905500085996754
 49
0.2952750042998377
 49
-0.2952750042998377
  0
LTYPE
  2
AI-Linetype-4
 70
   64
  3
-------------  --  -------------
 72
   65
 73
    4
 40
3.4865028667343254
 49
2.789061158860501
 49
-0.2324805692912748
 49
0.2324805692912748
 49
-0.2324805692912748
  0
LTYPE
  2
AI-Linetype-32
 70
   64
  3
----------     ----    ---------
 72
   65
 73
    4
 40
2.9781500524122082
 49
1.805163924772589
 49
-0.4512027931409918
 49
0.3608916672493138
 49
-0.3608916672493138
  0
LTYPE
  2
AI-Linetype-33
 70
   64
  3
----------     ----    ---------
 72
   65
 73
    4
 40
2.3547916913106022
 49
1.427338889877795
 49
-0.3566583463651378
 49
0.2853972275338346
 49
-0.2853972275338346
  0
LTYPE
  2
_
 70
   64
  3
                                
 72
   65
 73
    0
 40
0
  0
LTYPE
  2
__23
 70
   64
  3
                                
 72
   65
 73
    0
 40
0
  0
LTYPE
  2
__24
 70
   64
  3
                                
 72
   65
 73
    0
 40
0
  0
LTYPE
  2
__25
 70
   64
  3
                                
 72
   65
 73
    0
 40
0
  0
LTYPE
  2
__26
 70
   64
  3
                                
 72
   65
 73
    0
 40
0
  0
LTYPE
  2
__27
 70
   64
  3
                                
 72
   65
 73
    0
 40
0
  0
LTYPE
  2
__28
 70
   64
  3
                                
 72
   65
 73
    0
 40
0
  0
LTYPE
  2
__29
 70
   64
  3
                                
 72
   65
 73
    0
 40
0
  0
LTYPE
  2
__30
 70
   64
  3
                                
 72
   65
 73
    0
 40
0
  0
LTYPE
  2
__31
 70
   64
  3
                                
 72
   65
 73
    0
 40
0
  0
LTYPE
  2
__32
 70
   64
  3
                                
 72
   65
 73
    0
 40
0
  0
ENDTAB
  0
TABLE
  2
STYLE
  5
3
100
AcDbSymbolTable
 70
     1
  0
STYLE
  5
10
100
AcDbSymbolTableRecord
100
AcDbTextStyleTableRecord
  2
STANDARD
 70
     0
 40
0.0
 41
1.0
 50
0.0
 71
     0
 42
0.2
  3
txt
  4
bigfont.shx
  0
STYLE
  5
26
100
AcDbSymbolTableRecord
100
AcDbTextStyleTableRecord
  2
TATEGAKI
 70
    68
 40
0.0
 41
1.0
 50
0.0
 71
     0
 42
1.0
  3
txt
  4
bigfont.shx
  0
ENDTAB
  0
TABLE
  2
LAYER
 70
    3
  0
LAYER
  2
_0-0_
 70
   64
 62
    7
  6
CONTINUOUS
  0
LAYER
  2
_0-1__U_30EC_U_30A4_U_30E4_U_30FC_1_U_306E_U_30B3_U_30D4_U_30FC_2
 70
   64
 62
    7
  6
CONTINUOUS
  0
LAYER
  2
ADD_LINE
 70
   64
 62
    7
  6
CONTINUOUS
  0
ENDTAB
  0
ENDSEC
  0
SECTION
  2
BLOCKS
  0
ENDSEC
  0
SECTION
  2
ENTITIES
  0
LINE
  8
_0-0_
  6
CONTINUOUS
 62
   18
 10
339.45096391061463
 20
210.78619171188171
 11
339.45096391061463
 21
194.53141464181803
  0
LINE
  8
_0-1__U_30EC_U_30A4_U_30E4_U_30FC_1_U_306E_U_30B3_U_30D4_U_30FC_2
  6
CONTINUOUS
 62
    7
 10
230.09570948916868
 20
186.22150346259454
 11
230.1119014379494
 21
185.56090640329793
  0
LINE
  8
_0-1__U_30EC_U_30A4_U_30E4_U_30FC_1_U_306E_U_30B3_U_30D4_U_30FC_2
  6
CONTINUOUS
 62
    7
 10
230.1119014379494
 20
185.56090640329793
 11
230.17494668532945
 21
182.07085242196567
  0
LINE
  8
_0-1__U_30EC_U_30A4_U_30E4_U_30FC_1_U_306E_U_30B3_U_30D4_U_30FC_2
  6
CONTINUOUS
 62
    7
 10
230.17494668532945
 20
182.07085242196567
 11
230.18838255772184
 21
176.04331336097252
  0
LINE
  8
_0-1__U_30EC_U_30A4_U_30E4_U_30FC_1_U_306E_U_30B3_U_30D4_U_30FC_2
  6
CONTINUOUS
 62
    7
 10
230.18838255772184
 20
176.04331336097252
 11
230.12912691537562
 21
168.16265743846347
  0
LINE
  8
_0-1__U_30EC_U_30A4_U_30E4_U_30FC_1_U_306E_U_30B3_U_30D4_U_30FC_2
  6
CONTINUOUS
 62
    7
 10
230.12912691537562
 20
168.16265743846347
 11
230.09329792232901
 21
159.31151811775962
  0
LINE
  8
_0-1__U_30EC_U_30A4_U_30E4_U_30FC_1_U_306E_U_30B3_U_30D4_U_30FC_2
  6
CONTINUOUS
 62
    7
 10
230.09329792232901
 20
159.31151811775962
 11
230.13463906815204
 21
150.48208289861279
  0
LINE
  8
_0-1__U_30EC_U_30A4_U_30E4_U_30FC_1_U_306E_U_30B3_U_30D4_U_30FC_2
  6
CONTINUOUS
 62
    7
 10
230.13463906815204
 20
150.48208289861279
 11
230.18838255772184
 21
142.6806641722645
  0
LINE
  8
_0-1__U_30EC_U_30A4_U_30E4_U_30FC_1_U_306E_U_30B3_U_30D4_U_30FC_2
  6
CONTINUOUS
 62
    7
 10
230.18838255772184
 20
142.6806641722645
 11
230.17356864713528
 21
136.78438324925932
  0
LINE
  8
_0-1__U_30EC_U_30A4_U_30E4_U_30FC_1_U_306E_U_30B3_U_30D4_U_30FC_2
  6
CONTINUOUS
 62
    7
 10
230.17356864713528
 20
136.78438324925932
 11
230.10914536156119
 21
133.45332042457127
  0
LINE
  8
_0-1__U_30EC_U_30A4_U_30E4_U_30FC_1_U_306E_U_30B3_U_30D4_U_30FC_2
  6
CONTINUOUS
 62
    7
 10
230.10914536156119
 20
133.45332042457127
 11
230.09708752736273
 21
133.00959212607117
  0
LINE
  8
_0-1__U_30EC_U_30A4_U_30E4_U_30FC_1_U_306E_U_30B3_U_30D4_U_30FC_2
  6
CONTINUOUS
 62
    7
 10
230.09708752736273
 20
133.00959212607117
 11
230.09329792232901
 21
132.85800792472023
  0
LINE
  8
_0-1__U_30EC_U_30A4_U_30E4_U_30FC_1_U_306E_U_30B3_U_30D4_U_30FC_2
  6
CONTINUOUS
 62
    7
 10
228.28083318753906
 20
202.98809417020854
 11
228.28083318753906
 21
116.13999306344826
  0
LINE
  8
_0-1__U_30EC_U_30A4_U_30E4_U_30FC_1_U_306E_U_30B3_U_30D4_U_30FC_2
  6
CONTINUOUS
 62
    7
 10
222.71769299795764
 20
203.6540311275073
 11
222.71769299795764
 21
115.47646767298929
  0
LINE
  8
_0-1__U_30EC_U_30A4_U_30E4_U_30FC_1_U_306E_U_30B3_U_30D4_U_30FC_2
  6
CONTINUOUS
 62
    7
 10
227.73754162951522
 20
203.6540311275073
 11
228.35628077866599
 21
202.98809417020854
  0
LINE
  8
_0-1__U_30EC_U_30A4_U_30E4_U_30FC_1_U_306E_U_30B3_U_30D4_U_30FC_2
  6
CONTINUOUS
 62
    7
 10
174.45087172096191
 20
114.56455089804351
 11
227.72203869983159
 21
115.47646767298929
  0
LINE
  8
_0-1__U_30EC_U_30A4_U_30E4_U_30FC_1_U_306E_U_30B3_U_30D4_U_30FC_2
  6
CONTINUOUS
 62
    7
 10
174.45087172096191
 20
114.56455089804351
 11
174.45087172096191
 21
204.5645698642588
  0
LINE
  8
_0-1__U_30EC_U_30A4_U_30E4_U_30FC_1_U_306E_U_30B3_U_30D4_U_30FC_2
  6
CONTINUOUS
 62
    7
 10
221.42233709550371
 20
115.37587088481982
 11
221.42233709550371
 21
203.65472014660426
  0
LINE
  8
_0-1__U_30EC_U_30A4_U_30E4_U_30FC_1_U_306E_U_30B3_U_30D4_U_30FC_2
  6
CONTINUOUS
 62
    7
 10
174.45087172096191
 20
204.5645698642588
 11
227.67518540123214
 21
203.6540311275073
  0
LINE
  8
_0-1__U_30EC_U_30A4_U_30E4_U_30FC_1_U_306E_U_30B3_U_30D4_U_30FC_2
  6
CONTINUOUS
 62
    7
 10
230.18287040494553
 20
133.00959212607117
 11
231.64841402437079
 21
135.54621593186059
  0
LINE
  8
_0-1__U_30EC_U_30A4_U_30E4_U_30FC_1_U_306E_U_30B3_U_30D4_U_30FC_2
  6
CONTINUOUS
 62
    7
 10
231.64841402437079
 20
183.59100080483208
 11
230.14738592144735
 21
186.22150346259454
  0
LINE
  8
_0-1__U_30EC_U_30A4_U_30E4_U_30FC_1_U_306E_U_30B3_U_30D4_U_30FC_2
  6
CONTINUOUS
 62
    7
 10
231.64841402437079
 20
135.54690495095778
 11
232.45077676288551
 21
151.38331987755404
  0
LINE
  8
_0-1__U_30EC_U_30A4_U_30E4_U_30FC_1_U_306E_U_30B3_U_30D4_U_30FC_2
  6
CONTINUOUS
 62
    7
 10
232.45077676288551
 20
151.38331987755404
 11
232.45077676288551
 21
167.74252804403736
  0
LINE
  8
_0-1__U_30EC_U_30A4_U_30E4_U_30FC_1_U_306E_U_30B3_U_30D4_U_30FC_2
  6
CONTINUOUS
 62
    7
 10
232.45077676288551
 20
167.74252804403736
 11
231.64841402437079
 21
183.59100080483208
  0
LINE
  8
_0-1__U_30EC_U_30A4_U_30E4_U_30FC_1_U_306E_U_30B3_U_30D4_U_30FC_2
  6
CONTINUOUS
 62
    7
 10
227.72203869983159
 20
115.47371159660096
 11
228.33147609117222
 21
116.08418251658722
  0
LINE
  8
_0-1__U_30EC_U_30A4_U_30E4_U_30FC_1_U_306E_U_30B3_U_30D4_U_30FC_2
  6
CONTINUOUS
 62
    7
 10
228.32355237155613
 20
116.13448091067195
 11
230.13601710634609
 21
132.83251421812938
  0
LINE
  8
_0-1__U_30EC_U_30A4_U_30E4_U_30FC_1_U_306E_U_30B3_U_30D4_U_30FC_2
  6
CONTINUOUS
 62
    7
 10
230.13601710634609
 20
186.29385046778484
 11
228.32355237155613
 21
202.99274504911361
  0
LINE
  8
_0-1__U_30EC_U_30A4_U_30E4_U_30FC_1_U_306E_U_30B3_U_30D4_U_30FC_2
  6
AI-Linetype-2
 62
    7
 10
367.86232186792154
 20
159.56335459773126
 11
366.40573549675787
 21
159.56335459773126
  0
LINE
  8
_0-1__U_30EC_U_30A4_U_30E4_U_30FC_1_U_306E_U_30B3_U_30D4_U_30FC_2
  6
CONTINUOUS
 62
    7
 10
368.91100893363171
 20
159.56456038115115
 11
368.8655336732262
 21
157.89747867583887
  0
LINE
  8
_0-1__U_30EC_U_30A4_U_30E4_U_30FC_1_U_306E_U_30B3_U_30D4_U_30FC_2
  6
CONTINUOUS
 62
    7
 10
368.8655336732262
 20
157.89747867583887
 11
368.72290672013685
 21
156.23745941627121
  0
LINE
  8
_0-1__U_30EC_U_30A4_U_30E4_U_30FC_1_U_306E_U_30B3_U_30D4_U_30FC_2
  6
CONTINUOUS
 62
    7
 10
368.72290672013685
 20
156.23745941627121
 11
368.48932924623705
 21
154.58691416928795
  0
LINE
  8
_0-1__U_30EC_U_30A4_U_30E4_U_30FC_1_U_306E_U_30B3_U_30D4_U_30FC_2
  6
CONTINUOUS
 62
    7
 10
368.48932924623705
 20
154.58691416928795
 11
368.15963360829869
 21
152.94946028514877
  0
LINE
  8
_0-1__U_30EC_U_30A4_U_30E4_U_30FC_1_U_306E_U_30B3_U_30D4_U_30FC_2
  6
CONTINUOUS
 62
    7
 10
368.15963360829869
 20
152.94946028514877
 11
367.74070999729224
 21
151.33853363624596
  0
LINE
  8
_0-1__U_30EC_U_30A4_U_30E4_U_30FC_1_U_306E_U_30B3_U_30D4_U_30FC_2
  6
CONTINUOUS
 62
    7
 10
367.74070999729224
 20
151.33853363624596
 11
367.22911331773264
 21
149.75000010799724
  0
LINE
  8
_0-1__U_30EC_U_30A4_U_30E4_U_30FC_1_U_306E_U_30B3_U_30D4_U_30FC_2
  6
CONTINUOUS
 62
    7
 10
367.22911331773264
 20
149.75000010799724
 11
366.62932219375068
 21
148.19488400595546
  0
LINE
  8
_0-1__U_30EC_U_30A4_U_30E4_U_30FC_1_U_306E_U_30B3_U_30D4_U_30FC_2
  6
CONTINUOUS
 62
    7
 10
366.62932219375068
 20
148.19488400595546
 11
365.94099211579771
 21
146.67663042560579
  0
LINE
  8
_0-1__U_30EC_U_30A4_U_30E4_U_30FC_1_U_306E_U_30B3_U_30D4_U_30FC_2
  6
CONTINUOUS
 62
    7
 10
365.94099211579771
 20
146.67663042560579
 11
365.16929072710172
 21
145.19592838604544
  0
LINE
  8
_0-1__U_30EC_U_30A4_U_30E4_U_30FC_1_U_306E_U_30B3_U_30D4_U_30FC_2
  6
CONTINUOUS
 62
    7
 10
365.16929072710172
 20
145.19592838604544
 11
364.31490704675969
 21
143.76518023102116
  0
LINE
  8
_0-1__U_30EC_U_30A4_U_30E4_U_30FC_1_U_306E_U_30B3_U_30D4_U_30FC_2
  6
CONTINUOUS
 62
    7
 10
364.31490704675969
 20
143.76518023102116
 11
363.37990813206295
 21
142.38231890324195
  0
LINE
  8
_0-1__U_30EC_U_30A4_U_30E4_U_30FC_1_U_306E_U_30B3_U_30D4_U_30FC_2
  6
CONTINUOUS
 62
    7
 10
363.37990813206295
 20
142.38231890324195
 11
362.37221770262738
 21
141.05767968916334
  0
LINE
  8
_0-1__U_30EC_U_30A4_U_30E4_U_30FC_1_U_306E_U_30B3_U_30D4_U_30FC_2
  6
CONTINUOUS
 62
    7
 10
362.37221770262738
 20
141.05767968916334
 11
361.28529007703105
 21
139.78850651239722
  0
LINE
  8
_0-1__U_30EC_U_30A4_U_30E4_U_30FC_1_U_306E_U_30B3_U_30D4_U_30FC_2
  6
CONTINUOUS
 62
    7
 10
361.28529007703105
 20
139.78850651239722
 11
360.13325014676354
 21
138.58410113075396
  0
LINE
  8
_0-1__U_30EC_U_30A4_U_30E4_U_30FC_1_U_306E_U_30B3_U_30D4_U_30FC_2
  6
CONTINUOUS
 62
    7
 10
360.13325014676354
 20
138.58410113075396
 11
358.91161928769395
 21
137.4485976588156
  0
LINE
  8
_0-1__U_30EC_U_30A4_U_30E4_U_30FC_1_U_306E_U_30B3_U_30D4_U_30FC_2
  6
CONTINUOUS
 62
    7
 10
358.91161928769395
 20
137.4485976588156
 11
357.63176631492365
 21
136.38371864432483
  0
LINE
  8
_0-1__U_30EC_U_30A4_U_30E4_U_30FC_1_U_306E_U_30B3_U_30D4_U_30FC_2
  6
CONTINUOUS
 62
    7
 10
357.63176631492365
 20
136.38371864432483
 11
356.28817907567611
 21
135.39290918276706
  0
LINE
  8
_0-1__U_30EC_U_30A4_U_30E4_U_30FC_1_U_306E_U_30B3_U_30D4_U_30FC_2
  6
CONTINUOUS
 62
    7
 10
356.28817907567611
 20
135.39290918276706
 11
354.89877206647486
 21
134.47582476459351
  0
LINE
  8
_0-1__U_30EC_U_30A4_U_30E4_U_30FC_1_U_306E_U_30B3_U_30D4_U_30FC_2
  6
CONTINUOUS
 62
    7
 10
354.89877206647486
 20
134.47582476459351
 11
353.45148745312144
 21
133.64280067626018
  0
LINE
  8
_0-1__U_30EC_U_30A4_U_30E4_U_30FC_1_U_306E_U_30B3_U_30D4_U_30FC_2
  6
CONTINUOUS
 62
    7
 10
353.45148745312144
 20
133.64280067626018
 11
351.9611391462023
 21
132.89418142731537
  0
LINE
  8
_0-1__U_30EC_U_30A4_U_30E4_U_30FC_1_U_306E_U_30B3_U_30D4_U_30FC_2
  6
CONTINUOUS
 62
    7
 10
351.9611391462023
 20
132.89418142731537
 11
350.43392831759115
 21
132.227210941371
  0
LINE
  8
_0-1__U_30EC_U_30A4_U_30E4_U_30FC_1_U_306E_U_30B3_U_30D4_U_30FC_2
  6
CONTINUOUS
 62
    7
 10
350.43392831759115
 20
132.227210941371
 11
348.86709889089957
 21
131.64705686165493
  0
LINE
  8
_0-1__U_30EC_U_30A4_U_30E4_U_30FC_1_U_306E_U_30B3_U_30D4_U_30FC_2
  6
CONTINUOUS
 62
    7
 10
348.86709889089957
 20
131.64705686165493
 11
347.2720196812287
 21
131.16302094597731
  0
LINE
  8
_0-1__U_30EC_U_30A4_U_30E4_U_30FC_1_U_306E_U_30B3_U_30D4_U_30FC_2
  6
CONTINUOUS
 62
    7
 10
347.2720196812287
 20
131.16302094597731
 11
345.65523637000115
 21
130.76649045562507
  0
LINE
  8
_0-1__U_30EC_U_30A4_U_30E4_U_30FC_1_U_306E_U_30B3_U_30D4_U_30FC_2
  6
CONTINUOUS
 62
    7
 10
345.65523637000115
 20
130.76649045562507
 11
344.01502640947365
 21
130.45953244788925
  0
LINE
  8
_0-1__U_30EC_U_30A4_U_30E4_U_30FC_1_U_306E_U_30B3_U_30D4_U_30FC_2
  6
CONTINUOUS
 62
    7
 10
344.01502640947365
 20
130.45953244788925
 11
342.35965802881105
 21
130.24834809464332
  0
LINE
  8
_0-1__U_30EC_U_30A4_U_30E4_U_30FC_1_U_306E_U_30B3_U_30D4_U_30FC_2
  6
CONTINUOUS
 62
    7
 10
342.35965802881105
 20
130.24834809464332
 11
340.69533239988687
 21
130.13052582904797
  0
LINE
  8
_0-1__U_30EC_U_30A4_U_30E4_U_30FC_1_U_306E_U_30B3_U_30D4_U_30FC_2
  6
CONTINUOUS
 62
    7
 10
340.69533239988687
 20
130.13052582904797
 11
339.02893971367155
 21
130.10468761290858
  0
LINE
  8
_0-1__U_30EC_U_30A4_U_30E4_U_30FC_1_U_306E_U_30B3_U_30D4_U_30FC_2
  6
CONTINUOUS
 62
    7
 10
339.02893971367155
 20
130.10468761290858
 11
337.36151349881061
 21
130.17600108945325
  0
LINE
  8
_0-1__U_30EC_U_30A4_U_30E4_U_30FC_1_U_306E_U_30B3_U_30D4_U_30FC_2
  6
CONTINUOUS
 62
    7
 10
337.36151349881061
 20
130.17600108945325
 11
335.70545609905105
 21
130.34274371093929
  0
LINE
  8
_0-1__U_30EC_U_30A4_U_30E4_U_30FC_1_U_306E_U_30B3_U_30D4_U_30FC_2
  6
CONTINUOUS
 62
    7
 10
335.70545609905105
 20
130.34274371093929
 11
334.05628889026195
 21
130.5994033245905
  0
LINE
  8
_0-1__U_30EC_U_30A4_U_30E4_U_30FC_1_U_306E_U_30B3_U_30D4_U_30FC_2
  6
CONTINUOUS
 62
    7
 10
334.05628889026195
 20
130.5994033245905
 11
332.4243471588992
 21
130.952870121377
  0
LINE
  8
_0-1__U_30EC_U_30A4_U_30E4_U_30FC_1_U_306E_U_30B3_U_30D4_U_30FC_2
  6
CONTINUOUS
 62
    7
 10
332.4243471588992
 20
130.952870121377
 11
330.81617658638436
 21
131.39384234348901
  0
LINE
  8
_0-1__U_30EC_U_30A4_U_30E4_U_30FC_1_U_306E_U_30B3_U_30D4_U_30FC_2
  6
CONTINUOUS
 62
    7
 10
330.81617658638436
 20
131.39384234348901
 11
329.23797834459151
 21
131.92783214370272
  0
LINE
  8
_0-1__U_30EC_U_30A4_U_30E4_U_30FC_1_U_306E_U_30B3_U_30D4_U_30FC_2
  6
CONTINUOUS
 62
    7
 10
329.23797834459151
 20
131.92783214370272
 11
327.69009694306874
 21
132.55001638833878
  0
LINE
  8
_0-1__U_30EC_U_30A4_U_30E4_U_30FC_1_U_306E_U_30B3_U_30D4_U_30FC_2
  6
CONTINUOUS
 62
    7
 10
327.69009694306874
 20
132.55001638833878
 11
326.17873355368977
 21
133.25832802010618
  0
LINE
  8
_0-1__U_30EC_U_30A4_U_30E4_U_30FC_1_U_306E_U_30B3_U_30D4_U_30FC_2
  6
CONTINUOUS
 62
    7
 10
326.17873355368977
 20
133.25832802010618
 11
324.71318993426451
 21
134.0517335103593
  0
LINE
  8
_0-1__U_30EC_U_30A4_U_30E4_U_30FC_1_U_306E_U_30B3_U_30D4_U_30FC_2
  6
CONTINUOUS
 62
    7
 10
324.71318993426451
 20
134.0517335103593
 11
323.29449961343846
 21
134.9264432540642
  0
LINE
  8
_0-1__U_30EC_U_30A4_U_30E4_U_30FC_1_U_306E_U_30B3_U_30D4_U_30FC_2
  6
CONTINUOUS
 62
    7
 10
323.29449961343846
 20
134.9264432540642
 11
321.9264521962458
 21
135.87728960799311
  0
LINE
  8
_0-1__U_30EC_U_30A4_U_30E4_U_30FC_1_U_306E_U_30B3_U_30D4_U_30FC_2
  6
CONTINUOUS
 62
    7
 10
321.9264521962458
 20
135.87728960799311
 11
320.61042572088036
 21
136.90875119627694
  0
LINE
  8
_0-1__U_30EC_U_30A4_U_30E4_U_30FC_1_U_306E_U_30B3_U_30D4_U_30FC_2
  6
CONTINUOUS
 62
    7
 10
320.61042572088036
 20
136.90875119627694
 11
319.35813351199204
 21
138.0084256751687
  0
LINE
  8
_0-1__U_30EC_U_30A4_U_30E4_U_30FC_1_U_306E_U_30B3_U_30D4_U_30FC_2
  6
CONTINUOUS
 62
    7
 10
319.35813351199204
 20
138.0084256751687
 11
318.17233164596905
 21
139.17941363060513
  0
LINE
  8
_0-1__U_30EC_U_30A4_U_30E4_U_30FC_1_U_306E_U_30B3_U_30D4_U_30FC_2
  6
CONTINUOUS
 62
    7
 10
318.17233164596905
 20
139.17941363060513
 11
317.05336463235994
 21
140.41585840026127
  0
LINE
  8
_0-1__U_30EC_U_30A4_U_30E4_U_30FC_1_U_306E_U_30B3_U_30D4_U_30FC_2
  6
CONTINUOUS
 62
    7
 10
317.05336463235994
 20
140.41585840026127
 11
316.00708913348956
 21
141.71052528361824
  0
LINE
  8
_0-1__U_30EC_U_30A4_U_30E4_U_30FC_1_U_306E_U_30B3_U_30D4_U_30FC_2
  6
CONTINUOUS
 62
    7
 10
316.00708913348956
 20
141.71052528361824
 11
315.03419416845497
 21
143.06548133796693
  0
LINE
  8
_0-1__U_30EC_U_30A4_U_30E4_U_30FC_1_U_306E_U_30B3_U_30D4_U_30FC_2
  6
CONTINUOUS
 62
    7
 10
315.03419416845497
 20
143.06548133796693
 11
314.13812483274148
 21
144.47349186278856
  0
LINE
  8
_0-1__U_30EC_U_30A4_U_30E4_U_30FC_1_U_306E_U_30B3_U_30D4_U_30FC_2
  6
CONTINUOUS
 62
    7
 10
314.13812483274148
 20
144.47349186278856
 11
313.32577131731955
 21
145.93042274350077
  0
LINE
  8
_0-1__U_30EC_U_30A4_U_30E4_U_30FC_1_U_306E_U_30B3_U_30D4_U_30FC_2
  6
CONTINUOUS
 62
    7
 10
313.32577131731955
 20
145.93042274350077
 11
312.59575558399513
 21
147.42869477003578
  0
LINE
  8
_0-1__U_30EC_U_30A4_U_30E4_U_30FC_1_U_306E_U_30B3_U_30D4_U_30FC_2
  6
CONTINUOUS
 62
    7
 10
312.59575558399513
 20
147.42869477003578
 11
311.95462331419014
 21
148.96624088510279
  0
LINE
  8
_0-1__U_30EC_U_30A4_U_30E4_U_30FC_1_U_306E_U_30B3_U_30D4_U_30FC_2
  6
CONTINUOUS
 62
    7
 10
311.95462331419014
 20
148.96624088510279
 11
311.39720686467672
 21
150.54133854095912
  0
LINE
  8
_0-1__U_30EC_U_30A4_U_30E4_U_30FC_1_U_306E_U_30B3_U_30D4_U_30FC_2
  6
CONTINUOUS
 62
    7
 10
311.39720686467672
 20
150.54133854095912
 11
310.93005191687678
 21
152.14330794160023
  0
LINE
  8
_0-1__U_30EC_U_30A4_U_30E4_U_30FC_1_U_306E_U_30B3_U_30D4_U_30FC_2
  6
CONTINUOUS
 62
    7
 10
310.93005191687678
 20
152.14330794160023
 11
310.55935964266394
 21
153.76491438650746
  0
LINE
  8
_0-1__U_30EC_U_30A4_U_30E4_U_30FC_1_U_306E_U_30B3_U_30D4_U_30FC_2
  6
CONTINUOUS
 62
    7
 10
310.55935964266394
 20
153.76491438650746
 11
310.27479475558232
 21
155.41098100935969
  0
LINE
  8
_0-1__U_30EC_U_30A4_U_30E4_U_30FC_1_U_306E_U_30B3_U_30D4_U_30FC_2
  6
CONTINUOUS
 62
    7
 10
310.27479475558232
 20
155.41098100935969
 11
310.08738156118477
 21
157.06841644731341
  0
LINE
  8
_0-1__U_30EC_U_30A4_U_30E4_U_30FC_1_U_306E_U_30B3_U_30D4_U_30FC_2
  6
CONTINUOUS
 62
    7
 10
310.08738156118477
 20
157.06841644731341
 11
309.99091888759779
 21
158.73188080236636
  0
LINE
  8
_0-1__U_30EC_U_30A4_U_30E4_U_30FC_1_U_306E_U_30B3_U_30D4_U_30FC_2
  6
CONTINUOUS
 62
    7
 10
309.99091888759779
 20
158.73188080236636
 11
309.99091888759779
 21
160.39982378155
  0
LINE
  8
_0-1__U_30EC_U_30A4_U_30E4_U_30FC_1_U_306E_U_30B3_U_30D4_U_30FC_2
  6
CONTINUOUS
 62
    7
 10
309.99091888759779
 20
160.39982378155
 11
310.08738156118477
 21
162.06208235318294
  0
LINE
  8
_0-1__U_30EC_U_30A4_U_30E4_U_30FC_1_U_306E_U_30B3_U_30D4_U_30FC_2
  6
CONTINUOUS
 62
    7
 10
310.08738156118477
 20
162.06208235318294
 11
310.27479475558232
 21
163.72089582933083
  0
LINE
  8
_0-1__U_30EC_U_30A4_U_30E4_U_30FC_1_U_306E_U_30B3_U_30D4_U_30FC_2
  6
CONTINUOUS
 62
    7
 10
310.27479475558232
 20
163.72089582933083
 11
310.55935964266394
 21
165.36145029940675
  0
LINE
  8
_0-1__U_30EC_U_30A4_U_30E4_U_30FC_1_U_306E_U_30B3_U_30D4_U_30FC_2
  6
CONTINUOUS
 62
    7
 10
310.55935964266394
 20
165.36145029940675
 11
310.93005191687678
 21
166.98667409457343
  0
LINE
  8
_0-1__U_30EC_U_30A4_U_30E4_U_30FC_1_U_306E_U_30B3_U_30D4_U_30FC_2
  6
CONTINUOUS
 62
    7
 10
310.93005191687678
 20
166.98667409457343
 11
311.39720686467672
 21
168.58726545702049
  0
LINE
  8
_0-1__U_30EC_U_30A4_U_30E4_U_30FC_1_U_306E_U_30B3_U_30D4_U_30FC_2
  6
CONTINUOUS
 62
    7
 10
311.39720686467672
 20
168.58726545702049
 11
311.95462331419014
 21
170.16287987719952
  0
LINE
  8
_0-1__U_30EC_U_30A4_U_30E4_U_30FC_1_U_306E_U_30B3_U_30D4_U_30FC_2
  6
CONTINUOUS
 62
    7
 10
311.95462331419014
 20
170.16287987719952
 11
312.59575558399513
 21
171.70077050181507
  0
LINE
  8
_0-1__U_30EC_U_30A4_U_30E4_U_30FC_1_U_306E_U_30B3_U_30D4_U_30FC_2
  6
CONTINUOUS
 62
    7
 10
312.59575558399513
 20
171.70077050181507
 11
313.32577131731955
 21
173.20214311428694
  0
LINE
  8
_0-1__U_30EC_U_30A4_U_30E4_U_30FC_1_U_306E_U_30B3_U_30D4_U_30FC_2
  6
CONTINUOUS
 62
    7
 10
313.32577131731955
 20
173.20214311428694
 11
314.13812483274148
 21
174.65700693770791
  0
LINE
  8
_0-1__U_30EC_U_30A4_U_30E4_U_30FC_1_U_306E_U_30B3_U_30D4_U_30FC_2
  6
CONTINUOUS
 62
    7
 10
314.13812483274148
 20
174.65700693770791
 11
315.03419416845497
 21
176.06415618865819
  0
LINE
  8
_0-1__U_30EC_U_30A4_U_30E4_U_30FC_1_U_306E_U_30B3_U_30D4_U_30FC_2
  6
CONTINUOUS
 62
    7
 10
315.03419416845497
 20
176.06415618865819
 11
316.00708913348956
 21
177.41773420481294
  0
LINE
  8
_0-1__U_30EC_U_30A4_U_30E4_U_30FC_1_U_306E_U_30B3_U_30D4_U_30FC_2
  6
CONTINUOUS
 62
    7
 10
316.00708913348956
 20
177.41773420481294
 11
317.05336463235994
 21
178.71429589068666
  0
LINE
  8
_0-1__U_30EC_U_30A4_U_30E4_U_30FC_1_U_306E_U_30B3_U_30D4_U_30FC_2
  6
CONTINUOUS
 62
    7
 10
317.05336463235994
 20
178.71429589068666
 11
318.17233164596905
 21
179.95091291511707
  0
LINE
  8
_0-1__U_30EC_U_30A4_U_30E4_U_30FC_1_U_306E_U_30B3_U_30D4_U_30FC_2
  6
CONTINUOUS
 62
    7
 10
318.17233164596905
 20
179.95091291511707
 11
319.35813351199204
 21
181.12052283235934
  0
LINE
  8
_0-1__U_30EC_U_30A4_U_30E4_U_30FC_1_U_306E_U_30B3_U_30D4_U_30FC_2
  6
CONTINUOUS
 62
    7
 10
319.35813351199204
 20
181.12052283235934
 11
320.61042572088036
 21
182.22450368060774
  0
LINE
  8
_0-1__U_30EC_U_30A4_U_30E4_U_30FC_1_U_306E_U_30B3_U_30D4_U_30FC_2
  6
CONTINUOUS
 62
    7
 10
320.61042572088036
 20
182.22450368060774
 11
321.9264521962458
 21
183.25303693772921
  0
LINE
  8
_0-1__U_30EC_U_30A4_U_30E4_U_30FC_1_U_306E_U_30B3_U_30D4_U_30FC_2
  6
CONTINUOUS
 62
    7
 10
321.9264521962458
 20
183.25303693772921
 11
323.29449961343846
 21
184.20422780120654
  0
LINE
  8
_0-1__U_30EC_U_30A4_U_30E4_U_30FC_1_U_306E_U_30B3_U_30D4_U_30FC_2
  6
CONTINUOUS
 62
    7
 10
323.29449961343846
 20
184.20422780120654
 11
324.71318993426451
 21
185.07876529013717
  0
LINE
  8
_0-1__U_30EC_U_30A4_U_30E4_U_30FC_1_U_306E_U_30B3_U_30D4_U_30FC_2
  6
CONTINUOUS
 62
    7
 10
324.71318993426451
 20
185.07876529013717
 11
326.17873355368977
 21
185.87268754471299
  0
LINE
  8
_0-1__U_30EC_U_30A4_U_30E4_U_30FC_1_U_306E_U_30B3_U_30D4_U_30FC_2
  6
CONTINUOUS
 62
    7
 10
326.17873355368977
 20
185.87268754471299
 11
327.69009694306874
 21
186.58203270512601
  0
LINE
  8
_0-1__U_30EC_U_30A4_U_30E4_U_30FC_1_U_306E_U_30B3_U_30D4_U_30FC_2
  6
CONTINUOUS
 62
    7
 10
327.69009694306874
 20
186.58203270512601
 11
329.23797834459151
 21
187.20025508995408
  0
LINE
  8
_0-1__U_30EC_U_30A4_U_30E4_U_30FC_1_U_306E_U_30B3_U_30D4_U_30FC_2
  6
CONTINUOUS
 62
    7
 10
329.23797834459151
 20
187.20025508995408
 11
330.81617658638436
 21
187.73493390926487
  0
LINE
  8
_0-1__U_30EC_U_30A4_U_30E4_U_30FC_1_U_306E_U_30B3_U_30D4_U_30FC_2
  6
CONTINUOUS
 62
    7
 10
330.81617658638436
 20
187.73493390926487
 11
332.4243471588992
 21
188.17780093389374
  0
LINE
  8
_0-1__U_30EC_U_30A4_U_30E4_U_30FC_1_U_306E_U_30B3_U_30D4_U_30FC_2
  6
CONTINUOUS
 62
    7
 10
332.4243471588992
 20
188.17780093389374
 11
334.05628889026195
 21
188.52971743771204
  0
LINE
  8
_0-1__U_30EC_U_30A4_U_30E4_U_30FC_1_U_306E_U_30B3_U_30D4_U_30FC_2
  6
CONTINUOUS
 62
    7
 10
334.05628889026195
 20
188.52971743771204
 11
335.70545609905105
 21
188.78896087297707
  0
LINE
  8
_0-1__U_30EC_U_30A4_U_30E4_U_30FC_1_U_306E_U_30B3_U_30D4_U_30FC_2
  6
CONTINUOUS
 62
    7
 10
335.70545609905105
 20
188.78896087297707
 11
337.36151349881061
 21
188.95398094672052
  0
LINE
  8
_0-1__U_30EC_U_30A4_U_30E4_U_30FC_1_U_306E_U_30B3_U_30D4_U_30FC_2
  6
CONTINUOUS
 62
    7
 10
337.36151349881061
 20
188.95398094672052
 11
339.02893971367155
 21
189.02460540416811
  0
LINE
  8
_0-1__U_30EC_U_30A4_U_30E4_U_30FC_1_U_306E_U_30B3_U_30D4_U_30FC_2
  6
CONTINUOUS
 62
    7
 10
339.02893971367155
 20
189.02460540416811
 11
340.69533239988687
 21
189.00100650009412
  0
LINE
  8
_0-1__U_30EC_U_30A4_U_30E4_U_30FC_1_U_306E_U_30B3_U_30D4_U_30FC_2
  6
CONTINUOUS
 62
    7
 10
340.69533239988687
 20
189.00100650009412
 11
342.35965802881105
 21
188.88421776314416
  0
LINE
  8
_0-1__U_30EC_U_30A4_U_30E4_U_30FC_1_U_306E_U_30B3_U_30D4_U_30FC_2
  6
CONTINUOUS
 62
    7
 10
342.35965802881105
 20
188.88421776314416
 11
344.01502640947365
 21
188.67199988125284
  0
LINE
  8
_0-1__U_30EC_U_30A4_U_30E4_U_30FC_1_U_306E_U_30B3_U_30D4_U_30FC_2
  6
CONTINUOUS
 62
    7
 10
344.01502640947365
 20
188.67199988125284
 11
345.65523637000115
 21
188.36641991171118
  0
LINE
  8
_0-1__U_30EC_U_30A4_U_30E4_U_30FC_1_U_306E_U_30B3_U_30D4_U_30FC_2
  6
CONTINUOUS
 62
    7
 10
345.65523637000115
 20
188.36641991171118
 11
347.2720196812287
 21
187.96851138316478
  0
LINE
  8
_0-1__U_30EC_U_30A4_U_30E4_U_30FC_1_U_306E_U_30B3_U_30D4_U_30FC_2
  6
CONTINUOUS
 62
    7
 10
347.2720196812287
 20
187.96851138316478
 11
348.86709889089957
 21
187.47861880516231
  0
LINE
  8
_0-1__U_30EC_U_30A4_U_30E4_U_30FC_1_U_306E_U_30B3_U_30D4_U_30FC_2
  6
CONTINUOUS
 62
    7
 10
348.86709889089957
 20
187.47861880516231
 11
350.43392831759115
 21
186.90414913299682
  0
LINE
  8
_0-1__U_30EC_U_30A4_U_30E4_U_30FC_1_U_306E_U_30B3_U_30D4_U_30FC_2
  6
CONTINUOUS
 62
    7
 10
350.43392831759115
 20
186.90414913299682
 11
351.9611391462023
 21
186.23666188272975
  0
LINE
  8
_0-1__U_30EC_U_30A4_U_30E4_U_30FC_1_U_306E_U_30B3_U_30D4_U_30FC_2
  6
CONTINUOUS
 62
    7
 10
351.9611391462023
 20
186.23666188272975
 11
353.45148745312144
 21
185.48683685036517
  0
LINE
  8
_0-1__U_30EC_U_30A4_U_30E4_U_30FC_1_U_306E_U_30B3_U_30D4_U_30FC_2
  6
CONTINUOUS
 62
    7
 10
353.45148745312144
 20
185.48683685036517
 11
354.89877206647486
 21
184.65140119519205
  0
LINE
  8
_0-1__U_30EC_U_30A4_U_30E4_U_30FC_1_U_306E_U_30B3_U_30D4_U_30FC_2
  6
CONTINUOUS
 62
    7
 10
354.89877206647486
 20
184.65140119519205
 11
356.28817907567611
 21
183.73827863682649
  0
LINE
  8
_0-1__U_30EC_U_30A4_U_30E4_U_30FC_1_U_306E_U_30B3_U_30D4_U_30FC_2
  6
CONTINUOUS
 62
    7
 10
356.28817907567611
 20
183.73827863682649
 11
357.63176631492365
 21
182.74781368481726
  0
LINE
  8
_0-1__U_30EC_U_30A4_U_30E4_U_30FC_1_U_306E_U_30B3_U_30D4_U_30FC_2
  6
CONTINUOUS
 62
    7
 10
357.63176631492365
 20
182.74781368481726
 11
358.91161928769395
 21
181.68017859393828
  0
LINE
  8
_0-1__U_30EC_U_30A4_U_30E4_U_30FC_1_U_306E_U_30B3_U_30D4_U_30FC_2
  6
CONTINUOUS
 62
    7
 10
358.91161928769395
 20
181.68017859393828
 11
360.13325014676354
 21
180.54553639587115
  0
LINE
  8
_0-1__U_30EC_U_30A4_U_30E4_U_30FC_1_U_306E_U_30B3_U_30D4_U_30FC_2
  6
CONTINUOUS
 62
    7
 10
360.13325014676354
 20
180.54553639587115
 11
361.28529007703105
 21
179.33923621171093
  0
LINE
  8
_0-1__U_30EC_U_30A4_U_30E4_U_30FC_1_U_306E_U_30B3_U_30D4_U_30FC_2
  6
CONTINUOUS
 62
    7
 10
361.28529007703105
 20
179.33923621171093
 11
362.37221770262738
 21
178.07419714952729
  0
LINE
  8
_0-1__U_30EC_U_30A4_U_30E4_U_30FC_1_U_306E_U_30B3_U_30D4_U_30FC_2
  6
CONTINUOUS
 62
    7
 10
362.37221770262738
 20
178.07419714952729
 11
363.37990813206295
 21
176.74800764248025
  0
LINE
  8
_0-1__U_30EC_U_30A4_U_30E4_U_30FC_1_U_306E_U_30B3_U_30D4_U_30FC_2
  6
CONTINUOUS
 62
    7
 10
363.37990813206295
 20
176.74800764248025
 11
364.31490704675969
 21
175.36790239108925
  0
LINE
  8
_0-1__U_30EC_U_30A4_U_30E4_U_30FC_1_U_306E_U_30B3_U_30D4_U_30FC_2
  6
CONTINUOUS
 62
    7
 10
364.31490704675969
 20
175.36790239108925
 11
365.16929072710172
 21
173.93129757374012
  0
LINE
  8
_0-1__U_30EC_U_30A4_U_30E4_U_30FC_1_U_306E_U_30B3_U_30D4_U_30FC_2
  6
CONTINUOUS
 62
    7
 10
365.16929072710172
 20
173.93129757374012
 11
365.94099211579771
 21
172.4536961201164
  0
LINE
  8
_0-1__U_30EC_U_30A4_U_30E4_U_30FC_1_U_306E_U_30B3_U_30D4_U_30FC_2
  6
CONTINUOUS
 62
    7
 10
365.94099211579771
 20
172.4536961201164
 11
366.62932219375068
 21
170.93837087092933
  0
LINE
  8
_0-1__U_30EC_U_30A4_U_30E4_U_30FC_1_U_306E_U_30B3_U_30D4_U_30FC_2
  6
CONTINUOUS
 62
    7
 10
366.62932219375068
 20
170.93837087092933
 11
367.22911331773264
 21
169.3806709472735
  0
LINE
  8
_0-1__U_30EC_U_30A4_U_30E4_U_30FC_1_U_306E_U_30B3_U_30D4_U_30FC_2
  6
CONTINUOUS
 62
    7
 10
367.22911331773264
 20
169.3806709472735
 11
367.74070999729224
 21
167.79282643812198
  0
LINE
  8
_0-1__U_30EC_U_30A4_U_30E4_U_30FC_1_U_306E_U_30B3_U_30D4_U_30FC_2
  6
CONTINUOUS
 62
    7
 10
367.74070999729224
 20
167.79282643812198
 11
368.15963360829869
 21
166.17897145805668
  0
LINE
  8
_0-1__U_30EC_U_30A4_U_30E4_U_30FC_1_U_306E_U_30B3_U_30D4_U_30FC_2
  6
CONTINUOUS
 62
    7
 10
368.15963360829869
 20
166.17897145805668
 11
368.48932924623705
 21
164.54582394327392
  0
LINE
  8
_0-1__U_30EC_U_30A4_U_30E4_U_30FC_1_U_306E_U_30B3_U_30D4_U_30FC_2
  6
CONTINUOUS
 62
    7
 10
368.48932924623705
 20
164.54582394327392
 11
368.72290672013685
 21
162.89407291287088
  0
LINE
  8
_0-1__U_30EC_U_30A4_U_30E4_U_30FC_1_U_306E_U_30B3_U_30D4_U_30FC_2
  6
CONTINUOUS
 62
    7
 10
368.72290672013685
 20
162.89407291287088
 11
368.8655336732262
 21
161.23302012465771
  0
LINE
  8
_0-1__U_30EC_U_30A4_U_30E4_U_30FC_1_U_306E_U_30B3_U_30D4_U_30FC_2
  6
CONTINUOUS
 62
    7
 10
368.8655336732262
 20
161.23302012465771
 11
368.91100893363171
 21
159.56456038115115
  0
LINE
  8
_0-1__U_30EC_U_30A4_U_30E4_U_30FC_1_U_306E_U_30B3_U_30D4_U_30FC_2
  6
CONTINUOUS
 62
    7
 10
369.95073875108017
 20
159.56335459773126
 11
369.90216290473791
 21
157.86716183556868
  0
LINE
  8
_0-1__U_30EC_U_30A4_U_30E4_U_30FC_1_U_306E_U_30B3_U_30D4_U_30FC_2
  6
CONTINUOUS
 62
    7
 10
369.90216290473791
 20
157.86716183556868
 11
369.76091398984272
 21
156.17958181211893
  0
LINE
  8
_0-1__U_30EC_U_30A4_U_30E4_U_30FC_1_U_306E_U_30B3_U_30D4_U_30FC_2
  6
CONTINUOUS
 62
    7
 10
369.76091398984272
 20
156.17958181211893
 11
369.52699200639415
 21
154.49871972486559
  0
LINE
  8
_0-1__U_30EC_U_30A4_U_30E4_U_30FC_1_U_306E_U_30B3_U_30D4_U_30FC_2
  6
CONTINUOUS
 62
    7
 10
369.52699200639415
 20
154.49871972486559
 11
369.1972963684558
 21
152.83301605774736
  0
LINE
  8
_0-1__U_30EC_U_30A4_U_30E4_U_30FC_1_U_306E_U_30B3_U_30D4_U_30FC_2
  6
CONTINUOUS
 62
    7
 10
369.1972963684558
 20
152.83301605774736
 11
368.77802824790092
 21
151.19108354947716
  0
LINE
  8
_0-1__U_30EC_U_30A4_U_30E4_U_30FC_1_U_306E_U_30B3_U_30D4_U_30FC_2
  6
CONTINUOUS
 62
    7
 10
368.77802824790092
 20
151.19108354947716
 11
368.26643156834132
 21
149.57361121915241
  0
LINE
  8
_0-1__U_30EC_U_30A4_U_30E4_U_30FC_1_U_306E_U_30B3_U_30D4_U_30FC_2
  6
CONTINUOUS
 62
    7
 10
368.26643156834132
 20
149.57361121915241
 11
367.66939652074745
 21
147.98852278638887
  0
LINE
  8
_0-1__U_30EC_U_30A4_U_30E4_U_30FC_1_U_306E_U_30B3_U_30D4_U_30FC_2
  6
CONTINUOUS
 62
    7
 10
367.66939652074745
 20
147.98852278638887
 11
366.97865487595493
 21
146.43891883712362
  0
LINE
  8
_0-1__U_30EC_U_30A4_U_30E4_U_30FC_1_U_306E_U_30B3_U_30D4_U_30FC_2
  6
CONTINUOUS
 62
    7
 10
366.97865487595493
 20
146.43891883712362
 11
366.20867603500164
 21
144.92893348593859
  0
LINE
  8
_0-1__U_30EC_U_30A4_U_30E4_U_30FC_1_U_306E_U_30B3_U_30D4_U_30FC_2
  6
CONTINUOUS
 62
    7
 10
366.20867603500164
 20
144.92893348593859
 11
365.35601490240231
 21
143.46717947154715
  0
LINE
  8
_0-1__U_30EC_U_30A4_U_30E4_U_30FC_1_U_306E_U_30B3_U_30D4_U_30FC_2
  6
CONTINUOUS
 62
    7
 10
365.35601490240231
 20
143.46717947154715
 11
364.41791540176871
 21
142.04814464117257
  0
LINE
  8
_0-1__U_30EC_U_30A4_U_30E4_U_30FC_1_U_306E_U_30B3_U_30D4_U_30FC_2
  6
CONTINUOUS
 62
    7
 10
364.41791540176871
 20
142.04814464117257
 11
363.40609085775088
 21
140.68767643404757
  0
LINE
  8
_0-1__U_30EC_U_30A4_U_30E4_U_30FC_1_U_306E_U_30B3_U_30D4_U_30FC_2
  6
CONTINUOUS
 62
    7
 10
363.40609085775088
 20
140.68767643404757
 11
362.3205412703486
 21
139.38474132152598
  0
LINE
  8
_0-1__U_30EC_U_30A4_U_30E4_U_30FC_1_U_306E_U_30B3_U_30D4_U_30FC_2
  6
CONTINUOUS
 62
    7
 10
362.3205412703486
 20
139.38474132152598
 11
361.16298918730456
 21
138.14588498503016
  0
LINE
  8
_0-1__U_30EC_U_30A4_U_30E4_U_30FC_1_U_306E_U_30B3_U_30D4_U_30FC_2
  6
CONTINUOUS
 62
    7
 10
361.16298918730456
 20
138.14588498503016
 11
359.94032479958958
 21
136.96938487681732
  0
LINE
  8
_0-1__U_30EC_U_30A4_U_30E4_U_30FC_1_U_306E_U_30B3_U_30D4_U_30FC_2
  6
CONTINUOUS
 62
    7
 10
359.94032479958958
 20
136.96938487681732
 11
358.65358163584881
 21
135.86592079289184
  0
LINE
  8
_0-1__U_30EC_U_30A4_U_30E4_U_30FC_1_U_306E_U_30B3_U_30D4_U_30FC_2
  6
CONTINUOUS
 62
    7
 10
358.65358163584881
 20
135.86592079289184
 11
357.30551577247036
 21
134.83445920460801
  0
LINE
  8
_0-1__U_30EC_U_30A4_U_30E4_U_30FC_1_U_306E_U_30B3_U_30D4_U_30FC_2
  6
CONTINUOUS
 62
    7
 10
357.30551577247036
 20
134.83445920460801
 11
355.90577347681335
 21
133.88292383158202
  0
LINE
  8
_0-1__U_30EC_U_30A4_U_30E4_U_30FC_1_U_306E_U_30B3_U_30D4_U_30FC_2
  6
CONTINUOUS
 62
    7
 10
355.90577347681335
 20
133.88292383158202
 11
354.45401023932914
 21
133.00649154013442
  0
LINE
  8
_0-1__U_30EC_U_30A4_U_30E4_U_30FC_1_U_306E_U_30B3_U_30D4_U_30FC_2
  6
CONTINUOUS
 62
    7
 10
354.45401023932914
 20
133.00649154013442
 11
352.95504919369694
 21
132.21343055942995
  0
LINE
  8
_0-1__U_30EC_U_30A4_U_30E4_U_30FC_1_U_306E_U_30B3_U_30D4_U_30FC_2
  6
CONTINUOUS
 62
    7
 10
352.95504919369694
 20
132.21343055942995
 11
351.41095739720799
 21
131.50477441811412
  0
LINE
  8
_0-1__U_30EC_U_30A4_U_30E4_U_30FC_1_U_306E_U_30B3_U_30D4_U_30FC_2
  6
CONTINUOUS
 62
    7
 10
351.41095739720799
 20
131.50477441811412
 11
349.83551523180324
 21
130.88121213528379
  0
LINE
  8
_0-1__U_30EC_U_30A4_U_30E4_U_30FC_1_U_306E_U_30B3_U_30D4_U_30FC_2
  6
CONTINUOUS
 62
    7
 10
349.83551523180324
 20
130.88121213528379
 11
348.2235550542548
 21
130.3499784114583
  0
LINE
  8
_0-1__U_30EC_U_30A4_U_30E4_U_30FC_1_U_306E_U_30B3_U_30D4_U_30FC_2
  6
CONTINUOUS
 62
    7
 10
348.2235550542548
 20
130.3499784114583
 11
346.58437862237304
 21
129.90797266070066
  0
LINE
  8
_0-1__U_30EC_U_30A4_U_30E4_U_30FC_1_U_306E_U_30B3_U_30D4_U_30FC_2
  6
CONTINUOUS
 62
    7
 10
346.58437862237304
 20
129.90797266070066
 11
344.92901024171044
 21
129.55726194030225
  0
LINE
  8
_0-1__U_30EC_U_30A4_U_30E4_U_30FC_1_U_306E_U_30B3_U_30D4_U_30FC_2
  6
CONTINUOUS
 62
    7
 10
344.92901024171044
 20
129.55726194030225
 11
343.25021521174824
 21
129.29750174071452
  0
LINE
  8
_0-1__U_30EC_U_30A4_U_30E4_U_30FC_1_U_306E_U_30B3_U_30D4_U_30FC_2
  6
CONTINUOUS
 62
    7
 10
343.25021521174824
 20
129.29750174071452
 11
341.56142940487871
 21
129.13144813832545
  0
LINE
  8
_0-1__U_30EC_U_30A4_U_30E4_U_30FC_1_U_306E_U_30B3_U_30D4_U_30FC_2
  6
CONTINUOUS
 62
    7
 10
341.56142940487871
 20
129.13144813832545
 11
339.87126555981513
 21
129.06461328591158
  0
LINE
  8
_0-1__U_30EC_U_30A4_U_30E4_U_30FC_1_U_306E_U_30B3_U_30D4_U_30FC_2
  6
CONTINUOUS
 62
    7
 10
339.87126555981513
 20
129.06461328591158
 11
338.17042191874725
 21
129.08562836837163
  0
LINE
  8
_0-1__U_30EC_U_30A4_U_30E4_U_30FC_1_U_306E_U_30B3_U_30D4_U_30FC_2
  6
CONTINUOUS
 62
    7
 10
338.17042191874725
 20
129.08562836837163
 11
336.47956905458659
 21
129.20345063396721
  0
LINE
  8
_0-1__U_30EC_U_30A4_U_30E4_U_30FC_1_U_306E_U_30B3_U_30D4_U_30FC_2
  6
CONTINUOUS
 62
    7
 10
336.47956905458659
 20
129.20345063396721
 11
334.7990514768818
 21
129.41566851585853
  0
LINE
  8
_0-1__U_30EC_U_30A4_U_30E4_U_30FC_1_U_306E_U_30B3_U_30D4_U_30FC_2
  6
CONTINUOUS
 62
    7
 10
334.7990514768818
 20
129.41566851585853
 11
333.13059173337535
 21
129.71952593765761
  0
LINE
  8
_0-1__U_30EC_U_30A4_U_30E4_U_30FC_1_U_306E_U_30B3_U_30D4_U_30FC_2
  6
CONTINUOUS
 62
    7
 10
333.13059173337535
 20
129.71952593765761
 11
331.48039099594064
 21
130.11915701394648
  0
LINE
  8
_0-1__U_30EC_U_30A4_U_30E4_U_30FC_1_U_306E_U_30B3_U_30D4_U_30FC_2
  6
CONTINUOUS
 62
    7
 10
331.48039099594064
 20
130.11915701394648
 11
329.85637298419385
 21
130.60457096781815
  0
LINE
  8
_0-1__U_30EC_U_30A4_U_30E4_U_30FC_1_U_306E_U_30B3_U_30D4_U_30FC_2
  6
CONTINUOUS
 62
    7
 10
329.85637298419385
 20
130.60457096781815
 11
328.2647388700085
 21
131.18196897114612
  0
LINE
  8
_0-1__U_30EC_U_30A4_U_30E4_U_30FC_1_U_306E_U_30B3_U_30D4_U_30FC_2
  6
CONTINUOUS
 62
    7
 10
328.2647388700085
 20
131.18196897114612
 11
326.70342159609322
 21
131.84962847618758
  0
LINE
  8
_0-1__U_30EC_U_30A4_U_30E4_U_30FC_1_U_306E_U_30B3_U_30D4_U_30FC_2
  6
CONTINUOUS
 62
    7
 10
326.70342159609322
 20
131.84962847618758
 11
325.18137841070984
 21
132.59893674422946
  0
LINE
  8
_0-1__U_30EC_U_30A4_U_30E4_U_30FC_1_U_306E_U_30B3_U_30D4_U_30FC_2
  6
CONTINUOUS
 62
    7
 10
325.18137841070984
 20
132.59893674422946
 11
323.70584401437725
 21
133.43368338030538
  0
LINE
  8
_0-1__U_30EC_U_30A4_U_30E4_U_30FC_1_U_306E_U_30B3_U_30D4_U_30FC_2
  6
CONTINUOUS
 62
    7
 10
323.70584401437725
 20
133.43368338030538
 11
322.27681840709556
 21
134.34835623163926
  0
LINE
  8
_0-1__U_30EC_U_30A4_U_30E4_U_30FC_1_U_306E_U_30B3_U_30D4_U_30FC_2
  6
CONTINUOUS
 62
    7
 10
322.27681840709556
 20
134.34835623163926
 11
320.90291432757806
 21
135.34088824093973
  0
LINE
  8
_0-1__U_30EC_U_30A4_U_30E4_U_30FC_1_U_306E_U_30B3_U_30D4_U_30FC_2
  6
CONTINUOUS
 62
    7
 10
320.90291432757806
 20
135.34088824093973
 11
319.58447628537294
 21
136.40748980317309
  0
LINE
  8
_0-1__U_30EC_U_30A4_U_30E4_U_30FC_1_U_306E_U_30B3_U_30D4_U_30FC_2
  6
CONTINUOUS
 62
    7
 10
319.58447628537294
 20
136.40748980317309
 11
318.32770545235383
 21
137.55022797563046
  0
LINE
  8
_0-1__U_30EC_U_30A4_U_30E4_U_30FC_1_U_306E_U_30B3_U_30D4_U_30FC_2
  6
CONTINUOUS
 62
    7
 10
318.32770545235383
 20
137.55022797563046
 11
317.14121456723376
 21
138.75601139546788
  0
LINE
  8
_0-1__U_30EC_U_30A4_U_30E4_U_30FC_1_U_306E_U_30B3_U_30D4_U_30FC_2
  6
CONTINUOUS
 62
    7
 10
317.14121456723376
 20
138.75601139546788
 11
316.01604638175115
 21
140.03104123455896
  0
LINE
  8
_0-1__U_30EC_U_30A4_U_30E4_U_30FC_1_U_306E_U_30B3_U_30D4_U_30FC_2
  6
CONTINUOUS
 62
    7
 10
316.01604638175115
 20
140.03104123455896
 11
314.9673593160411
 21
141.36119260141376
  0
LINE
  8
_0-1__U_30EC_U_30A4_U_30E4_U_30FC_1_U_306E_U_30B3_U_30D4_U_30FC_2
  6
CONTINUOUS
 62
    7
 10
314.9673593160411
 20
141.36119260141376
 11
313.99584238920067
 21
142.74646549603287
  0
LINE
  8
_0-1__U_30EC_U_30A4_U_30E4_U_30FC_1_U_306E_U_30B3_U_30D4_U_30FC_2
  6
CONTINUOUS
 62
    7
 10
313.99584238920067
 20
142.74646549603287
 11
313.09805050574448
 21
144.18996050435257
  0
LINE
  8
_0-1__U_30EC_U_30A4_U_30E4_U_30FC_1_U_306E_U_30B3_U_30D4_U_30FC_2
  6
CONTINUOUS
 62
    7
 10
313.09805050574448
 20
144.18996050435257
 11
312.28397444257996
 21
145.68134233991711
  0
LINE
  8
_0-1__U_30EC_U_30A4_U_30E4_U_30FC_1_U_306E_U_30B3_U_30D4_U_30FC_2
  6
CONTINUOUS
 62
    7
 10
312.28397444257996
 20
145.68134233991711
 11
311.55395870925554
 21
147.21027571627096
  0
LINE
  8
_0-1__U_30EC_U_30A4_U_30E4_U_30FC_1_U_306E_U_30B3_U_30D4_U_30FC_2
  6
CONTINUOUS
 62
    7
 10
311.55395870925554
 20
147.21027571627096
 11
310.91007036306235
 21
148.77676063341411
  0
LINE
  8
_0-1__U_30EC_U_30A4_U_30E4_U_30FC_1_U_306E_U_30B3_U_30D4_U_30FC_2
  6
CONTINUOUS
 62
    7
 10
310.91007036306235
 20
148.77676063341411
 11
310.35988861406804
 21
150.37873003405534
  0
LINE
  8
_0-1__U_30EC_U_30A4_U_30E4_U_30FC_1_U_306E_U_30B3_U_30D4_U_30FC_2
  6
CONTINUOUS
 62
    7
 10
310.35988861406804
 20
150.37873003405534
 11
309.8882550421373
 21
152.01204980361226
  0
LINE
  8
_0-1__U_30EC_U_30A4_U_30E4_U_30FC_1_U_306E_U_30B3_U_30D4_U_30FC_2
  6
CONTINUOUS
 62
    7
 10
309.8882550421373
 20
152.01204980361226
 11
309.5144621819876
 21
153.66672916517777
  0
LINE
  8
_0-1__U_30EC_U_30A4_U_30E4_U_30FC_1_U_306E_U_30B3_U_30D4_U_30FC_2
  6
CONTINUOUS
 62
    7
 10
309.5144621819876
 20
153.66672916517777
 11
309.23437591903678
 21
155.33656694687838
  0
LINE
  8
_0-1__U_30EC_U_30A4_U_30E4_U_30FC_1_U_306E_U_30B3_U_30D4_U_30FC_2
  6
CONTINUOUS
 62
    7
 10
309.23437591903678
 20
155.33656694687838
 11
309.0455846864453
 21
157.02242442258532
  0
LINE
  8
_0-1__U_30EC_U_30A4_U_30E4_U_30FC_1_U_306E_U_30B3_U_30D4_U_30FC_2
  6
CONTINUOUS
 62
    7
 10
309.0455846864453
 20
157.02242442258532
 11
308.95084456060079
 21
158.71723914655396
  0
LINE
  8
_0-1__U_30EC_U_30A4_U_30E4_U_30FC_1_U_306E_U_30B3_U_30D4_U_30FC_2
  6
CONTINUOUS
 62
    7
 10
308.95084456060079
 20
158.71723914655396
 11
308.95084456060079
 21
160.4115371061998
  0
LINE
  8
_0-1__U_30EC_U_30A4_U_30E4_U_30FC_1_U_306E_U_30B3_U_30D4_U_30FC_2
  6
CONTINUOUS
 62
    7
 10
308.95084456060079
 20
160.4115371061998
 11
309.0455846864453
 21
162.10566281107148
  0
LINE
  8
_0-1__U_30EC_U_30A4_U_30E4_U_30FC_1_U_306E_U_30B3_U_30D4_U_30FC_2
  6
CONTINUOUS
 62
    7
 10
309.0455846864453
 20
162.10566281107148
 11
309.23437591903678
 21
163.79186479632708
  0
LINE
  8
_0-1__U_30EC_U_30A4_U_30E4_U_30FC_1_U_306E_U_30B3_U_30D4_U_30FC_2
  6
CONTINUOUS
 62
    7
 10
309.23437591903678
 20
163.79186479632708
 11
309.5144621819876
 21
165.46428639964151
  0
LINE
  8
_0-1__U_30EC_U_30A4_U_30E4_U_30FC_1_U_306E_U_30B3_U_30D4_U_30FC_2
  6
CONTINUOUS
 62
    7
 10
309.5144621819876
 20
165.46428639964151
 11
309.8882550421373
 21
167.11827674211006
  0
LINE
  8
_0-1__U_30EC_U_30A4_U_30E4_U_30FC_1_U_306E_U_30B3_U_30D4_U_30FC_2
  6
CONTINUOUS
 62
    7
 10
309.8882550421373
 20
167.11827674211006
 11
310.35988861406804
 21
168.74539533979348
  0
LINE
  8
_0-1__U_30EC_U_30A4_U_30E4_U_30FC_1_U_306E_U_30B3_U_30D4_U_30FC_2
  6
CONTINUOUS
 62
    7
 10
310.35988861406804
 20
168.74539533979348
 11
310.91007036306235
 21
170.35201561933977
  0
LINE
  8
_0-1__U_30EC_U_30A4_U_30E4_U_30FC_1_U_306E_U_30B3_U_30D4_U_30FC_2
  6
CONTINUOUS
 62
    7
 10
310.91007036306235
 20
170.35201561933977
 11
311.55395870925554
 21
171.92039533899978
  0
LINE
  8
_0-1__U_30EC_U_30A4_U_30E4_U_30FC_1_U_306E_U_30B3_U_30D4_U_30FC_2
  6
CONTINUOUS
 62
    7
 10
311.55395870925554
 20
171.92039533899978
 11
312.28397444257996
 21
173.44812293193385
  0
LINE
  8
_0-1__U_30EC_U_30A4_U_30E4_U_30FC_1_U_306E_U_30B3_U_30D4_U_30FC_2
  6
CONTINUOUS
 62
    7
 10
312.28397444257996
 20
173.44812293193385
 11
313.09805050574448
 21
174.93743771020726
  0
LINE
  8
_0-1__U_30EC_U_30A4_U_30E4_U_30FC_1_U_306E_U_30B3_U_30D4_U_30FC_2
  6
CONTINUOUS
 62
    7
 10
313.09805050574448
 20
174.93743771020726
 11
313.99584238920067
 21
176.37800438736448
  0
LINE
  8
_0-1__U_30EC_U_30A4_U_30E4_U_30FC_1_U_306E_U_30B3_U_30D4_U_30FC_2
  6
CONTINUOUS
 62
    7
 10
313.99584238920067
 20
176.37800438736448
 11
314.9673593160411
 21
177.76723914179146
  0
LINE
  8
_0-1__U_30EC_U_30A4_U_30E4_U_30FC_1_U_306E_U_30B3_U_30D4_U_30FC_2
  6
CONTINUOUS
 62
    7
 10
314.9673593160411
 20
177.76723914179146
 11
316.01604638175115
 21
179.09842403729201
  0
LINE
  8
_0-1__U_30EC_U_30A4_U_30E4_U_30FC_1_U_306E_U_30B3_U_30D4_U_30FC_2
  6
CONTINUOUS
 62
    7
 10
316.01604638175115
 20
179.09842403729201
 11
317.14121456723376
 21
180.37242034773735
  0
LINE
  8
_0-1__U_30EC_U_30A4_U_30E4_U_30FC_1_U_306E_U_30B3_U_30D4_U_30FC_2
  6
CONTINUOUS
 62
    7
 10
317.14121456723376
 20
180.37242034773735
 11
318.32770545235383
 21
181.57854827712342
  0
LINE
  8
_0-1__U_30EC_U_30A4_U_30E4_U_30FC_1_U_306E_U_30B3_U_30D4_U_30FC_2
  6
CONTINUOUS
 62
    7
 10
318.32770545235383
 20
181.57854827712342
 11
319.58447628537294
 21
182.71715233499842
  0
LINE
  8
_0-1__U_30EC_U_30A4_U_30E4_U_30FC_1_U_306E_U_30B3_U_30D4_U_30FC_2
  6
CONTINUOUS
 62
    7
 10
319.58447628537294
 20
182.71715233499842
 11
320.90291432757806
 21
183.78530419020021
  0
LINE
  8
_0-1__U_30EC_U_30A4_U_30E4_U_30FC_1_U_306E_U_30B3_U_30D4_U_30FC_2
  6
CONTINUOUS
 62
    7
 10
320.90291432757806
 20
183.78530419020021
 11
322.27681840709556
 21
184.78093678543743
  0
LINE
  8
_0-1__U_30EC_U_30A4_U_30E4_U_30FC_1_U_306E_U_30B3_U_30D4_U_30FC_2
  6
CONTINUOUS
 62
    7
 10
322.27681840709556
 20
184.78093678543743
 11
323.70584401437725
 21
185.69405934380288
  0
LINE
  8
_0-1__U_30EC_U_30A4_U_30E4_U_30FC_1_U_306E_U_30B3_U_30D4_U_30FC_2
  6
CONTINUOUS
 62
    7
 10
323.70584401437725
 20
185.69405934380288
 11
325.18137841070984
 21
186.52949499897599
  0
LINE
  8
_0-1__U_30EC_U_30A4_U_30E4_U_30FC_1_U_306E_U_30B3_U_30D4_U_30FC_2
  6
CONTINUOUS
 62
    7
 10
325.18137841070984
 20
186.52949499897599
 11
326.70342159609322
 21
187.27811424792068
  0
LINE
  8
_0-1__U_30EC_U_30A4_U_30E4_U_30FC_1_U_306E_U_30B3_U_30D4_U_30FC_2
  6
CONTINUOUS
 62
    7
 10
326.70342159609322
 20
187.27811424792068
 11
328.2647388700085
 21
187.94697953638203
  0
LINE
  8
_0-1__U_30EC_U_30A4_U_30E4_U_30FC_1_U_306E_U_30B3_U_30D4_U_30FC_2
  6
CONTINUOUS
 62
    7
 10
328.2647388700085
 20
187.94697953638203
 11
329.85637298419385
 21
188.52282724674146
  0
LINE
  8
_0-1__U_30EC_U_30A4_U_30E4_U_30FC_1_U_306E_U_30B3_U_30D4_U_30FC_2
  6
CONTINUOUS
 62
    7
 10
329.85637298419385
 20
188.52282724674146
 11
331.48039099594064
 21
189.01168629609842
  0
LINE
  8
_0-1__U_30EC_U_30A4_U_30E4_U_30FC_1_U_306E_U_30B3_U_30D4_U_30FC_2
  6
CONTINUOUS
 62
    7
 10
331.48039099594064
 20
189.01168629609842
 11
333.13059173337535
 21
189.40649423870818
  0
LINE
  8
_0-1__U_30EC_U_30A4_U_30E4_U_30FC_1_U_306E_U_30B3_U_30D4_U_30FC_2
  6
CONTINUOUS
 62
    7
 10
333.13059173337535
 20
189.40649423870818
 11
334.7990514768818
 21
189.7144857750894
  0
LINE
  8
_0-1__U_30EC_U_30A4_U_30E4_U_30FC_1_U_306E_U_30B3_U_30D4_U_30FC_2
  6
CONTINUOUS
 62
    7
 10
334.7990514768818
 20
189.7144857750894
 11
336.47956905458659
 21
189.92308630672127
  0
LINE
  8
_0-1__U_30EC_U_30A4_U_30E4_U_30FC_1_U_306E_U_30B3_U_30D4_U_30FC_2
  6
CONTINUOUS
 62
    7
 10
336.47956905458659
 20
189.92308630672127
 11
338.17042191874725
 21
190.04108082709112
  0
LINE
  8
_0-1__U_30EC_U_30A4_U_30E4_U_30FC_1_U_306E_U_30B3_U_30D4_U_30FC_2
  6
CONTINUOUS
 62
    7
 10
338.17042191874725
 20
190.04108082709112
 11
339.87126555981513
 21
190.06450747639084
  0
LINE
  8
_0-1__U_30EC_U_30A4_U_30E4_U_30FC_1_U_306E_U_30B3_U_30D4_U_30FC_2
  6
CONTINUOUS
 62
    7
 10
339.87126555981513
 20
190.06450747639084
 11
341.56142940487871
 21
189.9935385093946
  0
LINE
  8
_0-1__U_30EC_U_30A4_U_30E4_U_30FC_1_U_306E_U_30B3_U_30D4_U_30FC_2
  6
CONTINUOUS
 62
    7
 10
341.56142940487871
 20
189.9935385093946
 11
343.25021521174824
 21
189.82696814268283
  0
LINE
  8
_0-1__U_30EC_U_30A4_U_30E4_U_30FC_1_U_306E_U_30B3_U_30D4_U_30FC_2
  6
CONTINUOUS
 62
    7
 10
343.25021521174824
 20
189.82696814268283
 11
344.92901024171044
 21
189.5709975481287
  0
LINE
  8
_0-1__U_30EC_U_30A4_U_30E4_U_30FC_1_U_306E_U_30B3_U_30D4_U_30FC_2
  6
CONTINUOUS
 62
    7
 10
344.92901024171044
 20
189.5709975481287
 11
346.58437862237304
 21
189.21977006340748
  0
LINE
  8
_0-1__U_30EC_U_30A4_U_30E4_U_30FC_1_U_306E_U_30B3_U_30D4_U_30FC_2
  6
CONTINUOUS
 62
    7
 10
346.58437862237304
 20
189.21977006340748
 11
348.2235550542548
 21
188.77793656742423
  0
LINE
  8
_0-1__U_30EC_U_30A4_U_30E4_U_30FC_1_U_306E_U_30B3_U_30D4_U_30FC_2
  6
CONTINUOUS
 62
    7
 10
348.2235550542548
 20
188.77793656742423
 11
349.83551523180324
 21
188.24429127675907
  0
LINE
  8
_0-1__U_30EC_U_30A4_U_30E4_U_30FC_1_U_306E_U_30B3_U_30D4_U_30FC_2
  6
CONTINUOUS
 62
    7
 10
349.83551523180324
 20
188.24429127675907
 11
351.41095739720799
 21
187.62503536328549
  0
LINE
  8
_0-1__U_30EC_U_30A4_U_30E4_U_30FC_1_U_306E_U_30B3_U_30D4_U_30FC_2
  6
CONTINUOUS
 62
    7
 10
351.41095739720799
 20
187.62503536328549
 11
352.95504919369694
 21
186.91431216467831
  0
LINE
  8
_0-1__U_30EC_U_30A4_U_30E4_U_30FC_1_U_306E_U_30B3_U_30D4_U_30FC_2
  6
CONTINUOUS
 62
    7
 10
352.95504919369694
 20
186.91431216467831
 11
354.45401023932914
 21
186.12349049603924
  0
LINE
  8
_0-1__U_30EC_U_30A4_U_30E4_U_30FC_1_U_306E_U_30B3_U_30D4_U_30FC_2
  6
CONTINUOUS
 62
    7
 10
354.45401023932914
 20
186.12349049603924
 11
355.90577347681335
 21
185.24481889252624
  0
LINE
  8
_0-1__U_30EC_U_30A4_U_30E4_U_30FC_1_U_306E_U_30B3_U_30D4_U_30FC_2
  6
CONTINUOUS
 62
    7
 10
355.90577347681335
 20
185.24481889252624
 11
357.30551577247036
 21
184.29087195266058
  0
LINE
  8
_0-1__U_30EC_U_30A4_U_30E4_U_30FC_1_U_306E_U_30B3_U_30D4_U_30FC_2
  6
CONTINUOUS
 62
    7
 10
357.30551577247036
 20
184.29087195266058
 11
358.65358163584881
 21
183.26233869553923
  0
LINE
  8
_0-1__U_30EC_U_30A4_U_30E4_U_30FC_1_U_306E_U_30B3_U_30D4_U_30FC_2
  6
CONTINUOUS
 62
    7
 10
358.65358163584881
 20
183.26233869553923
 11
359.94032479958958
 21
182.15560177090273
  0
LINE
  8
_0-1__U_30EC_U_30A4_U_30E4_U_30FC_1_U_306E_U_30B3_U_30D4_U_30FC_2
  6
CONTINUOUS
 62
    7
 10
359.94032479958958
 20
182.15560177090273
 11
361.16298918730456
 21
180.98409705114349
  0
LINE
  8
_0-1__U_30EC_U_30A4_U_30E4_U_30FC_1_U_306E_U_30B3_U_30D4_U_30FC_2
  6
CONTINUOUS
 62
    7
 10
361.16298918730456
 20
180.98409705114349
 11
362.3205412703486
 21
179.74265689303374
  0
LINE
  8
_0-1__U_30EC_U_30A4_U_30E4_U_30FC_1_U_306E_U_30B3_U_30D4_U_30FC_2
  6
CONTINUOUS
 62
    7
 10
362.3205412703486
 20
179.74265689303374
 11
363.40609085775088
 21
178.44023854483507
  0
LINE
  8
_0-1__U_30EC_U_30A4_U_30E4_U_30FC_1_U_306E_U_30B3_U_30D4_U_30FC_2
  6
CONTINUOUS
 62
    7
 10
363.40609085775088
 20
178.44023854483507
 11
364.41791540176871
 21
177.07787553519299
  0
LINE
  8
_0-1__U_30EC_U_30A4_U_30E4_U_30FC_1_U_306E_U_30B3_U_30D4_U_30FC_2
  6
CONTINUOUS
 62
    7
 10
364.41791540176871
 20
177.07787553519299
 11
365.35601490240231
 21
175.66418060282066
  0
LINE
  8
_0-1__U_30EC_U_30A4_U_30E4_U_30FC_1_U_306E_U_30B3_U_30D4_U_30FC_2
  6
CONTINUOUS
 62
    7
 10
365.35601490240231
 20
175.66418060282066
 11
366.20867603500164
 21
174.2003595311381
  0
LINE
  8
_0-1__U_30EC_U_30A4_U_30E4_U_30FC_1_U_306E_U_30B3_U_30D4_U_30FC_2
  6
CONTINUOUS
 62
    7
 10
366.20867603500164
 20
174.2003595311381
 11
366.97865487595493
 21
172.69071868950161
  0
LINE
  8
_0-1__U_30EC_U_30A4_U_30E4_U_30FC_1_U_306E_U_30B3_U_30D4_U_30FC_2
  6
CONTINUOUS
 62
    7
 10
366.97865487595493
 20
172.69071868950161
 11
367.66939652074745
 21
171.14077023068771
  0
LINE
  8
_0-1__U_30EC_U_30A4_U_30E4_U_30FC_1_U_306E_U_30B3_U_30D4_U_30FC_2
  6
CONTINUOUS
 62
    7
 10
367.66939652074745
 20
171.14077023068771
 11
368.26643156834132
 21
169.5544760145045
  0
LINE
  8
_0-1__U_30EC_U_30A4_U_30E4_U_30FC_1_U_306E_U_30B3_U_30D4_U_30FC_2
  6
CONTINUOUS
 62
    7
 10
368.26643156834132
 20
169.5544760145045
 11
368.77802824790092
 21
167.93355858869435
  0
LINE
  8
_0-1__U_30EC_U_30A4_U_30E4_U_30FC_1_U_306E_U_30B3_U_30D4_U_30FC_2
  6
CONTINUOUS
 62
    7
 10
368.77802824790092
 20
167.93355858869435
 11
369.1972963684558
 21
166.29162608042438
  0
LINE
  8
_0-1__U_30EC_U_30A4_U_30E4_U_30FC_1_U_306E_U_30B3_U_30D4_U_30FC_2
  6
CONTINUOUS
 62
    7
 10
369.1972963684558
 20
166.29162608042438
 11
369.52699200639415
 21
164.62816172537143
  0
LINE
  8
_0-1__U_30EC_U_30A4_U_30E4_U_30FC_1_U_306E_U_30B3_U_30D4_U_30FC_2
  6
CONTINUOUS
 62
    7
 10
369.52699200639415
 20
164.62816172537143
 11
369.76091398984272
 21
162.94764414766652
  0
LINE
  8
_0-1__U_30EC_U_30A4_U_30E4_U_30FC_1_U_306E_U_30B3_U_30D4_U_30FC_2
  6
CONTINUOUS
 62
    7
 10
369.76091398984272
 20
162.94764414766652
 11
369.90216290473791
 21
161.25834157647429
  0
LINE
  8
_0-1__U_30EC_U_30A4_U_30E4_U_30FC_1_U_306E_U_30B3_U_30D4_U_30FC_2
  6
CONTINUOUS
 62
    7
 10
369.90216290473791
 20
161.25834157647429
 11
369.95073875108017
 21
159.56335459773126
  0
LINE
  8
_0-1__U_30EC_U_30A4_U_30E4_U_30FC_1_U_306E_U_30B3_U_30D4_U_30FC_2
  6
CONTINUOUS
 62
    7
 10
339.45303096790587
 20
127.46436643301305
 11
337.71050167146643
 21
127.51294227935497
  0
LINE
  8
_0-1__U_30EC_U_30A4_U_30E4_U_30FC_1_U_306E_U_30B3_U_30D4_U_30FC_2
  6
CONTINUOUS
 62
    7
 10
337.71050167146643
 20
127.51294227935497
 11
335.97865217103129
 21
127.65453570379881
  0
LINE
  8
_0-1__U_30EC_U_30A4_U_30E4_U_30FC_1_U_306E_U_30B3_U_30D4_U_30FC_2
  6
CONTINUOUS
 62
    7
 10
335.97865217103129
 20
127.65453570379881
 11
334.26230560028
 21
127.89018023498997
  0
LINE
  8
_0-1__U_30EC_U_30A4_U_30E4_U_30FC_1_U_306E_U_30B3_U_30D4_U_30FC_2
  6
CONTINUOUS
 62
    7
 10
334.26230560028
 20
127.89018023498997
 11
332.54871510591659
 21
128.21539724879753
  0
LINE
  8
_0-1__U_30EC_U_30A4_U_30E4_U_30FC_1_U_306E_U_30B3_U_30D4_U_30FC_2
  6
CONTINUOUS
 62
    7
 10
332.54871510591659
 20
128.21539724879753
 11
330.86234086588695
 21
128.63535438844937
  0
LINE
  8
_0-1__U_30EC_U_30A4_U_30E4_U_30FC_1_U_306E_U_30B3_U_30D4_U_30FC_2
  6
CONTINUOUS
 62
    7
 10
330.86234086588695
 20
128.63535438844937
 11
329.20077131335074
 21
129.14557302981504
  0
LINE
  8
_0-1__U_30EC_U_30A4_U_30E4_U_30FC_1_U_306E_U_30B3_U_30D4_U_30FC_2
  6
CONTINUOUS
 62
    7
 10
329.20077131335074
 20
129.14557302981504
 11
327.57158565837619
 21
129.74501964424834
  0
LINE
  8
_0-1__U_30EC_U_30A4_U_30E4_U_30FC_1_U_306E_U_30B3_U_30D4_U_30FC_2
  6
CONTINUOUS
 62
    7
 10
327.57158565837619
 20
129.74501964424834
 11
325.97271684367172
 21
130.43266070310435
  0
LINE
  8
_0-1__U_30EC_U_30A4_U_30E4_U_30FC_1_U_306E_U_30B3_U_30D4_U_30FC_2
  6
CONTINUOUS
 62
    7
 10
325.97271684367172
 20
130.43266070310435
 11
324.41277760795072
 21
131.20539562044584
  0
LINE
  8
_0-1__U_30EC_U_30A4_U_30E4_U_30FC_1_U_306E_U_30B3_U_30D4_U_30FC_2
  6
CONTINUOUS
 62
    7
 10
324.41277760795072
 20
131.20539562044584
 11
322.90072519947455
 21
132.05977930078788
  0
LINE
  8
_0-1__U_30EC_U_30A4_U_30E4_U_30FC_1_U_306E_U_30B3_U_30D4_U_30FC_2
  6
CONTINUOUS
 62
    7
 10
322.90072519947455
 20
132.05977930078788
 11
321.43414805140344
 21
132.9965007632272
  0
LINE
  8
_0-1__U_30EC_U_30A4_U_30E4_U_30FC_1_U_306E_U_30B3_U_30D4_U_30FC_2
  6
CONTINUOUS
 62
    7
 10
321.43414805140344
 20
132.9965007632272
 11
320.0240704692909
 21
134.00935883589077
  0
LINE
  8
_0-1__U_30EC_U_30A4_U_30E4_U_30FC_1_U_306E_U_30B3_U_30D4_U_30FC_2
  6
CONTINUOUS
 62
    7
 10
320.0240704692909
 20
134.00935883589077
 11
318.66773637674794
 21
135.09835351877823
  0
LINE
  8
_0-1__U_30EC_U_30A4_U_30E4_U_30FC_1_U_306E_U_30B3_U_30D4_U_30FC_2
  6
CONTINUOUS
 62
    7
 10
318.66773637674794
 20
135.09835351877823
 11
317.37548106023075
 21
136.25900618775879
  0
LINE
  8
_0-1__U_30EC_U_30A4_U_30E4_U_30FC_1_U_306E_U_30B3_U_30D4_U_30FC_2
  6
CONTINUOUS
 62
    7
 10
317.37548106023075
 20
136.25900618775879
 11
316.14730451973924
 21
137.49166135238121
  0
LINE
  8
_0-1__U_30EC_U_30A4_U_30E4_U_30FC_1_U_306E_U_30B3_U_30D4_U_30FC_2
  6
CONTINUOUS
 62
    7
 10
316.14730451973924
 20
137.49166135238121
 11
314.9852738125644
 21
138.78391666889851
  0
LINE
  8
_0-1__U_30EC_U_30A4_U_30E4_U_30FC_1_U_306E_U_30B3_U_30D4_U_30FC_2
  6
CONTINUOUS
 62
    7
 10
314.9852738125644
 20
138.78391666889851
 11
313.89559011057975
 21
140.14025076144125
  0
LINE
  8
_0-1__U_30EC_U_30A4_U_30E4_U_30FC_1_U_306E_U_30B3_U_30D4_U_30FC_2
  6
CONTINUOUS
 62
    7
 10
313.89559011057975
 20
140.14025076144125
 11
312.88273203791641
 21
141.55136187219964
  0
LINE
  8
_0-1__U_30EC_U_30A4_U_30E4_U_30FC_1_U_306E_U_30B3_U_30D4_U_30FC_2
  6
CONTINUOUS
 62
    7
 10
312.88273203791641
 20
141.55136187219964
 11
311.94497704683147
 21
143.01311588659118
  0
LINE
  8
_0-1__U_30EC_U_30A4_U_30E4_U_30FC_1_U_306E_U_30B3_U_30D4_U_30FC_2
  6
CONTINUOUS
 62
    7
 10
311.94497704683147
 20
143.01311588659118
 11
311.09197140468348
 21
144.52861339055252
  0
LINE
  8
_0-1__U_30EC_U_30A4_U_30E4_U_30FC_1_U_306E_U_30B3_U_30D4_U_30FC_2
  6
CONTINUOUS
 62
    7
 10
311.09197140468348
 20
144.52861339055252
 11
310.31648041095389
 21
146.08648556898251
  0
LINE
  8
_0-1__U_30EC_U_30A4_U_30E4_U_30FC_1_U_306E_U_30B3_U_30D4_U_30FC_2
  6
CONTINUOUS
 62
    7
 10
310.31648041095389
 20
146.08648556898251
 11
309.62815033300092
 21
147.68328732639586
  0
LINE
  8
_0-1__U_30EC_U_30A4_U_30E4_U_30FC_1_U_306E_U_30B3_U_30D4_U_30FC_2
  6
CONTINUOUS
 62
    7
 10
309.62815033300092
 20
147.68328732639586
 11
309.03214881405268
 21
149.31557356730727
  0
LINE
  8
_0-1__U_30EC_U_30A4_U_30E4_U_30FC_1_U_306E_U_30B3_U_30D4_U_30FC_2
  6
CONTINUOUS
 62
    7
 10
309.03214881405268
 20
149.31557356730727
 11
308.52296370133274
 21
150.97817664848876
  0
LINE
  8
_0-1__U_30EC_U_30A4_U_30E4_U_30FC_1_U_306E_U_30B3_U_30D4_U_30FC_2
  6
CONTINUOUS
 62
    7
 10
308.52296370133274
 20
150.97817664848876
 11
308.10059499484112
 21
152.66317285032434
  0
LINE
  8
_0-1__U_30EC_U_30A4_U_30E4_U_30FC_1_U_306E_U_30B3_U_30D4_U_30FC_2
  6
CONTINUOUS
 62
    7
 10
308.10059499484112
 20
152.66317285032434
 11
307.77262190464535
 21
154.37366275875101
  0
LINE
  8
_0-1__U_30EC_U_30A4_U_30E4_U_30FC_1_U_306E_U_30B3_U_30D4_U_30FC_2
  6
CONTINUOUS
 62
    7
 10
307.77262190464535
 20
154.37366275875101
 11
307.54042246893948
 21
156.09586599182748
  0
LINE
  8
_0-1__U_30EC_U_30A4_U_30E4_U_30FC_1_U_306E_U_30B3_U_30D4_U_30FC_2
  6
CONTINUOUS
 62
    7
 10
307.54042246893948
 20
156.09586599182748
 11
307.39641747765597
 21
157.82771549226251
  0
LINE
  8
_0-1__U_30EC_U_30A4_U_30E4_U_30FC_1_U_306E_U_30B3_U_30D4_U_30FC_2
  6
CONTINUOUS
 62
    7
 10
307.39641747765597
 20
157.82771549226251
 11
307.35094221725069
 21
159.56335459773126
  0
LINE
  8
_0-1__U_30EC_U_30A4_U_30E4_U_30FC_1_U_306E_U_30B3_U_30D4_U_30FC_2
  6
CONTINUOUS
 62
    7
 10
307.35094221725069
 20
159.56335459773126
 11
307.39641747765597
 21
161.30226654391126
  0
LINE
  8
_0-1__U_30EC_U_30A4_U_30E4_U_30FC_1_U_306E_U_30B3_U_30D4_U_30FC_2
  6
CONTINUOUS
 62
    7
 10
307.39641747765597
 20
161.30226654391126
 11
307.54042246893948
 21
163.03635535641169
  0
LINE
  8
_0-1__U_30EC_U_30A4_U_30E4_U_30FC_1_U_306E_U_30B3_U_30D4_U_30FC_2
  6
CONTINUOUS
 62
    7
 10
307.54042246893948
 20
163.03635535641169
 11
307.77262190464535
 21
164.75563025832557
  0
LINE
  8
_0-1__U_30EC_U_30A4_U_30E4_U_30FC_1_U_306E_U_30B3_U_30D4_U_30FC_2
  6
CONTINUOUS
 62
    7
 10
307.77262190464535
 20
164.75563025832557
 11
308.10059499484112
 21
166.46336409036402
  0
LINE
  8
_0-1__U_30EC_U_30A4_U_30E4_U_30FC_1_U_306E_U_30B3_U_30D4_U_30FC_2
  6
CONTINUOUS
 62
    7
 10
308.10059499484112
 20
166.46336409036402
 11
308.52296370133274
 21
168.15111636858794
  0
LINE
  8
_0-1__U_30EC_U_30A4_U_30E4_U_30FC_1_U_306E_U_30B3_U_30D4_U_30FC_2
  6
CONTINUOUS
 62
    7
 10
308.52296370133274
 20
168.15111636858794
 11
309.03214881405268
 21
169.81251366634964
  0
LINE
  8
_0-1__U_30EC_U_30A4_U_30E4_U_30FC_1_U_306E_U_30B3_U_30D4_U_30FC_2
  6
CONTINUOUS
 62
    7
 10
309.03214881405268
 20
169.81251366634964
 11
309.62815033300092
 21
171.44583343590656
  0
LINE
  8
_0-1__U_30EC_U_30A4_U_30E4_U_30FC_1_U_306E_U_30B3_U_30D4_U_30FC_2
  6
CONTINUOUS
 62
    7
 10
309.62815033300092
 20
171.44583343590656
 11
310.31648041095389
 21
173.04229068377126
  0
LINE
  8
_0-1__U_30EC_U_30A4_U_30E4_U_30FC_1_U_306E_U_30B3_U_30D4_U_30FC_2
  6
CONTINUOUS
 62
    7
 10
310.31648041095389
 20
173.04229068377126
 11
311.09197140468348
 21
174.60119639084687
  0
LINE
  8
_0-1__U_30EC_U_30A4_U_30E4_U_30FC_1_U_306E_U_30B3_U_30D4_U_30FC_2
  6
CONTINUOUS
 62
    7
 10
311.09197140468348
 20
174.60119639084687
 11
311.94497704683147
 21
176.10945919428931
  0
LINE
  8
_0-1__U_30EC_U_30A4_U_30E4_U_30FC_1_U_306E_U_30B3_U_30D4_U_30FC_2
  6
CONTINUOUS
 62
    7
 10
311.94497704683147
 20
176.10945919428931
 11
312.88273203791641
 21
177.57758663532852
  0
LINE
  8
_0-1__U_30EC_U_30A4_U_30E4_U_30FC_1_U_306E_U_30B3_U_30D4_U_30FC_2
  6
CONTINUOUS
 62
    7
 10
312.88273203791641
 20
177.57758663532852
 11
313.89559011057975
 21
178.98973127473241
  0
LINE
  8
_0-1__U_30EC_U_30A4_U_30E4_U_30FC_1_U_306E_U_30B3_U_30D4_U_30FC_2
  6
CONTINUOUS
 62
    7
 10
313.89559011057975
 20
178.98973127473241
 11
314.9852738125644
 21
180.34554860295256
  0
LINE
  8
_0-1__U_30EC_U_30A4_U_30E4_U_30FC_1_U_306E_U_30B3_U_30D4_U_30FC_2
  6
CONTINUOUS
 62
    7
 10
314.9852738125644
 20
180.34554860295256
 11
316.14730451973924
 21
181.63728715514694
  0
LINE
  8
_0-1__U_30EC_U_30A4_U_30E4_U_30FC_1_U_306E_U_30B3_U_30D4_U_30FC_2
  6
CONTINUOUS
 62
    7
 10
316.14730451973924
 20
181.63728715514694
 11
317.37548106023075
 21
182.86718624338104
  0
LINE
  8
_0-1__U_30EC_U_30A4_U_30E4_U_30FC_1_U_306E_U_30B3_U_30D4_U_30FC_2
  6
CONTINUOUS
 62
    7
 10
317.37548106023075
 20
182.86718624338104
 11
318.66773637674794
 21
184.02956146010442
  0
LINE
  8
_0-1__U_30EC_U_30A4_U_30E4_U_30FC_1_U_306E_U_30B3_U_30D4_U_30FC_2
  6
CONTINUOUS
 62
    7
 10
318.66773637674794
 20
184.02956146010442
 11
320.0240704692909
 21
185.11993418118604
  0
LINE
  8
_0-1__U_30EC_U_30A4_U_30E4_U_30FC_1_U_306E_U_30B3_U_30D4_U_30FC_2
  6
CONTINUOUS
 62
    7
 10
320.0240704692909
 20
185.11993418118604
 11
321.43414805140344
 21
186.13210323475229
  0
LINE
  8
_0-1__U_30EC_U_30A4_U_30E4_U_30FC_1_U_306E_U_30B3_U_30D4_U_30FC_2
  6
CONTINUOUS
 62
    7
 10
321.43414805140344
 20
186.13210323475229
 11
322.90072519947455
 21
187.068996951966
  0
LINE
  8
_0-1__U_30EC_U_30A4_U_30E4_U_30FC_1_U_306E_U_30B3_U_30D4_U_30FC_2
  6
CONTINUOUS
 62
    7
 10
322.90072519947455
 20
187.068996951966
 11
324.41277760795072
 21
187.92441416095366
  0
LINE
  8
_0-1__U_30EC_U_30A4_U_30E4_U_30FC_1_U_306E_U_30B3_U_30D4_U_30FC_2
  6
CONTINUOUS
 62
    7
 10
324.41277760795072
 20
187.92441416095366
 11
325.97271684367172
 21
188.69594329487526
  0
LINE
  8
_0-1__U_30EC_U_30A4_U_30E4_U_30FC_1_U_306E_U_30B3_U_30D4_U_30FC_2
  6
CONTINUOUS
 62
    7
 10
325.97271684367172
 20
188.69594329487526
 11
327.57158565837619
 21
189.38237857031126
  0
LINE
  8
_0-1__U_30EC_U_30A4_U_30E4_U_30FC_1_U_306E_U_30B3_U_30D4_U_30FC_2
  6
CONTINUOUS
 62
    7
 10
327.57158565837619
 20
189.38237857031126
 11
329.20077131335074
 21
189.98354773248738
  0
LINE
  8
_0-1__U_30EC_U_30A4_U_30E4_U_30FC_1_U_306E_U_30B3_U_30D4_U_30FC_2
  6
CONTINUOUS
 62
    7
 10
329.20077131335074
 20
189.98354773248738
 11
330.86234086588695
 21
190.49324960953012
  0
LINE
  8
_0-1__U_30EC_U_30A4_U_30E4_U_30FC_1_U_306E_U_30B3_U_30D4_U_30FC_2
  6
CONTINUOUS
 62
    7
 10
330.86234086588695
 20
190.49324960953012
 11
332.54871510591659
 21
190.91200096576219
  0
LINE
  8
_0-1__U_30EC_U_30A4_U_30E4_U_30FC_1_U_306E_U_30B3_U_30D4_U_30FC_2
  6
CONTINUOUS
 62
    7
 10
332.54871510591659
 20
190.91200096576219
 11
334.26230560028
 21
191.23756248911829
  0
LINE
  8
_0-1__U_30EC_U_30A4_U_30E4_U_30FC_1_U_306E_U_30B3_U_30D4_U_30FC_2
  6
CONTINUOUS
 62
    7
 10
334.26230560028
 20
191.23756248911829
 11
335.97865217103129
 21
191.47441280372922
  0
LINE
  8
_0-1__U_30EC_U_30A4_U_30E4_U_30FC_1_U_306E_U_30B3_U_30D4_U_30FC_2
  6
CONTINUOUS
 62
    7
 10
335.97865217103129
 20
191.47441280372922
 11
337.71050167146643
 21
191.61617848294733
  0
LINE
  8
_0-1__U_30EC_U_30A4_U_30E4_U_30FC_1_U_306E_U_30B3_U_30D4_U_30FC_2
  6
CONTINUOUS
 62
    7
 10
337.71050167146643
 20
191.61617848294733
 11
339.45303096790587
 21
191.66423756496656
  0
LINE
  8
_0-1__U_30EC_U_30A4_U_30E4_U_30FC_1_U_306E_U_30B3_U_30D4_U_30FC_2
  6
CONTINUOUS
 62
    7
 10
339.45303096790587
 20
191.66423756496656
 11
341.1866030160835
 21
191.61617848294733
  0
LINE
  8
_0-1__U_30EC_U_30A4_U_30E4_U_30FC_1_U_306E_U_30B3_U_30D4_U_30FC_2
  6
CONTINUOUS
 62
    7
 10
341.1866030160835
 20
191.61617848294733
 11
342.92189761200382
 21
191.47441280372922
  0
LINE
  8
_0-1__U_30EC_U_30A4_U_30E4_U_30FC_1_U_306E_U_30B3_U_30D4_U_30FC_2
  6
CONTINUOUS
 62
    7
 10
342.92189761200382
 20
191.47441280372922
 11
344.64444535462871
 21
191.23756248911829
  0
LINE
  8
_0-1__U_30EC_U_30A4_U_30E4_U_30FC_1_U_306E_U_30B3_U_30D4_U_30FC_2
  6
CONTINUOUS
 62
    7
 10
344.64444535462871
 20
191.23756248911829
 11
346.35321271531268
 21
190.91200096576219
  0
LINE
  8
_0-1__U_30EC_U_30A4_U_30E4_U_30FC_1_U_306E_U_30B3_U_30D4_U_30FC_2
  6
CONTINUOUS
 62
    7
 10
346.35321271531268
 20
190.91200096576219
 11
348.03889793624546
 21
190.49324960953012
  0
LINE
  8
_0-1__U_30EC_U_30A4_U_30E4_U_30FC_1_U_306E_U_30B3_U_30D4_U_30FC_2
  6
CONTINUOUS
 62
    7
 10
348.03889793624546
 20
190.49324960953012
 11
349.7008119983301
 21
189.98354773248738
  0
LINE
  8
_0-1__U_30EC_U_30A4_U_30E4_U_30FC_1_U_306E_U_30B3_U_30D4_U_30FC_2
  6
CONTINUOUS
 62
    7
 10
349.7008119983301
 20
189.98354773248738
 11
351.3348207869841
 21
189.38237857031126
  0
LINE
  8
_0-1__U_30EC_U_30A4_U_30E4_U_30FC_1_U_306E_U_30B3_U_30D4_U_30FC_2
  6
CONTINUOUS
 62
    7
 10
351.3348207869841
 20
189.38237857031126
 11
352.92817744891204
 21
188.69594329487526
  0
LINE
  8
_0-1__U_30EC_U_30A4_U_30E4_U_30FC_1_U_306E_U_30B3_U_30D4_U_30FC_2
  6
CONTINUOUS
 62
    7
 10
352.92817744891204
 20
188.69594329487526
 11
354.48501609869641
 21
187.92441416095366
  0
LINE
  8
_0-1__U_30EC_U_30A4_U_30E4_U_30FC_1_U_306E_U_30B3_U_30D4_U_30FC_2
  6
CONTINUOUS
 62
    7
 10
354.48501609869641
 20
187.92441416095366
 11
356.00051360265786
 21
187.068996951966
  0
LINE
  8
_0-1__U_30EC_U_30A4_U_30E4_U_30FC_1_U_306E_U_30B3_U_30D4_U_30FC_2
  6
CONTINUOUS
 62
    7
 10
356.00051360265786
 20
187.068996951966
 11
357.46261212659795
 21
186.13210323475229
  0
LINE
  8
_0-1__U_30EC_U_30A4_U_30E4_U_30FC_1_U_306E_U_30B3_U_30D4_U_30FC_2
  6
CONTINUOUS
 62
    7
 10
357.46261212659795
 20
186.13210323475229
 11
358.87682382329285
 21
185.11993418118604
  0
LINE
  8
_0-1__U_30EC_U_30A4_U_30E4_U_30FC_1_U_306E_U_30B3_U_30D4_U_30FC_2
  6
CONTINUOUS
 62
    7
 10
358.87682382329285
 20
185.11993418118604
 11
360.23350242538424
 21
184.02956146010442
  0
LINE
  8
_0-1__U_30EC_U_30A4_U_30E4_U_30FC_1_U_306E_U_30B3_U_30D4_U_30FC_2
  6
CONTINUOUS
 62
    7
 10
360.23350242538424
 20
184.02956146010442
 11
361.52748028964413
 21
182.86718624338104
  0
LINE
  8
_0-1__U_30EC_U_30A4_U_30E4_U_30FC_1_U_306E_U_30B3_U_30D4_U_30FC_2
  6
CONTINUOUS
 62
    7
 10
361.52748028964413
 20
182.86718624338104
 11
362.75669035878116
 21
181.63728715514694
  0
LINE
  8
_0-1__U_30EC_U_30A4_U_30E4_U_30FC_1_U_306E_U_30B3_U_30D4_U_30FC_2
  6
CONTINUOUS
 62
    7
 10
362.75669035878116
 20
181.63728715514694
 11
363.91320891317957
 21
180.34554860295256
  0
LINE
  8
_0-1__U_30EC_U_30A4_U_30E4_U_30FC_1_U_306E_U_30B3_U_30D4_U_30FC_2
  6
CONTINUOUS
 62
    7
 10
363.91320891317957
 20
180.34554860295256
 11
365.00599320110075
 21
178.98973127473241
  0
LINE
  8
_0-1__U_30EC_U_30A4_U_30E4_U_30FC_1_U_306E_U_30B3_U_30D4_U_30FC_2
  6
CONTINUOUS
 62
    7
 10
365.00599320110075
 20
178.98973127473241
 11
366.0222963692496
 21
177.57758663532852
  0
LINE
  8
_0-1__U_30EC_U_30A4_U_30E4_U_30FC_1_U_306E_U_30B3_U_30D4_U_30FC_2
  6
CONTINUOUS
 62
    7
 10
366.0222963692496
 20
177.57758663532852
 11
366.9559172457524
 21
176.10945919428931
  0
LINE
  8
_0-1__U_30EC_U_30A4_U_30E4_U_30FC_1_U_306E_U_30B3_U_30D4_U_30FC_2
  6
CONTINUOUS
 62
    7
 10
366.9559172457524
 20
176.10945919428931
 11
367.81477955022501
 21
174.60119639084687
  0
LINE
  8
_0-1__U_30EC_U_30A4_U_30E4_U_30FC_1_U_306E_U_30B3_U_30D4_U_30FC_2
  6
CONTINUOUS
 62
    7
 10
367.81477955022501
 20
174.60119639084687
 11
368.58475839117841
 21
173.04229068377126
  0
LINE
  8
_0-1__U_30EC_U_30A4_U_30E4_U_30FC_1_U_306E_U_30B3_U_30D4_U_30FC_2
  6
CONTINUOUS
 62
    7
 10
368.58475839117841
 20
173.04229068377126
 11
369.27205494048565
 21
171.44583343590656
  0
LINE
  8
_0-1__U_30EC_U_30A4_U_30E4_U_30FC_1_U_306E_U_30B3_U_30D4_U_30FC_2
  6
CONTINUOUS
 62
    7
 10
369.27205494048565
 20
171.44583343590656
 11
369.868056459434
 21
169.81251366634964
  0
LINE
  8
_0-1__U_30EC_U_30A4_U_30E4_U_30FC_1_U_306E_U_30B3_U_30D4_U_30FC_2
  6
CONTINUOUS
 62
    7
 10
369.868056459434
 20
169.81251366634964
 11
370.38275372493024
 21
168.15111636858794
  0
LINE
  8
_0-1__U_30EC_U_30A4_U_30E4_U_30FC_1_U_306E_U_30B3_U_30D4_U_30FC_2
  6
CONTINUOUS
 62
    7
 10
370.38275372493024
 20
168.15111636858794
 11
370.80029929774264
 21
166.46336409036402
  0
LINE
  8
_0-1__U_30EC_U_30A4_U_30E4_U_30FC_1_U_306E_U_30B3_U_30D4_U_30FC_2
  6
CONTINUOUS
 62
    7
 10
370.80029929774264
 20
166.46336409036402
 11
371.12689434974425
 21
164.75563025832557
  0
LINE
  8
_0-1__U_30EC_U_30A4_U_30E4_U_30FC_1_U_306E_U_30B3_U_30D4_U_30FC_2
  6
CONTINUOUS
 62
    7
 10
371.12689434974425
 20
164.75563025832557
 11
371.36219437138675
 21
163.03635535641169
  0
LINE
  8
_0-1__U_30EC_U_30A4_U_30E4_U_30FC_1_U_306E_U_30B3_U_30D4_U_30FC_2
  6
CONTINUOUS
 62
    7
 10
371.36219437138675
 20
163.03635535641169
 11
371.50619936267015
 21
161.30226654391126
  0
LINE
  8
_0-1__U_30EC_U_30A4_U_30E4_U_30FC_1_U_306E_U_30B3_U_30D4_U_30FC_2
  6
CONTINUOUS
 62
    7
 10
371.50619936267015
 20
161.30226654391126
 11
371.55098560397857
 21
159.56335459773126
  0
LINE
  8
_0-1__U_30EC_U_30A4_U_30E4_U_30FC_1_U_306E_U_30B3_U_30D4_U_30FC_2
  6
CONTINUOUS
 62
    7
 10
371.55098560397857
 20
159.56335459773126
 11
371.50619936267015
 21
157.82771549226251
  0
LINE
  8
_0-1__U_30EC_U_30A4_U_30E4_U_30FC_1_U_306E_U_30B3_U_30D4_U_30FC_2
  6
CONTINUOUS
 62
    7
 10
371.50619936267015
 20
157.82771549226251
 11
371.36219437138675
 21
156.09586599182748
  0
LINE
  8
_0-1__U_30EC_U_30A4_U_30E4_U_30FC_1_U_306E_U_30B3_U_30D4_U_30FC_2
  6
CONTINUOUS
 62
    7
 10
371.36219437138675
 20
156.09586599182748
 11
371.12689434974425
 21
154.37366275875101
  0
LINE
  8
_0-1__U_30EC_U_30A4_U_30E4_U_30FC_1_U_306E_U_30B3_U_30D4_U_30FC_2
  6
CONTINUOUS
 62
    7
 10
371.12689434974425
 20
154.37366275875101
 11
370.80029929774264
 21
152.66317285032434
  0
LINE
  8
_0-1__U_30EC_U_30A4_U_30E4_U_30FC_1_U_306E_U_30B3_U_30D4_U_30FC_2
  6
CONTINUOUS
 62
    7
 10
370.80029929774264
 20
152.66317285032434
 11
370.38275372493024
 21
150.97817664848876
  0
LINE
  8
_0-1__U_30EC_U_30A4_U_30E4_U_30FC_1_U_306E_U_30B3_U_30D4_U_30FC_2
  6
CONTINUOUS
 62
    7
 10
370.38275372493024
 20
150.97817664848876
 11
369.868056459434
 21
149.31557356730727
  0
LINE
  8
_0-1__U_30EC_U_30A4_U_30E4_U_30FC_1_U_306E_U_30B3_U_30D4_U_30FC_2
  6
CONTINUOUS
 62
    7
 10
369.868056459434
 20
149.31557356730727
 11
369.27205494048565
 21
147.68328732639586
  0
LINE
  8
_0-1__U_30EC_U_30A4_U_30E4_U_30FC_1_U_306E_U_30B3_U_30D4_U_30FC_2
  6
CONTINUOUS
 62
    7
 10
369.27205494048565
 20
147.68328732639586
 11
368.58475839117841
 21
146.08648556898251
  0
LINE
  8
_0-1__U_30EC_U_30A4_U_30E4_U_30FC_1_U_306E_U_30B3_U_30D4_U_30FC_2
  6
CONTINUOUS
 62
    7
 10
368.58475839117841
 20
146.08648556898251
 11
367.81477955022501
 21
144.52861339055252
  0
LINE
  8
_0-1__U_30EC_U_30A4_U_30E4_U_30FC_1_U_306E_U_30B3_U_30D4_U_30FC_2
  6
CONTINUOUS
 62
    7
 10
367.81477955022501
 20
144.52861339055252
 11
366.9559172457524
 21
143.01311588659118
  0
LINE
  8
_0-1__U_30EC_U_30A4_U_30E4_U_30FC_1_U_306E_U_30B3_U_30D4_U_30FC_2
  6
CONTINUOUS
 62
    7
 10
366.9559172457524
 20
143.01311588659118
 11
366.0222963692496
 21
141.55136187219964
  0
LINE
  8
_0-1__U_30EC_U_30A4_U_30E4_U_30FC_1_U_306E_U_30B3_U_30D4_U_30FC_2
  6
CONTINUOUS
 62
    7
 10
366.0222963692496
 20
141.55136187219964
 11
365.00599320110075
 21
140.14025076144125
  0
LINE
  8
_0-1__U_30EC_U_30A4_U_30E4_U_30FC_1_U_306E_U_30B3_U_30D4_U_30FC_2
  6
CONTINUOUS
 62
    7
 10
365.00599320110075
 20
140.14025076144125
 11
363.91320891317957
 21
138.78391666889851
  0
LINE
  8
_0-1__U_30EC_U_30A4_U_30E4_U_30FC_1_U_306E_U_30B3_U_30D4_U_30FC_2
  6
CONTINUOUS
 62
    7
 10
363.91320891317957
 20
138.78391666889851
 11
362.75669035878116
 21
137.49166135238121
  0
LINE
  8
_0-1__U_30EC_U_30A4_U_30E4_U_30FC_1_U_306E_U_30B3_U_30D4_U_30FC_2
  6
CONTINUOUS
 62
    7
 10
362.75669035878116
 20
137.49166135238121
 11
361.52748028964413
 21
136.25900618775879
  0
LINE
  8
_0-1__U_30EC_U_30A4_U_30E4_U_30FC_1_U_306E_U_30B3_U_30D4_U_30FC_2
  6
CONTINUOUS
 62
    7
 10
361.52748028964413
 20
136.25900618775879
 11
360.23350242538424
 21
135.09835351877823
  0
LINE
  8
_0-1__U_30EC_U_30A4_U_30E4_U_30FC_1_U_306E_U_30B3_U_30D4_U_30FC_2
  6
CONTINUOUS
 62
    7
 10
360.23350242538424
 20
135.09835351877823
 11
358.87682382329285
 21
134.00935883589077
  0
LINE
  8
_0-1__U_30EC_U_30A4_U_30E4_U_30FC_1_U_306E_U_30B3_U_30D4_U_30FC_2
  6
CONTINUOUS
 62
    7
 10
358.87682382329285
 20
134.00935883589077
 11
357.46261212659795
 21
132.9965007632272
  0
LINE
  8
_0-1__U_30EC_U_30A4_U_30E4_U_30FC_1_U_306E_U_30B3_U_30D4_U_30FC_2
  6
CONTINUOUS
 62
    7
 10
357.46261212659795
 20
132.9965007632272
 11
356.00051360265786
 21
132.05977930078788
  0
LINE
  8
_0-1__U_30EC_U_30A4_U_30E4_U_30FC_1_U_306E_U_30B3_U_30D4_U_30FC_2
  6
CONTINUOUS
 62
    7
 10
356.00051360265786
 20
132.05977930078788
 11
354.48501609869641
 21
131.20539562044584
  0
LINE
  8
_0-1__U_30EC_U_30A4_U_30E4_U_30FC_1_U_306E_U_30B3_U_30D4_U_30FC_2
  6
CONTINUOUS
 62
    7
 10
354.48501609869641
 20
131.20539562044584
 11
352.92817744891204
 21
130.43266070310435
  0
LINE
  8
_0-1__U_30EC_U_30A4_U_30E4_U_30FC_1_U_306E_U_30B3_U_30D4_U_30FC_2
  6
CONTINUOUS
 62
    7
 10
352.92817744891204
 20
130.43266070310435
 11
351.3348207869841
 21
129.74501964424834
  0
LINE
  8
_0-1__U_30EC_U_30A4_U_30E4_U_30FC_1_U_306E_U_30B3_U_30D4_U_30FC_2
  6
CONTINUOUS
 62
    7
 10
351.3348207869841
 20
129.74501964424834
 11
349.7008119983301
 21
129.14557302981504
  0
LINE
  8
_0-1__U_30EC_U_30A4_U_30E4_U_30FC_1_U_306E_U_30B3_U_30D4_U_30FC_2
  6
CONTINUOUS
 62
    7
 10
349.7008119983301
 20
129.14557302981504
 11
348.03889793624546
 21
128.63535438844937
  0
LINE
  8
_0-1__U_30EC_U_30A4_U_30E4_U_30FC_1_U_306E_U_30B3_U_30D4_U_30FC_2
  6
CONTINUOUS
 62
    7
 10
348.03889793624546
 20
128.63535438844937
 11
346.35321271531268
 21
128.21539724879753
  0
LINE
  8
_0-1__U_30EC_U_30A4_U_30E4_U_30FC_1_U_306E_U_30B3_U_30D4_U_30FC_2
  6
CONTINUOUS
 62
    7
 10
346.35321271531268
 20
128.21539724879753
 11
344.64444535462871
 21
127.89018023498997
  0
LINE
  8
_0-1__U_30EC_U_30A4_U_30E4_U_30FC_1_U_306E_U_30B3_U_30D4_U_30FC_2
  6
CONTINUOUS
 62
    7
 10
344.64444535462871
 20
127.89018023498997
 11
342.92189761200382
 21
127.65453570379881
  0
LINE
  8
_0-1__U_30EC_U_30A4_U_30E4_U_30FC_1_U_306E_U_30B3_U_30D4_U_30FC_2
  6
CONTINUOUS
 62
    7
 10
342.92189761200382
 20
127.65453570379881
 11
341.1866030160835
 21
127.51294227935497
  0
LINE
  8
_0-1__U_30EC_U_30A4_U_30E4_U_30FC_1_U_306E_U_30B3_U_30D4_U_30FC_2
  6
CONTINUOUS
 62
    7
 10
341.1866030160835
 20
127.51294227935497
 11
339.45303096790587
 21
127.46436643301305
  0
LINE
  8
_0-1__U_30EC_U_30A4_U_30E4_U_30FC_1_U_306E_U_30B3_U_30D4_U_30FC_2
  6
CONTINUOUS
 62
    7
 10
364.65424895205695
 20
131.32494043378401
 11
364.7407208487366
 21
130.84951725681944
  0
LINE
  8
_0-1__U_30EC_U_30A4_U_30E4_U_30FC_1_U_306E_U_30B3_U_30D4_U_30FC_2
  6
CONTINUOUS
 62
    7
 10
364.7407208487366
 20
130.84951725681944
 11
364.90711896067421
 21
130.39442014321807
  0
LINE
  8
_0-1__U_30EC_U_30A4_U_30E4_U_30FC_1_U_306E_U_30B3_U_30D4_U_30FC_2
  6
CONTINUOUS
 62
    7
 10
364.90711896067421
 20
130.39442014321807
 11
365.14896466373875
 21
129.97411849401746
  0
LINE
  8
_0-1__U_30EC_U_30A4_U_30E4_U_30FC_1_U_306E_U_30B3_U_30D4_U_30FC_2
  6
CONTINUOUS
 62
    7
 10
365.14896466373875
 20
129.97411849401746
 11
365.45902325741122
 21
129.60549327709586
  0
LINE
  8
_0-1__U_30EC_U_30A4_U_30E4_U_30FC_1_U_306E_U_30B3_U_30D4_U_30FC_2
  6
CONTINUOUS
 62
    7
 10
365.45902325741122
 20
129.60549327709586
 11
365.83384964620643
 21
129.29336762613215
  0
LINE
  8
_0-1__U_30EC_U_30A4_U_30E4_U_30FC_1_U_306E_U_30B3_U_30D4_U_30FC_2
  6
CONTINUOUS
 62
    7
 10
365.83384964620643
 20
129.29336762613215
 11
366.24967267127602
 21
129.04773231803401
  0
LINE
  8
_0-1__U_30EC_U_30A4_U_30E4_U_30FC_1_U_306E_U_30B3_U_30D4_U_30FC_2
  6
CONTINUOUS
 62
    7
 10
366.24967267127602
 20
129.04773231803401
 11
366.70649233262031
 21
128.88271224429045
  0
LINE
  8
_0-1__U_30EC_U_30A4_U_30E4_U_30FC_1_U_306E_U_30B3_U_30D4_U_30FC_2
  6
CONTINUOUS
 62
    7
 10
366.70649233262031
 20
128.88271224429045
 11
367.18260452868174
 21
128.79727387625618
  0
LINE
  8
_0-1__U_30EC_U_30A4_U_30E4_U_30FC_1_U_306E_U_30B3_U_30D4_U_30FC_2
  6
CONTINUOUS
 62
    7
 10
367.18260452868174
 20
190.33046884785207
 11
366.70649233262031
 21
190.24554724414074
  0
LINE
  8
_0-1__U_30EC_U_30A4_U_30E4_U_30FC_1_U_306E_U_30B3_U_30D4_U_30FC_2
  6
CONTINUOUS
 62
    7
 10
366.70649233262031
 20
190.24554724414074
 11
366.24967267127602
 21
190.08069942517145
  0
LINE
  8
_0-1__U_30EC_U_30A4_U_30E4_U_30FC_1_U_306E_U_30B3_U_30D4_U_30FC_2
  6
CONTINUOUS
 62
    7
 10
366.24967267127602
 20
190.08069942517145
 11
365.83384964620643
 21
189.83678666481578
  0
LINE
  8
_0-1__U_30EC_U_30A4_U_30E4_U_30FC_1_U_306E_U_30B3_U_30D4_U_30FC_2
  6
CONTINUOUS
 62
    7
 10
365.83384964620643
 20
189.83678666481578
 11
365.45798972876571
 21
189.5239719947551
  0
LINE
  8
_0-1__U_30EC_U_30A4_U_30E4_U_30FC_1_U_306E_U_30B3_U_30D4_U_30FC_2
  6
CONTINUOUS
 62
    7
 10
365.45798972876571
 20
189.5239719947551
 11
365.14896466373875
 21
189.15224619189664
  0
LINE
  8
_0-1__U_30EC_U_30A4_U_30E4_U_30FC_1_U_306E_U_30B3_U_30D4_U_30FC_2
  6
CONTINUOUS
 62
    7
 10
365.14896466373875
 20
189.15224619189664
 11
364.90711896067421
 21
188.73590640250424
  0
LINE
  8
_0-1__U_30EC_U_30A4_U_30E4_U_30FC_1_U_306E_U_30B3_U_30D4_U_30FC_2
  6
CONTINUOUS
 62
    7
 10
364.90711896067421
 20
188.73590640250424
 11
364.74037633918817
 21
188.27701968386893
  0
LINE
  8
_0-1__U_30EC_U_30A4_U_30E4_U_30FC_1_U_306E_U_30B3_U_30D4_U_30FC_2
  6
CONTINUOUS
 62
    7
 10
364.74037633918817
 20
188.27701968386893
 11
364.65424895205695
 21
187.80073523303312
  0
LINE
  8
_0-1__U_30EC_U_30A4_U_30E4_U_30FC_1_U_306E_U_30B3_U_30D4_U_30FC_2
  6
CONTINUOUS
 62
    7
 10
311.71622270661078
 20
128.79796289535338
 11
312.19336843131794
 21
128.88271224429045
  0
LINE
  8
_0-1__U_30EC_U_30A4_U_30E4_U_30FC_1_U_306E_U_30B3_U_30D4_U_30FC_2
  6
CONTINUOUS
 62
    7
 10
312.19336843131794
 20
128.88271224429045
 11
312.65156613085617
 21
129.04773231803401
  0
LINE
  8
_0-1__U_30EC_U_30A4_U_30E4_U_30FC_1_U_306E_U_30B3_U_30D4_U_30FC_2
  6
CONTINUOUS
 62
    7
 10
312.65156613085617
 20
129.04773231803401
 11
313.0711787609597
 21
129.29336762613215
  0
LINE
  8
_0-1__U_30EC_U_30A4_U_30E4_U_30FC_1_U_306E_U_30B3_U_30D4_U_30FC_2
  6
CONTINUOUS
 62
    7
 10
313.0711787609597
 20
129.29336762613215
 11
313.43670339194466
 21
129.60342621980473
  0
LINE
  8
_0-1__U_30EC_U_30A4_U_30E4_U_30FC_1_U_306E_U_30B3_U_30D4_U_30FC_2
  6
CONTINUOUS
 62
    7
 10
313.43670339194466
 20
129.60342621980473
 11
313.75192962884501
 21
129.97411849401746
  0
LINE
  8
_0-1__U_30EC_U_30A4_U_30E4_U_30FC_1_U_306E_U_30B3_U_30D4_U_30FC_2
  6
CONTINUOUS
 62
    7
 10
313.75192962884501
 20
129.97411849401746
 11
313.99377533190955
 21
130.39442014321807
  0
LINE
  8
_0-1__U_30EC_U_30A4_U_30E4_U_30FC_1_U_306E_U_30B3_U_30D4_U_30FC_2
  6
CONTINUOUS
 62
    7
 10
313.99377533190955
 20
130.39442014321807
 11
314.158795405653
 21
130.84951725681944
  0
LINE
  8
_0-1__U_30EC_U_30A4_U_30E4_U_30FC_1_U_306E_U_30B3_U_30D4_U_30FC_2
  6
CONTINUOUS
 62
    7
 10
314.158795405653
 20
130.84951725681944
 11
314.24595632142984
 21
131.32494043378401
  0
LINE
  8
_0-1__U_30EC_U_30A4_U_30E4_U_30FC_1_U_306E_U_30B3_U_30D4_U_30FC_2
  6
CONTINUOUS
 62
    7
 10
308.68522769868798
 20
187.29689001831534
 11
308.76894351897965
 21
186.82422291773909
  0
LINE
  8
_0-1__U_30EC_U_30A4_U_30E4_U_30FC_1_U_306E_U_30B3_U_30D4_U_30FC_2
  6
CONTINUOUS
 62
    7
 10
308.76894351897965
 20
186.82422291773909
 11
308.93913123595087
 21
186.36723100162075
  0
LINE
  8
_0-1__U_30EC_U_30A4_U_30E4_U_30FC_1_U_306E_U_30B3_U_30D4_U_30FC_2
  6
CONTINUOUS
 62
    7
 10
308.93913123595087
 20
186.36723100162075
 11
309.1816659581126
 21
185.94692935242014
  0
LINE
  8
_0-1__U_30EC_U_30A4_U_30E4_U_30FC_1_U_306E_U_30B3_U_30D4_U_30FC_2
  6
CONTINUOUS
 62
    7
 10
309.1816659581126
 20
185.94692935242014
 11
309.49069102313945
 21
185.57554805911022
  0
LINE
  8
_0-1__U_30EC_U_30A4_U_30E4_U_30FC_1_U_306E_U_30B3_U_30D4_U_30FC_2
  6
CONTINUOUS
 62
    7
 10
309.49069102313945
 20
185.57554805911022
 11
309.86207231644937
 21
185.26325015337224
  0
LINE
  8
_0-1__U_30EC_U_30A4_U_30E4_U_30FC_1_U_306E_U_30B3_U_30D4_U_30FC_2
  6
CONTINUOUS
 62
    7
 10
309.86207231644937
 20
185.26325015337224
 11
310.28065141790728
 21
185.02209346940489
  0
LINE
  8
_0-1__U_30EC_U_30A4_U_30E4_U_30FC_1_U_306E_U_30B3_U_30D4_U_30FC_2
  6
CONTINUOUS
 62
    7
 10
310.28065141790728
 20
185.02209346940489
 11
310.73368147421763
 21
184.85552310269301
  0
LINE
  8
_0-1__U_30EC_U_30A4_U_30E4_U_30FC_1_U_306E_U_30B3_U_30D4_U_30FC_2
  6
CONTINUOUS
 62
    7
 10
310.73368147421763
 20
184.85552310269301
 11
311.21530582305547
 21
184.77146277285291
  0
LINE
  8
_0-1__U_30EC_U_30A4_U_30E4_U_30FC_1_U_306E_U_30B3_U_30D4_U_30FC_2
  6
CONTINUOUS
 62
    7
 10
367.68593297907671
 20
184.77146277285291
 11
368.16583478017196
 21
184.85552310269301
  0
LINE
  8
_0-1__U_30EC_U_30A4_U_30E4_U_30FC_1_U_306E_U_30B3_U_30D4_U_30FC_2
  6
CONTINUOUS
 62
    7
 10
368.16583478017196
 20
184.85552310269301
 11
368.61955385557951
 21
185.02209346940489
  0
LINE
  8
_0-1__U_30EC_U_30A4_U_30E4_U_30FC_1_U_306E_U_30B3_U_30D4_U_30FC_2
  6
CONTINUOUS
 62
    7
 10
368.61955385557951
 20
185.02209346940489
 11
369.03882197613427
 21
185.26325015337224
  0
LINE
  8
_0-1__U_30EC_U_30A4_U_30E4_U_30FC_1_U_306E_U_30B3_U_30D4_U_30FC_2
  6
CONTINUOUS
 62
    7
 10
369.03882197613427
 20
185.26325015337224
 11
369.4102032694442
 21
185.57554805911022
  0
LINE
  8
_0-1__U_30EC_U_30A4_U_30E4_U_30FC_1_U_306E_U_30B3_U_30D4_U_30FC_2
  6
CONTINUOUS
 62
    7
 10
369.4102032694442
 20
185.57554805911022
 11
369.72026186311666
 21
185.94692935242014
  0
LINE
  8
_0-1__U_30EC_U_30A4_U_30E4_U_30FC_1_U_306E_U_30B3_U_30D4_U_30FC_2
  6
CONTINUOUS
 62
    7
 10
369.72026186311666
 20
185.94692935242014
 11
369.96176305663278
 21
186.36723100162075
  0
LINE
  8
_0-1__U_30EC_U_30A4_U_30E4_U_30FC_1_U_306E_U_30B3_U_30D4_U_30FC_2
  6
CONTINUOUS
 62
    7
 10
369.96176305663278
 20
186.36723100162075
 11
370.12609411127914
 21
186.82491193683617
  0
LINE
  8
_0-1__U_30EC_U_30A4_U_30E4_U_30FC_1_U_306E_U_30B3_U_30D4_U_30FC_2
  6
CONTINUOUS
 62
    7
 10
370.12609411127914
 20
186.82491193683617
 11
370.21497757479858
 21
187.29689001831534
  0
LINE
  8
_0-1__U_30EC_U_30A4_U_30E4_U_30FC_1_U_306E_U_30B3_U_30D4_U_30FC_2
  6
CONTINUOUS
 62
    7
 10
311.21530582305547
 20
134.35765798944939
 11
310.73368147421763
 21
134.27325315006087
  0
LINE
  8
_0-1__U_30EC_U_30A4_U_30E4_U_30FC_1_U_306E_U_30B3_U_30D4_U_30FC_2
  6
CONTINUOUS
 62
    7
 10
310.73368147421763
 20
134.27325315006087
 11
310.28065141790728
 21
134.10651052857472
  0
LINE
  8
_0-1__U_30EC_U_30A4_U_30E4_U_30FC_1_U_306E_U_30B3_U_30D4_U_30FC_2
  6
CONTINUOUS
 62
    7
 10
310.28065141790728
 20
134.10651052857472
 11
309.86207231644937
 21
133.86466482551018
  0
LINE
  8
_0-1__U_30EC_U_30A4_U_30E4_U_30FC_1_U_306E_U_30B3_U_30D4_U_30FC_2
  6
CONTINUOUS
 62
    7
 10
309.86207231644937
 20
133.86466482551018
 11
309.49000200404237
 21
133.55012760770691
  0
LINE
  8
_0-1__U_30EC_U_30A4_U_30E4_U_30FC_1_U_306E_U_30B3_U_30D4_U_30FC_2
  6
CONTINUOUS
 62
    7
 10
309.49000200404237
 20
133.55012760770691
 11
309.1816659581126
 21
133.17943533349407
  0
LINE
  8
_0-1__U_30EC_U_30A4_U_30E4_U_30FC_1_U_306E_U_30B3_U_30D4_U_30FC_2
  6
CONTINUOUS
 62
    7
 10
309.1816659581126
 20
133.17943533349407
 11
308.93913123595087
 21
132.76154525113324
  0
LINE
  8
_0-1__U_30EC_U_30A4_U_30E4_U_30FC_1_U_306E_U_30B3_U_30D4_U_30FC_2
  6
CONTINUOUS
 62
    7
 10
308.93913123595087
 20
132.76154525113324
 11
308.76894351897965
 21
132.30679264708019
  0
LINE
  8
_0-1__U_30EC_U_30A4_U_30E4_U_30FC_1_U_306E_U_30B3_U_30D4_U_30FC_2
  6
CONTINUOUS
 62
    7
 10
308.76894351897965
 20
132.30679264708019
 11
308.68522769868798
 21
131.83033594147022
  0
LINE
  8
_0-1__U_30EC_U_30A4_U_30E4_U_30FC_1_U_306E_U_30B3_U_30D4_U_30FC_2
  6
CONTINUOUS
 62
    7
 10
370.21497757479858
 20
131.83033594147022
 11
370.12919469721589
 21
132.30817068527435
  0
LINE
  8
_0-1__U_30EC_U_30A4_U_30E4_U_30FC_1_U_306E_U_30B3_U_30D4_U_30FC_2
  6
CONTINUOUS
 62
    7
 10
370.12919469721589
 20
132.30817068527435
 11
369.9610740375357
 21
132.76154525113324
  0
LINE
  8
_0-1__U_30EC_U_30A4_U_30E4_U_30FC_1_U_306E_U_30B3_U_30D4_U_30FC_2
  6
CONTINUOUS
 62
    7
 10
369.9610740375357
 20
132.76154525113324
 11
369.71957284401969
 21
133.18046886213958
  0
LINE
  8
_0-1__U_30EC_U_30A4_U_30E4_U_30FC_1_U_306E_U_30B3_U_30D4_U_30FC_2
  6
CONTINUOUS
 62
    7
 10
369.71957284401969
 20
133.18046886213958
 11
369.4102032694442
 21
133.55012760770691
  0
LINE
  8
_0-1__U_30EC_U_30A4_U_30E4_U_30FC_1_U_306E_U_30B3_U_30D4_U_30FC_2
  6
CONTINUOUS
 62
    7
 10
369.4102032694442
 20
133.55012760770691
 11
369.03882197613427
 21
133.86466482551018
  0
LINE
  8
_0-1__U_30EC_U_30A4_U_30E4_U_30FC_1_U_306E_U_30B3_U_30D4_U_30FC_2
  6
CONTINUOUS
 62
    7
 10
369.03882197613427
 20
133.86466482551018
 11
368.61955385557951
 21
134.10651052857472
  0
LINE
  8
_0-1__U_30EC_U_30A4_U_30E4_U_30FC_1_U_306E_U_30B3_U_30D4_U_30FC_2
  6
CONTINUOUS
 62
    7
 10
368.61955385557951
 20
134.10651052857472
 11
368.16583478017196
 21
134.27221962141525
  0
LINE
  8
_0-1__U_30EC_U_30A4_U_30E4_U_30FC_1_U_306E_U_30B3_U_30D4_U_30FC_2
  6
CONTINUOUS
 62
    7
 10
368.16583478017196
 20
134.27221962141525
 11
367.68455494088255
 21
134.35765798944939
  0
LINE
  8
_0-1__U_30EC_U_30A4_U_30E4_U_30FC_1_U_306E_U_30B3_U_30D4_U_30FC_2
  6
CONTINUOUS
 62
    7
 10
314.24595632142984
 20
187.80073523303312
 11
314.158795405653
 21
188.27874223161152
  0
LINE
  8
_0-1__U_30EC_U_30A4_U_30E4_U_30FC_1_U_306E_U_30B3_U_30D4_U_30FC_2
  6
CONTINUOUS
 62
    7
 10
314.158795405653
 20
188.27874223161152
 11
313.99274180326393
 21
188.73590640250424
  0
LINE
  8
_0-1__U_30EC_U_30A4_U_30E4_U_30FC_1_U_306E_U_30B3_U_30D4_U_30FC_2
  6
CONTINUOUS
 62
    7
 10
313.99274180326393
 20
188.73590640250424
 11
313.75124060974792
 21
189.15327972054226
  0
LINE
  8
_0-1__U_30EC_U_30A4_U_30E4_U_30FC_1_U_306E_U_30B3_U_30D4_U_30FC_2
  6
CONTINUOUS
 62
    7
 10
313.75124060974792
 20
189.15327972054226
 11
313.43808143013871
 21
189.5239719947551
  0
LINE
  8
_0-1__U_30EC_U_30A4_U_30E4_U_30FC_1_U_306E_U_30B3_U_30D4_U_30FC_2
  6
CONTINUOUS
 62
    7
 10
313.43808143013871
 20
189.5239719947551
 11
313.06945621321699
 21
189.83678666481578
  0
LINE
  8
_0-1__U_30EC_U_30A4_U_30E4_U_30FC_1_U_306E_U_30B3_U_30D4_U_30FC_2
  6
CONTINUOUS
 62
    7
 10
313.06945621321699
 20
189.83678666481578
 11
312.64984358311347
 21
190.08069942517145
  0
LINE
  8
_0-1__U_30EC_U_30A4_U_30E4_U_30FC_1_U_306E_U_30B3_U_30D4_U_30FC_2
  6
CONTINUOUS
 62
    7
 10
312.64984358311347
 20
190.08069942517145
 11
312.19336843131794
 21
190.24554724414074
  0
LINE
  8
_0-1__U_30EC_U_30A4_U_30E4_U_30FC_1_U_306E_U_30B3_U_30D4_U_30FC_2
  6
CONTINUOUS
 62
    7
 10
312.19336843131794
 20
190.24554724414074
 11
311.71622270661078
 21
190.33046884785207
  0
LINE
  8
_0-1__U_30EC_U_30A4_U_30E4_U_30FC_1_U_306E_U_30B3_U_30D4_U_30FC_2
  6
CONTINUOUS
 62
    7
 10
365.30847258470578
 20
131.97606348049621
 11
364.65424895205695
 21
131.32390690513839
  0
LINE
  8
_0-1__U_30EC_U_30A4_U_30E4_U_30FC_1_U_306E_U_30B3_U_30D4_U_30FC_2
  6
CONTINUOUS
 62
    7
 10
314.24595632142984
 20
131.32494043378401
 11
313.59483327471764
 21
131.97606348049621
  0
LINE
  8
_0-1__U_30EC_U_30A4_U_30E4_U_30FC_1_U_306E_U_30B3_U_30D4_U_30FC_2
  6
CONTINUOUS
 62
    7
 10
364.65424895205695
 20
187.80073523303312
 11
365.30640552741465
 21
187.1508179697407
  0
LINE
  8
_0-1__U_30EC_U_30A4_U_30E4_U_30FC_1_U_306E_U_30B3_U_30D4_U_30FC_2
  6
CONTINUOUS
 62
    7
 10
370.21497757479858
 20
187.29689001831534
 11
369.56419903763492
 21
187.94921884844743
  0
LINE
  8
_0-1__U_30EC_U_30A4_U_30E4_U_30FC_1_U_306E_U_30B3_U_30D4_U_30FC_2
  6
CONTINUOUS
 62
    7
 10
308.68522769868798
 20
131.83033594147022
 11
309.33531721675456
 21
131.18059093295196
  0
LINE
  8
_0-1__U_30EC_U_30A4_U_30E4_U_30FC_1_U_306E_U_30B3_U_30D4_U_30FC_2
  6
CONTINUOUS
 62
    7
 10
367.83200502765146
 20
189.6803793297855
 11
367.18260452868174
 21
190.33046884785207
  0
LINE
  8
_0-1__U_30EC_U_30A4_U_30E4_U_30FC_1_U_306E_U_30B3_U_30D4_U_30FC_2
  6
CONTINUOUS
 62
    7
 10
311.06682220764128
 20
129.44908594206558
 11
311.71622270661078
 21
128.79727387625618
  0
LINE
  8
_0-1__U_30EC_U_30A4_U_30E4_U_30FC_1_U_306E_U_30B3_U_30D4_U_30FC_2
  6
CONTINUOUS
 62
    7
 10
369.56419903763492
 20
131.18059093295196
 11
370.21497757479858
 21
131.83033594147022
  0
LINE
  8
_0-1__U_30EC_U_30A4_U_30E4_U_30FC_1_U_306E_U_30B3_U_30D4_U_30FC_2
  6
CONTINUOUS
 62
    7
 10
313.59483327471764
 20
187.1508179697407
 11
314.24595632142984
 21
187.80073523303312
  0
LINE
  8
_0-1__U_30EC_U_30A4_U_30E4_U_30FC_1_U_306E_U_30B3_U_30D4_U_30FC_2
  6
CONTINUOUS
 62
    7
 10
309.33531721675456
 20
187.94921884844743
 11
308.68522769868798
 21
187.29568423489545
  0
LINE
  8
_0-1__U_30EC_U_30A4_U_30E4_U_30FC_1_U_306E_U_30B3_U_30D4_U_30FC_2
  6
CONTINUOUS
 62
    7
 10
311.21530582305547
 20
184.77146277285291
 11
311.86573985067059
 21
185.4198297431769
  0
LINE
  8
_0-1__U_30EC_U_30A4_U_30E4_U_30FC_1_U_306E_U_30B3_U_30D4_U_30FC_2
  6
CONTINUOUS
 62
    7
 10
367.18260452868174
 20
128.79796289535338
 11
367.83200502765146
 21
129.44977496116255
  0
LINE
  8
_0-1__U_30EC_U_30A4_U_30E4_U_30FC_1_U_306E_U_30B3_U_30D4_U_30FC_2
  6
CONTINUOUS
 62
    7
 10
367.68593297907671
 20
134.35765798944939
 11
367.03446542281597
 21
133.70722396183427
  0
LINE
  8
_0-1__U_30EC_U_30A4_U_30E4_U_30FC_1_U_306E_U_30B3_U_30D4_U_30FC_2
  6
CONTINUOUS
 62
    7
 10
311.86573985067059
 20
133.70722396183427
 11
311.213583275313
 21
134.35765798944939
  0
LINE
  8
_0-1__U_30EC_U_30A4_U_30E4_U_30FC_1_U_306E_U_30B3_U_30D4_U_30FC_2
  6
CONTINUOUS
 62
    7
 10
367.03446542281597
 20
185.4198297431769
 11
367.68593297907671
 21
184.77146277285291
  0
LINE
  8
_0-1__U_30EC_U_30A4_U_30E4_U_30FC_1_U_306E_U_30B3_U_30D4_U_30FC_2
  6
CONTINUOUS
 62
    7
 10
311.71622270661078
 20
190.33046884785207
 11
311.06682220764128
 21
189.6803793297855
  0
LINE
  8
_0-1__U_30EC_U_30A4_U_30E4_U_30FC_1_U_306E_U_30B3_U_30D4_U_30FC_2
  6
CONTINUOUS
 62
    7
 10
365.42560583120428
 20
187.27277434991865
 11
365.41837113068516
 21
187.74027380726702
  0
LINE
  8
_0-1__U_30EC_U_30A4_U_30E4_U_30FC_1_U_306E_U_30B3_U_30D4_U_30FC_2
  6
CONTINUOUS
 62
    7
 10
365.41837113068516
 20
187.74027380726702
 11
365.51207772788405
 21
188.19433739222299
  0
LINE
  8
_0-1__U_30EC_U_30A4_U_30E4_U_30FC_1_U_306E_U_30B3_U_30D4_U_30FC_2
  6
CONTINUOUS
 62
    7
 10
365.51207772788405
 20
188.19433739222299
 11
365.7129267946741
 21
188.6184286464572
  0
LINE
  8
_0-1__U_30EC_U_30A4_U_30E4_U_30FC_1_U_306E_U_30B3_U_30D4_U_30FC_2
  6
CONTINUOUS
 62
    7
 10
365.7129267946741
 20
188.6184286464572
 11
365.99955873904685
 21
188.98464229653925
  0
LINE
  8
_0-1__U_30EC_U_30A4_U_30E4_U_30FC_1_U_306E_U_30B3_U_30D4_U_30FC_2
  6
CONTINUOUS
 62
    7
 10
365.99955873904685
 20
188.98464229653925
 11
366.36680591777451
 21
189.27454708162301
  0
LINE
  8
_0-1__U_30EC_U_30A4_U_30E4_U_30FC_1_U_306E_U_30B3_U_30D4_U_30FC_2
  6
CONTINUOUS
 62
    7
 10
366.36680591777451
 20
189.27454708162301
 11
366.78986364336322
 21
189.47195105292789
  0
LINE
  8
_0-1__U_30EC_U_30A4_U_30E4_U_30FC_1_U_306E_U_30B3_U_30D4_U_30FC_2
  6
CONTINUOUS
 62
    7
 10
366.78986364336322
 20
189.47195105292789
 11
367.24702781425594
 21
189.56703568832071
  0
LINE
  8
_0-1__U_30EC_U_30A4_U_30E4_U_30FC_1_U_306E_U_30B3_U_30D4_U_30FC_2
  6
CONTINUOUS
 62
    7
 10
367.24702781425594
 20
189.56703568832071
 11
367.71246021431318
 21
189.5570449114135
  0
LINE
  8
_0-1__U_30EC_U_30A4_U_30E4_U_30FC_1_U_306E_U_30B3_U_30D4_U_30FC_2
  6
CONTINUOUS
 62
    7
 10
313.47494395183094
 20
131.85582964806107
 11
313.48183414280129
 21
131.38901920980967
  0
LINE
  8
_0-1__U_30EC_U_30A4_U_30E4_U_30FC_1_U_306E_U_30B3_U_30D4_U_30FC_2
  6
CONTINUOUS
 62
    7
 10
313.48183414280129
 20
131.38901920980967
 11
313.38743852650555
 21
130.93219954846549
  0
LINE
  8
_0-1__U_30EC_U_30A4_U_30E4_U_30FC_1_U_306E_U_30B3_U_30D4_U_30FC_2
  6
CONTINUOUS
 62
    7
 10
313.38743852650555
 20
130.93219954846549
 11
313.18796749790965
 21
130.50879731332824
  0
LINE
  8
_0-1__U_30EC_U_30A4_U_30E4_U_30FC_1_U_306E_U_30B3_U_30D4_U_30FC_2
  6
CONTINUOUS
 62
    7
 10
313.18796749790965
 20
130.50879731332824
 11
312.90099104398826
 21
130.14499523008598
  0
LINE
  8
_0-1__U_30EC_U_30A4_U_30E4_U_30FC_1_U_306E_U_30B3_U_30D4_U_30FC_2
  6
CONTINUOUS
 62
    7
 10
312.90099104398826
 20
130.14499523008598
 11
312.53236582706643
 21
129.8518176042912
  0
LINE
  8
_0-1__U_30EC_U_30A4_U_30E4_U_30FC_1_U_306E_U_30B3_U_30D4_U_30FC_2
  6
CONTINUOUS
 62
    7
 10
312.53236582706643
 20
129.8518176042912
 11
312.11068613967188
 21
129.65820323802004
  0
LINE
  8
_0-1__U_30EC_U_30A4_U_30E4_U_30FC_1_U_306E_U_30B3_U_30D4_U_30FC_2
  6
CONTINUOUS
 62
    7
 10
312.11068613967188
 20
129.65820323802004
 11
311.65317745923073
 21
129.56001801669058
  0
LINE
  8
_0-1__U_30EC_U_30A4_U_30E4_U_30FC_1_U_306E_U_30B3_U_30D4_U_30FC_2
  6
CONTINUOUS
 62
    7
 10
311.65317745923073
 20
129.56001801669058
 11
311.18808956872203
 21
129.56897526495217
  0
LINE
  8
_0-1__U_30EC_U_30A4_U_30E4_U_30FC_1_U_306E_U_30B3_U_30D4_U_30FC_2
  6
CONTINUOUS
 62
    7
 10
309.456240068287
 20
131.29944672719316
 11
309.44452674363708
 21
131.76453461770197
  0
LINE
  8
_0-1__U_30EC_U_30A4_U_30E4_U_30FC_1_U_306E_U_30B3_U_30D4_U_30FC_2
  6
CONTINUOUS
 62
    7
 10
309.44452674363708
 20
131.76453461770197
 11
309.54374549361239
 21
132.22411035543414
  0
LINE
  8
_0-1__U_30EC_U_30A4_U_30E4_U_30FC_1_U_306E_U_30B3_U_30D4_U_30FC_2
  6
CONTINUOUS
 62
    7
 10
309.54374549361239
 20
132.22411035543414
 11
309.74425005085379
 21
132.64579004282879
  0
LINE
  8
_0-1__U_30EC_U_30A4_U_30E4_U_30FC_1_U_306E_U_30B3_U_30D4_U_30FC_2
  6
CONTINUOUS
 62
    7
 10
309.74425005085379
 20
132.64579004282879
 11
310.03191552387204
 21
133.0116591833623
  0
LINE
  8
_0-1__U_30EC_U_30A4_U_30E4_U_30FC_1_U_306E_U_30B3_U_30D4_U_30FC_2
  6
CONTINUOUS
 62
    7
 10
310.03191552387204
 20
133.0116591833623
 11
310.39950721214825
 21
133.3013917136719
  0
LINE
  8
_0-1__U_30EC_U_30A4_U_30E4_U_30FC_1_U_306E_U_30B3_U_30D4_U_30FC_2
  6
CONTINUOUS
 62
    7
 10
310.39950721214825
 20
133.3013917136719
 11
310.81739729450908
 21
133.49879568497667
  0
LINE
  8
_0-1__U_30EC_U_30A4_U_30E4_U_30FC_1_U_306E_U_30B3_U_30D4_U_30FC_2
  6
CONTINUOUS
 62
    7
 10
310.81739729450908
 20
133.49879568497667
 11
311.2745614654018
 21
133.59560286811219
  0
LINE
  8
_0-1__U_30EC_U_30A4_U_30E4_U_30FC_1_U_306E_U_30B3_U_30D4_U_30FC_2
  6
CONTINUOUS
 62
    7
 10
311.2745614654018
 20
133.59560286811219
 11
311.7403383750077
 21
133.58285601481688
  0
LINE
  8
_0-1__U_30EC_U_30A4_U_30E4_U_30FC_1_U_306E_U_30B3_U_30D4_U_30FC_2
  6
CONTINUOUS
 62
    7
 10
369.44362069565125
 20
187.82640119439824
 11
369.45464500120409
 21
187.36165781343797
  0
LINE
  8
_0-1__U_30EC_U_30A4_U_30E4_U_30FC_1_U_306E_U_30B3_U_30D4_U_30FC_2
  6
CONTINUOUS
 62
    7
 10
369.45464500120409
 20
187.36165781343797
 11
369.35714879897137
 21
186.90673295461087
  0
LINE
  8
_0-1__U_30EC_U_30A4_U_30E4_U_30FC_1_U_306E_U_30B3_U_30D4_U_30FC_2
  6
CONTINUOUS
 62
    7
 10
369.35714879897137
 20
186.90673295461087
 11
369.15561071308434
 21
186.48350297424778
  0
LINE
  8
_0-1__U_30EC_U_30A4_U_30E4_U_30FC_1_U_306E_U_30B3_U_30D4_U_30FC_2
  6
CONTINUOUS
 62
    7
 10
369.15561071308434
 20
186.48350297424778
 11
368.86794524006609
 21
186.11539452164888
  0
LINE
  8
_0-1__U_30EC_U_30A4_U_30E4_U_30FC_1_U_306E_U_30B3_U_30D4_U_30FC_2
  6
CONTINUOUS
 62
    7
 10
368.86794524006609
 20
186.11539452164888
 11
368.50138708043539
 21
185.82738453908209
  0
LINE
  8
_0-1__U_30EC_U_30A4_U_30E4_U_30FC_1_U_306E_U_30B3_U_30D4_U_30FC_2
  6
CONTINUOUS
 62
    7
 10
368.50138708043539
 20
185.82738453908209
 11
368.0828079789776
 21
185.62756900093754
  0
LINE
  8
_0-1__U_30EC_U_30A4_U_30E4_U_30FC_1_U_306E_U_30B3_U_30D4_U_30FC_2
  6
CONTINUOUS
 62
    7
 10
368.0828079789776
 20
185.62756900093754
 11
367.62667733673049
 21
185.52938377960785
  0
LINE
  8
_0-1__U_30EC_U_30A4_U_30E4_U_30FC_1_U_306E_U_30B3_U_30D4_U_30FC_2
  6
CONTINUOUS
 62
    7
 10
367.62667733673049
 20
185.52938377960785
 11
367.15952238893044
 21
185.54144161380631
  0
LINE
  8
_0-1__U_30EC_U_30A4_U_30E4_U_30FC_1_U_306E_U_30B3_U_30D4_U_30FC_2
  6
CONTINUOUS
 62
    7
 10
311.7403383750077
 20
185.54144161380631
 11
311.2745614654018
 21
185.52938377960785
  0
LINE
  8
_0-1__U_30EC_U_30A4_U_30E4_U_30FC_1_U_306E_U_30B3_U_30D4_U_30FC_2
  6
CONTINUOUS
 62
    7
 10
311.2745614654018
 20
185.52938377960785
 11
310.81739729450908
 21
185.62756900093754
  0
LINE
  8
_0-1__U_30EC_U_30A4_U_30E4_U_30FC_1_U_306E_U_30B3_U_30D4_U_30FC_2
  6
CONTINUOUS
 62
    7
 10
310.81739729450908
 20
185.62756900093754
 11
310.39744015485724
 21
185.82738453908209
  0
LINE
  8
_0-1__U_30EC_U_30A4_U_30E4_U_30FC_1_U_306E_U_30B3_U_30D4_U_30FC_2
  6
CONTINUOUS
 62
    7
 10
310.39744015485724
 20
185.82738453908209
 11
310.03191552387204
 21
186.11780608848866
  0
LINE
  8
_0-1__U_30EC_U_30A4_U_30E4_U_30FC_1_U_306E_U_30B3_U_30D4_U_30FC_2
  6
CONTINUOUS
 62
    7
 10
310.03191552387204
 20
186.11780608848866
 11
309.74459456040233
 21
186.48384748379644
  0
LINE
  8
_0-1__U_30EC_U_30A4_U_30E4_U_30FC_1_U_306E_U_30B3_U_30D4_U_30FC_2
  6
CONTINUOUS
 62
    7
 10
309.74459456040233
 20
186.48384748379644
 11
309.54443451270924
 21
186.90673295461087
  0
LINE
  8
_0-1__U_30EC_U_30A4_U_30E4_U_30FC_1_U_306E_U_30B3_U_30D4_U_30FC_2
  6
CONTINUOUS
 62
    7
 10
309.54443451270924
 20
186.90673295461087
 11
309.4465938009281
 21
187.36165781343797
  0
LINE
  8
_0-1__U_30EC_U_30A4_U_30E4_U_30FC_1_U_306E_U_30B3_U_30D4_U_30FC_2
  6
CONTINUOUS
 62
    7
 10
309.4465938009281
 20
187.36165781343797
 11
309.45761810648105
 21
187.82640119439824
  0
LINE
  8
_0-1__U_30EC_U_30A4_U_30E4_U_30FC_1_U_306E_U_30B3_U_30D4_U_30FC_2
  6
CONTINUOUS
 62
    7
 10
367.15952238893044
 20
133.58285601481688
 11
367.62667733673049
 21
133.59560286811219
  0
LINE
  8
_0-1__U_30EC_U_30A4_U_30E4_U_30FC_1_U_306E_U_30B3_U_30D4_U_30FC_2
  6
CONTINUOUS
 62
    7
 10
367.62667733673049
 20
133.59560286811219
 11
368.0828079789776
 21
133.49810666587959
  0
LINE
  8
_0-1__U_30EC_U_30A4_U_30E4_U_30FC_1_U_306E_U_30B3_U_30D4_U_30FC_2
  6
CONTINUOUS
 62
    7
 10
368.0828079789776
 20
133.49810666587959
 11
368.5024206090809
 21
133.30070269457482
  0
LINE
  8
_0-1__U_30EC_U_30A4_U_30E4_U_30FC_1_U_306E_U_30B3_U_30D4_U_30FC_2
  6
CONTINUOUS
 62
    7
 10
368.5024206090809
 20
133.30070269457482
 11
368.86863425916306
 21
133.01062565471668
  0
LINE
  8
_0-1__U_30EC_U_30A4_U_30E4_U_30FC_1_U_306E_U_30B3_U_30D4_U_30FC_2
  6
CONTINUOUS
 62
    7
 10
368.86863425916306
 20
133.01062565471668
 11
369.15561071308434
 21
132.64441200463475
  0
LINE
  8
_0-1__U_30EC_U_30A4_U_30E4_U_30FC_1_U_306E_U_30B3_U_30D4_U_30FC_2
  6
CONTINUOUS
 62
    7
 10
369.15561071308434
 20
132.64441200463475
 11
369.35714879897137
 21
132.22411035543414
  0
LINE
  8
_0-1__U_30EC_U_30A4_U_30E4_U_30FC_1_U_306E_U_30B3_U_30D4_U_30FC_2
  6
CONTINUOUS
 62
    7
 10
369.35714879897137
 20
132.22411035543414
 11
369.45464500120409
 21
131.76660167499298
  0
LINE
  8
_0-1__U_30EC_U_30A4_U_30E4_U_30FC_1_U_306E_U_30B3_U_30D4_U_30FC_2
  6
CONTINUOUS
 62
    7
 10
369.45464500120409
 20
131.76660167499298
 11
369.44362069565125
 21
131.29944672719316
  0
LINE
  8
_0-1__U_30EC_U_30A4_U_30E4_U_30FC_1_U_306E_U_30B3_U_30D4_U_30FC_2
  6
CONTINUOUS
 62
    7
 10
311.18808956872203
 20
189.5570449114135
 11
311.65317745923073
 21
189.56703568832071
  0
LINE
  8
_0-1__U_30EC_U_30A4_U_30E4_U_30FC_1_U_306E_U_30B3_U_30D4_U_30FC_2
  6
CONTINUOUS
 62
    7
 10
311.65317745923073
 20
189.56703568832071
 11
312.11068613967188
 21
189.47195105292789
  0
LINE
  8
_0-1__U_30EC_U_30A4_U_30E4_U_30FC_1_U_306E_U_30B3_U_30D4_U_30FC_2
  6
CONTINUOUS
 62
    7
 10
312.11068613967188
 20
189.47195105292789
 11
312.53305484616351
 21
189.27454708162301
  0
LINE
  8
_0-1__U_30EC_U_30A4_U_30E4_U_30FC_1_U_306E_U_30B3_U_30D4_U_30FC_2
  6
CONTINUOUS
 62
    7
 10
312.53305484616351
 20
189.27454708162301
 11
312.90099104398826
 21
188.98257523924812
  0
LINE
  8
_0-1__U_30EC_U_30A4_U_30E4_U_30FC_1_U_306E_U_30B3_U_30D4_U_30FC_2
  6
CONTINUOUS
 62
    7
 10
312.90099104398826
 20
188.98257523924812
 11
313.18796749790965
 21
188.61687835348889
  0
LINE
  8
_0-1__U_30EC_U_30A4_U_30E4_U_30FC_1_U_306E_U_30B3_U_30D4_U_30FC_2
  6
CONTINUOUS
 62
    7
 10
313.18796749790965
 20
188.61687835348889
 11
313.38743852650555
 21
188.19433739222299
  0
LINE
  8
_0-1__U_30EC_U_30A4_U_30E4_U_30FC_1_U_306E_U_30B3_U_30D4_U_30FC_2
  6
CONTINUOUS
 62
    7
 10
313.38743852650555
 20
188.19433739222299
 11
313.48321218099545
 21
187.74027380726702
  0
LINE
  8
_0-1__U_30EC_U_30A4_U_30E4_U_30FC_1_U_306E_U_30B3_U_30D4_U_30FC_2
  6
CONTINUOUS
 62
    7
 10
313.48321218099545
 20
187.74027380726702
 11
313.47494395183094
 21
187.27277434991865
  0
LINE
  8
_0-1__U_30EC_U_30A4_U_30E4_U_30FC_1_U_306E_U_30B3_U_30D4_U_30FC_2
  6
CONTINUOUS
 62
    7
 10
367.71246021431318
 20
129.57069781269487
 11
367.24840585244999
 21
129.56174056443305
  0
LINE
  8
_0-1__U_30EC_U_30A4_U_30E4_U_30FC_1_U_306E_U_30B3_U_30D4_U_30FC_2
  6
CONTINUOUS
 62
    7
 10
367.24840585244999
 20
129.56174056443305
 11
366.78848560516917
 21
129.65820323802004
  0
LINE
  8
_0-1__U_30EC_U_30A4_U_30E4_U_30FC_1_U_306E_U_30B3_U_30D4_U_30FC_2
  6
CONTINUOUS
 62
    7
 10
366.78848560516917
 20
129.65820323802004
 11
366.36680591777451
 21
129.85422917113087
  0
LINE
  8
_0-1__U_30EC_U_30A4_U_30E4_U_30FC_1_U_306E_U_30B3_U_30D4_U_30FC_2
  6
CONTINUOUS
 62
    7
 10
366.36680591777451
 20
129.85422917113087
 11
365.99955873904685
 21
130.14499523008598
  0
LINE
  8
_0-1__U_30EC_U_30A4_U_30E4_U_30FC_1_U_306E_U_30B3_U_30D4_U_30FC_2
  6
CONTINUOUS
 62
    7
 10
365.99955873904685
 20
130.14499523008598
 11
365.7129267946741
 21
130.50879731332824
  0
LINE
  8
_0-1__U_30EC_U_30A4_U_30E4_U_30FC_1_U_306E_U_30B3_U_30D4_U_30FC_2
  6
CONTINUOUS
 62
    7
 10
365.7129267946741
 20
130.50879731332824
 11
365.51207772788405
 21
130.93219954846549
  0
LINE
  8
_0-1__U_30EC_U_30A4_U_30E4_U_30FC_1_U_306E_U_30B3_U_30D4_U_30FC_2
  6
CONTINUOUS
 62
    7
 10
365.51207772788405
 20
130.93219954846549
 11
365.41837113068516
 21
131.38901920980967
  0
LINE
  8
_0-1__U_30EC_U_30A4_U_30E4_U_30FC_1_U_306E_U_30B3_U_30D4_U_30FC_2
  6
CONTINUOUS
 62
    7
 10
365.41837113068516
 20
131.38901920980967
 11
365.42526132165585
 21
131.85582964806107
  0
LINE
  8
_0-1__U_30EC_U_30A4_U_30E4_U_30FC_1_U_306E_U_30B3_U_30D4_U_30FC_2
  6
CONTINUOUS
 62
    7
 10
303.14275808201808
 20
178.09745154405275
 11
307.15836137962526
 21
178.09745154405275
  0
LINE
  8
_0-1__U_30EC_U_30A4_U_30E4_U_30FC_1_U_306E_U_30B3_U_30D4_U_30FC_2
  6
CONTINUOUS
 62
    7
 10
307.15836137962526
 20
182.63464229812675
 11
303.14275808201808
 21
182.63464229812675
  0
LINE
  8
_0-1__U_30EC_U_30A4_U_30E4_U_30FC_1_U_306E_U_30B3_U_30D4_U_30FC_2
  6
CONTINUOUS
 62
    7
 10
307.15836137962526
 20
174.94243309866087
 11
303.14275808201808
 21
174.94243309866087
  0
LINE
  8
_0-1__U_30EC_U_30A4_U_30E4_U_30FC_1_U_306E_U_30B3_U_30D4_U_30FC_2
  6
CONTINUOUS
 62
    7
 10
303.14275808201808
 20
185.7869046671303
 11
307.15836137962526
 21
185.7869046671303
  0
LINE
  8
_0-1__U_30EC_U_30A4_U_30E4_U_30FC_1_U_306E_U_30B3_U_30D4_U_30FC_2
  6
CONTINUOUS
 62
    7
 10
303.14275808201808
 20
174.94243309866087
 11
302.04928477499971
 21
175.0526761541889
  0
LINE
  8
_0-1__U_30EC_U_30A4_U_30E4_U_30FC_1_U_306E_U_30B3_U_30D4_U_30FC_2
  6
CONTINUOUS
 62
    7
 10
302.04928477499971
 20
175.0526761541889
 11
301.03125905910849
 21
175.36859141018633
  0
LINE
  8
_0-1__U_30EC_U_30A4_U_30E4_U_30FC_1_U_306E_U_30B3_U_30D4_U_30FC_2
  6
CONTINUOUS
 62
    7
 10
301.03125905910849
 20
175.36859141018633
 11
300.11004052635269
 21
175.86847476509601
  0
LINE
  8
_0-1__U_30EC_U_30A4_U_30E4_U_30FC_1_U_306E_U_30B3_U_30D4_U_30FC_2
  6
CONTINUOUS
 62
    7
 10
300.11004052635269
 20
175.86847476509601
 11
299.30733327828943
 21
176.53062211736105
  0
LINE
  8
_0-1__U_30EC_U_30A4_U_30E4_U_30FC_1_U_306E_U_30B3_U_30D4_U_30FC_2
  6
CONTINUOUS
 62
    7
 10
299.30733327828943
 20
176.53062211736105
 11
298.64518592602451
 21
177.33332936542431
  0
LINE
  8
_0-1__U_30EC_U_30A4_U_30E4_U_30FC_1_U_306E_U_30B3_U_30D4_U_30FC_2
  6
CONTINUOUS
 62
    7
 10
298.64518592602451
 20
177.33332936542431
 11
298.1453025711146
 21
178.25454789818011
  0
LINE
  8
_0-1__U_30EC_U_30A4_U_30E4_U_30FC_1_U_306E_U_30B3_U_30D4_U_30FC_2
  6
CONTINUOUS
 62
    7
 10
298.1453025711146
 20
178.25454789818011
 11
297.82973182466571
 21
179.27291812361986
  0
LINE
  8
_0-1__U_30EC_U_30A4_U_30E4_U_30FC_1_U_306E_U_30B3_U_30D4_U_30FC_2
  6
CONTINUOUS
 62
    7
 10
297.82973182466571
 20
179.27291812361986
 11
297.71948876913791
 21
180.36639143063823
  0
LINE
  8
_0-1__U_30EC_U_30A4_U_30E4_U_30FC_1_U_306E_U_30B3_U_30D4_U_30FC_2
  6
CONTINUOUS
 62
    7
 10
297.71948876913791
 20
180.36639143063823
 11
297.82973182466571
 21
181.45917571855952
  0
LINE
  8
_0-1__U_30EC_U_30A4_U_30E4_U_30FC_1_U_306E_U_30B3_U_30D4_U_30FC_2
  6
CONTINUOUS
 62
    7
 10
297.82973182466571
 20
181.45917571855952
 11
298.1453025711146
 21
182.47685692490231
  0
LINE
  8
_0-1__U_30EC_U_30A4_U_30E4_U_30FC_1_U_306E_U_30B3_U_30D4_U_30FC_2
  6
CONTINUOUS
 62
    7
 10
298.1453025711146
 20
182.47685692490231
 11
298.64518592602451
 21
183.39738643856103
  0
LINE
  8
_0-1__U_30EC_U_30A4_U_30E4_U_30FC_1_U_306E_U_30B3_U_30D4_U_30FC_2
  6
CONTINUOUS
 62
    7
 10
298.64518592602451
 20
183.39738643856103
 11
299.30733327828943
 21
184.1994046675272
  0
LINE
  8
_0-1__U_30EC_U_30A4_U_30E4_U_30FC_1_U_306E_U_30B3_U_30D4_U_30FC_2
  6
CONTINUOUS
 62
    7
 10
299.30733327828943
 20
184.1994046675272
 11
300.11004052635269
 21
184.86155201979224
  0
LINE
  8
_0-1__U_30EC_U_30A4_U_30E4_U_30FC_1_U_306E_U_30B3_U_30D4_U_30FC_2
  6
CONTINUOUS
 62
    7
 10
300.11004052635269
 20
184.86155201979224
 11
301.03125905910849
 21
185.36109086515339
  0
LINE
  8
_0-1__U_30EC_U_30A4_U_30E4_U_30FC_1_U_306E_U_30B3_U_30D4_U_30FC_2
  6
CONTINUOUS
 62
    7
 10
301.03125905910849
 20
185.36109086515339
 11
302.04928477499971
 21
185.67666161160227
  0
LINE
  8
_0-1__U_30EC_U_30A4_U_30E4_U_30FC_1_U_306E_U_30B3_U_30D4_U_30FC_2
  6
CONTINUOUS
 62
    7
 10
302.04928477499971
 20
185.67666161160227
 11
303.14275808201808
 21
185.7869046671303
  0
LINE
  8
_0-1__U_30EC_U_30A4_U_30E4_U_30FC_1_U_306E_U_30B3_U_30D4_U_30FC_2
  6
CONTINUOUS
 62
    7
 10
303.14275808201808
 20
182.63464229812675
 11
302.25978010914855
 21
182.45618635199079
  0
LINE
  8
_0-1__U_30EC_U_30A4_U_30E4_U_30FC_1_U_306E_U_30B3_U_30D4_U_30FC_2
  6
CONTINUOUS
 62
    7
 10
302.25978010914855
 20
182.45618635199079
 11
301.53837711453718
 21
181.9697388694735
  0
LINE
  8
_0-1__U_30EC_U_30A4_U_30E4_U_30FC_1_U_306E_U_30B3_U_30D4_U_30FC_2
  6
CONTINUOUS
 62
    7
 10
301.53837711453718
 20
181.9697388694735
 11
301.05192963202001
 21
181.24833587486214
  0
LINE
  8
_0-1__U_30EC_U_30A4_U_30E4_U_30FC_1_U_306E_U_30B3_U_30D4_U_30FC_2
  6
CONTINUOUS
 62
    7
 10
301.05192963202001
 20
181.24833587486214
 11
300.87347368588405
 21
180.36501339244407
  0
LINE
  8
_0-1__U_30EC_U_30A4_U_30E4_U_30FC_1_U_306E_U_30B3_U_30D4_U_30FC_2
  6
CONTINUOUS
 62
    7
 10
300.87347368588405
 20
180.36501339244407
 11
301.05192963202001
 21
179.48169091002612
  0
LINE
  8
_0-1__U_30EC_U_30A4_U_30E4_U_30FC_1_U_306E_U_30B3_U_30D4_U_30FC_2
  6
CONTINUOUS
 62
    7
 10
301.05192963202001
 20
179.48169091002612
 11
301.53837711453718
 21
178.76097693451183
  0
LINE
  8
_0-1__U_30EC_U_30A4_U_30E4_U_30FC_1_U_306E_U_30B3_U_30D4_U_30FC_2
  6
CONTINUOUS
 62
    7
 10
301.53837711453718
 20
178.76097693451183
 11
302.25978010914855
 21
178.27556298064005
  0
LINE
  8
_0-1__U_30EC_U_30A4_U_30E4_U_30FC_1_U_306E_U_30B3_U_30D4_U_30FC_2
  6
CONTINUOUS
 62
    7
 10
302.25978010914855
 20
178.27556298064005
 11
303.14275808201808
 21
178.09745154405275
  0
LINE
  8
_0-1__U_30EC_U_30A4_U_30E4_U_30FC_1_U_306E_U_30B3_U_30D4_U_30FC_2
  6
CONTINUOUS
 62
    7
 10
307.1587058891738
 20
174.94243309866087
 11
308.25217919619206
 21
175.0526761541889
  0
LINE
  8
_0-1__U_30EC_U_30A4_U_30E4_U_30FC_1_U_306E_U_30B3_U_30D4_U_30FC_2
  6
CONTINUOUS
 62
    7
 10
308.25217919619206
 20
175.0526761541889
 11
309.27020491208339
 21
175.36859141018633
  0
LINE
  8
_0-1__U_30EC_U_30A4_U_30E4_U_30FC_1_U_306E_U_30B3_U_30D4_U_30FC_2
  6
CONTINUOUS
 62
    7
 10
309.27020491208339
 20
175.36859141018633
 11
310.19142344483919
 21
175.86847476509601
  0
LINE
  8
_0-1__U_30EC_U_30A4_U_30E4_U_30FC_1_U_306E_U_30B3_U_30D4_U_30FC_2
  6
CONTINUOUS
 62
    7
 10
310.19142344483919
 20
175.86847476509601
 11
310.99413069290244
 21
176.53062211736105
  0
LINE
  8
_0-1__U_30EC_U_30A4_U_30E4_U_30FC_1_U_306E_U_30B3_U_30D4_U_30FC_2
  6
CONTINUOUS
 62
    7
 10
310.99413069290244
 20
176.53062211736105
 11
311.6562780451676
 21
177.33332936542431
  0
LINE
  8
_0-1__U_30EC_U_30A4_U_30E4_U_30FC_1_U_306E_U_30B3_U_30D4_U_30FC_2
  6
CONTINUOUS
 62
    7
 10
311.6562780451676
 20
177.33332936542431
 11
312.15616140007717
 21
178.25454789818011
  0
LINE
  8
_0-1__U_30EC_U_30A4_U_30E4_U_30FC_1_U_306E_U_30B3_U_30D4_U_30FC_2
  6
CONTINUOUS
 62
    7
 10
312.15616140007717
 20
178.25454789818011
 11
312.47173214652605
 21
179.27291812361986
  0
LINE
  8
_0-1__U_30EC_U_30A4_U_30E4_U_30FC_1_U_306E_U_30B3_U_30D4_U_30FC_2
  6
CONTINUOUS
 62
    7
 10
312.47173214652605
 20
179.27291812361986
 11
312.5819752020542
 21
180.36639143063823
  0
LINE
  8
_0-1__U_30EC_U_30A4_U_30E4_U_30FC_1_U_306E_U_30B3_U_30D4_U_30FC_2
  6
CONTINUOUS
 62
    7
 10
312.5819752020542
 20
180.36639143063823
 11
312.47173214652605
 21
181.45917571855952
  0
LINE
  8
_0-1__U_30EC_U_30A4_U_30E4_U_30FC_1_U_306E_U_30B3_U_30D4_U_30FC_2
  6
CONTINUOUS
 62
    7
 10
312.47173214652605
 20
181.45917571855952
 11
312.15616140007717
 21
182.47685692490231
  0
LINE
  8
_0-1__U_30EC_U_30A4_U_30E4_U_30FC_1_U_306E_U_30B3_U_30D4_U_30FC_2
  6
CONTINUOUS
 62
    7
 10
312.15616140007717
 20
182.47685692490231
 11
311.6562780451676
 21
183.39738643856103
  0
LINE
  8
_0-1__U_30EC_U_30A4_U_30E4_U_30FC_1_U_306E_U_30B3_U_30D4_U_30FC_2
  6
CONTINUOUS
 62
    7
 10
311.6562780451676
 20
183.39738643856103
 11
310.99413069290244
 21
184.1994046675272
  0
LINE
  8
_0-1__U_30EC_U_30A4_U_30E4_U_30FC_1_U_306E_U_30B3_U_30D4_U_30FC_2
  6
CONTINUOUS
 62
    7
 10
310.99413069290244
 20
184.1994046675272
 11
310.19142344483919
 21
184.86155201979224
  0
LINE
  8
_0-1__U_30EC_U_30A4_U_30E4_U_30FC_1_U_306E_U_30B3_U_30D4_U_30FC_2
  6
CONTINUOUS
 62
    7
 10
310.19142344483919
 20
184.86155201979224
 11
309.27020491208339
 21
185.36109086515339
  0
LINE
  8
_0-1__U_30EC_U_30A4_U_30E4_U_30FC_1_U_306E_U_30B3_U_30D4_U_30FC_2
  6
CONTINUOUS
 62
    7
 10
309.27020491208339
 20
185.36109086515339
 11
308.25217919619206
 21
185.67666161160227
  0
LINE
  8
_0-1__U_30EC_U_30A4_U_30E4_U_30FC_1_U_306E_U_30B3_U_30D4_U_30FC_2
  6
CONTINUOUS
 62
    7
 10
308.25217919619206
 20
185.67666161160227
 11
307.1587058891738
 21
185.7869046671303
  0
LINE
  8
_0-1__U_30EC_U_30A4_U_30E4_U_30FC_1_U_306E_U_30B3_U_30D4_U_30FC_2
  6
CONTINUOUS
 62
    7
 10
307.1587058891738
 20
182.63464229812675
 11
308.04168386204333
 21
182.45618635199079
  0
LINE
  8
_0-1__U_30EC_U_30A4_U_30E4_U_30FC_1_U_306E_U_30B3_U_30D4_U_30FC_2
  6
CONTINUOUS
 62
    7
 10
308.04168386204333
 20
182.45618635199079
 11
308.7630868566547
 21
181.9697388694735
  0
LINE
  8
_0-1__U_30EC_U_30A4_U_30E4_U_30FC_1_U_306E_U_30B3_U_30D4_U_30FC_2
  6
CONTINUOUS
 62
    7
 10
308.7630868566547
 20
181.9697388694735
 11
309.24953433917187
 21
181.24833587486214
  0
LINE
  8
_0-1__U_30EC_U_30A4_U_30E4_U_30FC_1_U_306E_U_30B3_U_30D4_U_30FC_2
  6
CONTINUOUS
 62
    7
 10
309.24953433917187
 20
181.24833587486214
 11
309.42799028530794
 21
180.36501339244407
  0
LINE
  8
_0-1__U_30EC_U_30A4_U_30E4_U_30FC_1_U_306E_U_30B3_U_30D4_U_30FC_2
  6
CONTINUOUS
 62
    7
 10
309.42799028530794
 20
180.36501339244407
 11
309.24953433917187
 21
179.48169091002612
  0
LINE
  8
_0-1__U_30EC_U_30A4_U_30E4_U_30FC_1_U_306E_U_30B3_U_30D4_U_30FC_2
  6
CONTINUOUS
 62
    7
 10
309.24953433917187
 20
179.48169091002612
 11
308.7630868566547
 21
178.76097693451183
  0
LINE
  8
_0-1__U_30EC_U_30A4_U_30E4_U_30FC_1_U_306E_U_30B3_U_30D4_U_30FC_2
  6
CONTINUOUS
 62
    7
 10
308.7630868566547
 20
178.76097693451183
 11
308.04168386204333
 21
178.27556298064005
  0
LINE
  8
_0-1__U_30EC_U_30A4_U_30E4_U_30FC_1_U_306E_U_30B3_U_30D4_U_30FC_2
  6
CONTINUOUS
 62
    7
 10
308.04168386204333
 20
178.27556298064005
 11
307.1587058891738
 21
178.09745154405275
  0
LINE
  8
_0-1__U_30EC_U_30A4_U_30E4_U_30FC_1_U_306E_U_30B3_U_30D4_U_30FC_2
  6
CONTINUOUS
 62
    7
 10
371.74287742250692
 20
178.09745154405275
 11
375.75848072011411
 21
178.09745154405275
  0
LINE
  8
_0-1__U_30EC_U_30A4_U_30E4_U_30FC_1_U_306E_U_30B3_U_30D4_U_30FC_2
  6
CONTINUOUS
 62
    7
 10
375.75848072011411
 20
182.63464229812675
 11
371.74287742250692
 21
182.63464229812675
  0
LINE
  8
_0-1__U_30EC_U_30A4_U_30E4_U_30FC_1_U_306E_U_30B3_U_30D4_U_30FC_2
  6
CONTINUOUS
 62
    7
 10
375.75848072011411
 20
174.94243309866087
 11
371.74287742250692
 21
174.94243309866087
  0
LINE
  8
_0-1__U_30EC_U_30A4_U_30E4_U_30FC_1_U_306E_U_30B3_U_30D4_U_30FC_2
  6
CONTINUOUS
 62
    7
 10
371.74287742250692
 20
185.7869046671303
 11
375.75848072011411
 21
185.7869046671303
  0
LINE
  8
_0-1__U_30EC_U_30A4_U_30E4_U_30FC_1_U_306E_U_30B3_U_30D4_U_30FC_2
  6
CONTINUOUS
 62
    7
 10
371.74287742250692
 20
174.94243309866087
 11
370.64940411548866
 21
175.0526761541889
  0
LINE
  8
_0-1__U_30EC_U_30A4_U_30E4_U_30FC_1_U_306E_U_30B3_U_30D4_U_30FC_2
  6
CONTINUOUS
 62
    7
 10
370.64940411548866
 20
175.0526761541889
 11
369.63137839959734
 21
175.36859141018633
  0
LINE
  8
_0-1__U_30EC_U_30A4_U_30E4_U_30FC_1_U_306E_U_30B3_U_30D4_U_30FC_2
  6
CONTINUOUS
 62
    7
 10
369.63137839959734
 20
175.36859141018633
 11
368.71015986684154
 21
175.86847476509601
  0
LINE
  8
_0-1__U_30EC_U_30A4_U_30E4_U_30FC_1_U_306E_U_30B3_U_30D4_U_30FC_2
  6
CONTINUOUS
 62
    7
 10
368.71015986684154
 20
175.86847476509601
 11
367.90745261877839
 21
176.53062211736105
  0
LINE
  8
_0-1__U_30EC_U_30A4_U_30E4_U_30FC_1_U_306E_U_30B3_U_30D4_U_30FC_2
  6
CONTINUOUS
 62
    7
 10
367.90745261877839
 20
176.53062211736105
 11
367.24530526651324
 21
177.33332936542431
  0
LINE
  8
_0-1__U_30EC_U_30A4_U_30E4_U_30FC_1_U_306E_U_30B3_U_30D4_U_30FC_2
  6
CONTINUOUS
 62
    7
 10
367.24530526651324
 20
177.33332936542431
 11
366.74542191160344
 21
178.25454789818011
  0
LINE
  8
_0-1__U_30EC_U_30A4_U_30E4_U_30FC_1_U_306E_U_30B3_U_30D4_U_30FC_2
  6
CONTINUOUS
 62
    7
 10
366.74542191160344
 20
178.25454789818011
 11
366.42985116515467
 21
179.27291812361986
  0
LINE
  8
_0-1__U_30EC_U_30A4_U_30E4_U_30FC_1_U_306E_U_30B3_U_30D4_U_30FC_2
  6
CONTINUOUS
 62
    7
 10
366.42985116515467
 20
179.27291812361986
 11
366.31960810962664
 21
180.36639143063823
  0
LINE
  8
_0-1__U_30EC_U_30A4_U_30E4_U_30FC_1_U_306E_U_30B3_U_30D4_U_30FC_2
  6
CONTINUOUS
 62
    7
 10
366.31960810962664
 20
180.36639143063823
 11
366.42985116515467
 21
181.45917571855952
  0
LINE
  8
_0-1__U_30EC_U_30A4_U_30E4_U_30FC_1_U_306E_U_30B3_U_30D4_U_30FC_2
  6
CONTINUOUS
 62
    7
 10
366.42985116515467
 20
181.45917571855952
 11
366.74542191160344
 21
182.47685692490231
  0
LINE
  8
_0-1__U_30EC_U_30A4_U_30E4_U_30FC_1_U_306E_U_30B3_U_30D4_U_30FC_2
  6
CONTINUOUS
 62
    7
 10
366.74542191160344
 20
182.47685692490231
 11
367.24530526651324
 21
183.39738643856103
  0
LINE
  8
_0-1__U_30EC_U_30A4_U_30E4_U_30FC_1_U_306E_U_30B3_U_30D4_U_30FC_2
  6
CONTINUOUS
 62
    7
 10
367.24530526651324
 20
183.39738643856103
 11
367.90745261877839
 21
184.1994046675272
  0
LINE
  8
_0-1__U_30EC_U_30A4_U_30E4_U_30FC_1_U_306E_U_30B3_U_30D4_U_30FC_2
  6
CONTINUOUS
 62
    7
 10
367.90745261877839
 20
184.1994046675272
 11
368.71015986684154
 21
184.86155201979224
  0
LINE
  8
_0-1__U_30EC_U_30A4_U_30E4_U_30FC_1_U_306E_U_30B3_U_30D4_U_30FC_2
  6
CONTINUOUS
 62
    7
 10
368.71015986684154
 20
184.86155201979224
 11
369.63137839959734
 21
185.36109086515339
  0
LINE
  8
_0-1__U_30EC_U_30A4_U_30E4_U_30FC_1_U_306E_U_30B3_U_30D4_U_30FC_2
  6
CONTINUOUS
 62
    7
 10
369.63137839959734
 20
185.36109086515339
 11
370.64940411548866
 21
185.67666161160227
  0
LINE
  8
_0-1__U_30EC_U_30A4_U_30E4_U_30FC_1_U_306E_U_30B3_U_30D4_U_30FC_2
  6
CONTINUOUS
 62
    7
 10
370.64940411548866
 20
185.67666161160227
 11
371.74287742250692
 21
185.7869046671303
  0
LINE
  8
_0-1__U_30EC_U_30A4_U_30E4_U_30FC_1_U_306E_U_30B3_U_30D4_U_30FC_2
  6
CONTINUOUS
 62
    7
 10
371.74287742250692
 20
182.63464229812675
 11
370.85989944963751
 21
182.45618635199079
  0
LINE
  8
_0-1__U_30EC_U_30A4_U_30E4_U_30FC_1_U_306E_U_30B3_U_30D4_U_30FC_2
  6
CONTINUOUS
 62
    7
 10
370.85989944963751
 20
182.45618635199079
 11
370.13849645502603
 21
181.9697388694735
  0
LINE
  8
_0-1__U_30EC_U_30A4_U_30E4_U_30FC_1_U_306E_U_30B3_U_30D4_U_30FC_2
  6
CONTINUOUS
 62
    7
 10
370.13849645502603
 20
181.9697388694735
 11
369.65204897250885
 21
181.24833587486214
  0
LINE
  8
_0-1__U_30EC_U_30A4_U_30E4_U_30FC_1_U_306E_U_30B3_U_30D4_U_30FC_2
  6
CONTINUOUS
 62
    7
 10
369.65204897250885
 20
181.24833587486214
 11
369.4735930263729
 21
180.36501339244407
  0
LINE
  8
_0-1__U_30EC_U_30A4_U_30E4_U_30FC_1_U_306E_U_30B3_U_30D4_U_30FC_2
  6
CONTINUOUS
 62
    7
 10
369.4735930263729
 20
180.36501339244407
 11
369.65204897250885
 21
179.48169091002612
  0
LINE
  8
_0-1__U_30EC_U_30A4_U_30E4_U_30FC_1_U_306E_U_30B3_U_30D4_U_30FC_2
  6
CONTINUOUS
 62
    7
 10
369.65204897250885
 20
179.48169091002612
 11
370.13849645502603
 21
178.76097693451183
  0
LINE
  8
_0-1__U_30EC_U_30A4_U_30E4_U_30FC_1_U_306E_U_30B3_U_30D4_U_30FC_2
  6
CONTINUOUS
 62
    7
 10
370.13849645502603
 20
178.76097693451183
 11
370.85989944963751
 21
178.27556298064005
  0
LINE
  8
_0-1__U_30EC_U_30A4_U_30E4_U_30FC_1_U_306E_U_30B3_U_30D4_U_30FC_2
  6
CONTINUOUS
 62
    7
 10
370.85989944963751
 20
178.27556298064005
 11
371.74287742250692
 21
178.09745154405275
  0
LINE
  8
_0-1__U_30EC_U_30A4_U_30E4_U_30FC_1_U_306E_U_30B3_U_30D4_U_30FC_2
  6
CONTINUOUS
 62
    7
 10
375.75882522966276
 20
174.94243309866087
 11
376.85229853668091
 21
175.0526761541889
  0
LINE
  8
_0-1__U_30EC_U_30A4_U_30E4_U_30FC_1_U_306E_U_30B3_U_30D4_U_30FC_2
  6
CONTINUOUS
 62
    7
 10
376.85229853668091
 20
175.0526761541889
 11
377.87032425257235
 21
175.36859141018633
  0
LINE
  8
_0-1__U_30EC_U_30A4_U_30E4_U_30FC_1_U_306E_U_30B3_U_30D4_U_30FC_2
  6
CONTINUOUS
 62
    7
 10
377.87032425257235
 20
175.36859141018633
 11
378.79154278532815
 21
175.86847476509601
  0
LINE
  8
_0-1__U_30EC_U_30A4_U_30E4_U_30FC_1_U_306E_U_30B3_U_30D4_U_30FC_2
  6
CONTINUOUS
 62
    7
 10
378.79154278532815
 20
175.86847476509601
 11
379.5942500333914
 21
176.53062211736105
  0
LINE
  8
_0-1__U_30EC_U_30A4_U_30E4_U_30FC_1_U_306E_U_30B3_U_30D4_U_30FC_2
  6
CONTINUOUS
 62
    7
 10
379.5942500333914
 20
176.53062211736105
 11
380.25639738565621
 21
177.33332936542431
  0
LINE
  8
_0-1__U_30EC_U_30A4_U_30E4_U_30FC_1_U_306E_U_30B3_U_30D4_U_30FC_2
  6
CONTINUOUS
 62
    7
 10
380.25639738565621
 20
177.33332936542431
 11
380.75628074056601
 21
178.25454789818011
  0
LINE
  8
_0-1__U_30EC_U_30A4_U_30E4_U_30FC_1_U_306E_U_30B3_U_30D4_U_30FC_2
  6
CONTINUOUS
 62
    7
 10
380.75628074056601
 20
178.25454789818011
 11
381.0718514870149
 21
179.27291812361986
  0
LINE
  8
_0-1__U_30EC_U_30A4_U_30E4_U_30FC_1_U_306E_U_30B3_U_30D4_U_30FC_2
  6
CONTINUOUS
 62
    7
 10
381.0718514870149
 20
179.27291812361986
 11
381.18209454254304
 21
180.36639143063823
  0
LINE
  8
_0-1__U_30EC_U_30A4_U_30E4_U_30FC_1_U_306E_U_30B3_U_30D4_U_30FC_2
  6
CONTINUOUS
 62
    7
 10
381.18209454254304
 20
180.36639143063823
 11
381.0718514870149
 21
181.45917571855952
  0
LINE
  8
_0-1__U_30EC_U_30A4_U_30E4_U_30FC_1_U_306E_U_30B3_U_30D4_U_30FC_2
  6
CONTINUOUS
 62
    7
 10
381.0718514870149
 20
181.45917571855952
 11
380.75628074056601
 21
182.47685692490231
  0
LINE
  8
_0-1__U_30EC_U_30A4_U_30E4_U_30FC_1_U_306E_U_30B3_U_30D4_U_30FC_2
  6
CONTINUOUS
 62
    7
 10
380.75628074056601
 20
182.47685692490231
 11
380.25639738565621
 21
183.39738643856103
  0
LINE
  8
_0-1__U_30EC_U_30A4_U_30E4_U_30FC_1_U_306E_U_30B3_U_30D4_U_30FC_2
  6
CONTINUOUS
 62
    7
 10
380.25639738565621
 20
183.39738643856103
 11
379.5942500333914
 21
184.1994046675272
  0
LINE
  8
_0-1__U_30EC_U_30A4_U_30E4_U_30FC_1_U_306E_U_30B3_U_30D4_U_30FC_2
  6
CONTINUOUS
 62
    7
 10
379.5942500333914
 20
184.1994046675272
 11
378.79154278532815
 21
184.86155201979224
  0
LINE
  8
_0-1__U_30EC_U_30A4_U_30E4_U_30FC_1_U_306E_U_30B3_U_30D4_U_30FC_2
  6
CONTINUOUS
 62
    7
 10
378.79154278532815
 20
184.86155201979224
 11
377.87032425257235
 21
185.36109086515339
  0
LINE
  8
_0-1__U_30EC_U_30A4_U_30E4_U_30FC_1_U_306E_U_30B3_U_30D4_U_30FC_2
  6
CONTINUOUS
 62
    7
 10
377.87032425257235
 20
185.36109086515339
 11
376.85229853668091
 21
185.67666161160227
  0
LINE
  8
_0-1__U_30EC_U_30A4_U_30E4_U_30FC_1_U_306E_U_30B3_U_30D4_U_30FC_2
  6
CONTINUOUS
 62
    7
 10
376.85229853668091
 20
185.67666161160227
 11
375.75882522966276
 21
185.7869046671303
  0
LINE
  8
_0-1__U_30EC_U_30A4_U_30E4_U_30FC_1_U_306E_U_30B3_U_30D4_U_30FC_2
  6
CONTINUOUS
 62
    7
 10
375.75882522966276
 20
182.63464229812675
 11
376.64180320253229
 21
182.45618635199079
  0
LINE
  8
_0-1__U_30EC_U_30A4_U_30E4_U_30FC_1_U_306E_U_30B3_U_30D4_U_30FC_2
  6
CONTINUOUS
 62
    7
 10
376.64180320253229
 20
182.45618635199079
 11
377.36320619714354
 21
181.9697388694735
  0
LINE
  8
_0-1__U_30EC_U_30A4_U_30E4_U_30FC_1_U_306E_U_30B3_U_30D4_U_30FC_2
  6
CONTINUOUS
 62
    7
 10
377.36320619714354
 20
181.9697388694735
 11
377.84965367966083
 21
181.24833587486214
  0
LINE
  8
_0-1__U_30EC_U_30A4_U_30E4_U_30FC_1_U_306E_U_30B3_U_30D4_U_30FC_2
  6
CONTINUOUS
 62
    7
 10
377.84965367966083
 20
181.24833587486214
 11
378.02810962579679
 21
180.36501339244407
  0
LINE
  8
_0-1__U_30EC_U_30A4_U_30E4_U_30FC_1_U_306E_U_30B3_U_30D4_U_30FC_2
  6
CONTINUOUS
 62
    7
 10
378.02810962579679
 20
180.36501339244407
 11
377.84965367966083
 21
179.48169091002612
  0
LINE
  8
_0-1__U_30EC_U_30A4_U_30E4_U_30FC_1_U_306E_U_30B3_U_30D4_U_30FC_2
  6
CONTINUOUS
 62
    7
 10
377.84965367966083
 20
179.48169091002612
 11
377.36320619714354
 21
178.76097693451183
  0
LINE
  8
_0-1__U_30EC_U_30A4_U_30E4_U_30FC_1_U_306E_U_30B3_U_30D4_U_30FC_2
  6
CONTINUOUS
 62
    7
 10
377.36320619714354
 20
178.76097693451183
 11
376.64180320253229
 21
178.27556298064005
  0
LINE
  8
_0-1__U_30EC_U_30A4_U_30E4_U_30FC_1_U_306E_U_30B3_U_30D4_U_30FC_2
  6
CONTINUOUS
 62
    7
 10
376.64180320253229
 20
178.27556298064005
 11
375.75882522966276
 21
178.09745154405275
  0
LINE
  8
_0-1__U_30EC_U_30A4_U_30E4_U_30FC_1_U_306E_U_30B3_U_30D4_U_30FC_2
  6
CONTINUOUS
 62
    7
 10
302.88368690152731
 20
140.71454817883236
 11
302.88368690152731
 21
136.69894488122517
  0
LINE
  8
_0-1__U_30EC_U_30A4_U_30E4_U_30FC_1_U_306E_U_30B3_U_30D4_U_30FC_2
  6
CONTINUOUS
 62
    7
 10
307.42087765560132
 20
136.69894488122517
 11
307.42087765560132
 21
140.71454817883236
  0
LINE
  8
_0-1__U_30EC_U_30A4_U_30E4_U_30FC_1_U_306E_U_30B3_U_30D4_U_30FC_2
  6
CONTINUOUS
 62
    7
 10
299.72866845613555
 20
136.69894488122517
 11
299.72866845613555
 21
140.71454817883236
  0
LINE
  8
_0-1__U_30EC_U_30A4_U_30E4_U_30FC_1_U_306E_U_30B3_U_30D4_U_30FC_2
  6
CONTINUOUS
 62
    7
 10
310.57314002460487
 20
140.71454817883236
 11
310.57314002460487
 21
136.69894488122517
  0
LINE
  8
_0-1__U_30EC_U_30A4_U_30E4_U_30FC_1_U_306E_U_30B3_U_30D4_U_30FC_2
  6
CONTINUOUS
 62
    7
 10
299.72866845613555
 20
140.71454817883236
 11
299.83891151166347
 21
141.80802148585073
  0
LINE
  8
_0-1__U_30EC_U_30A4_U_30E4_U_30FC_1_U_306E_U_30B3_U_30D4_U_30FC_2
  6
CONTINUOUS
 62
    7
 10
299.83891151166347
 20
141.80802148585073
 11
300.15482676766089
 21
142.82604720174217
  0
LINE
  8
_0-1__U_30EC_U_30A4_U_30E4_U_30FC_1_U_306E_U_30B3_U_30D4_U_30FC_2
  6
CONTINUOUS
 62
    7
 10
300.15482676766089
 20
142.82604720174217
 11
300.65471012257069
 21
143.74726573449797
  0
LINE
  8
_0-1__U_30EC_U_30A4_U_30E4_U_30FC_1_U_306E_U_30B3_U_30D4_U_30FC_2
  6
CONTINUOUS
 62
    7
 10
300.65471012257069
 20
143.74726573449797
 11
301.31685747483561
 21
144.54997298256112
  0
LINE
  8
_0-1__U_30EC_U_30A4_U_30E4_U_30FC_1_U_306E_U_30B3_U_30D4_U_30FC_2
  6
CONTINUOUS
 62
    7
 10
301.31685747483561
 20
144.54997298256112
 11
302.11956472289887
 21
145.21212033482615
  0
LINE
  8
_0-1__U_30EC_U_30A4_U_30E4_U_30FC_1_U_306E_U_30B3_U_30D4_U_30FC_2
  6
CONTINUOUS
 62
    7
 10
302.11956472289887
 20
145.21212033482615
 11
303.04078325565467
 21
145.71200368973595
  0
LINE
  8
_0-1__U_30EC_U_30A4_U_30E4_U_30FC_1_U_306E_U_30B3_U_30D4_U_30FC_2
  6
CONTINUOUS
 62
    7
 10
303.04078325565467
 20
145.71200368973595
 11
304.05915348109454
 21
146.02757443618472
  0
LINE
  8
_0-1__U_30EC_U_30A4_U_30E4_U_30FC_1_U_306E_U_30B3_U_30D4_U_30FC_2
  6
CONTINUOUS
 62
    7
 10
304.05915348109454
 20
146.02757443618472
 11
305.1526267881128
 21
146.13781749171275
  0
LINE
  8
_0-1__U_30EC_U_30A4_U_30E4_U_30FC_1_U_306E_U_30B3_U_30D4_U_30FC_2
  6
CONTINUOUS
 62
    7
 10
305.1526267881128
 20
146.13781749171275
 11
306.24541107603409
 21
146.02757443618472
  0
LINE
  8
_0-1__U_30EC_U_30A4_U_30E4_U_30FC_1_U_306E_U_30B3_U_30D4_U_30FC_2
  6
CONTINUOUS
 62
    7
 10
306.24541107603409
 20
146.02757443618472
 11
307.26309228237676
 21
145.71200368973595
  0
LINE
  8
_0-1__U_30EC_U_30A4_U_30E4_U_30FC_1_U_306E_U_30B3_U_30D4_U_30FC_2
  6
CONTINUOUS
 62
    7
 10
307.26309228237676
 20
145.71200368973595
 11
308.18362179603571
 21
145.21212033482615
  0
LINE
  8
_0-1__U_30EC_U_30A4_U_30E4_U_30FC_1_U_306E_U_30B3_U_30D4_U_30FC_2
  6
CONTINUOUS
 62
    7
 10
308.18362179603571
 20
145.21212033482615
 11
308.98564002500177
 21
144.54997298256112
  0
LINE
  8
_0-1__U_30EC_U_30A4_U_30E4_U_30FC_1_U_306E_U_30B3_U_30D4_U_30FC_2
  6
CONTINUOUS
 62
    7
 10
308.98564002500177
 20
144.54997298256112
 11
309.64778737726681
 21
143.74726573449797
  0
LINE
  8
_0-1__U_30EC_U_30A4_U_30E4_U_30FC_1_U_306E_U_30B3_U_30D4_U_30FC_2
  6
CONTINUOUS
 62
    7
 10
309.64778737726681
 20
143.74726573449797
 11
310.14732622262807
 21
142.82604720174217
  0
LINE
  8
_0-1__U_30EC_U_30A4_U_30E4_U_30FC_1_U_306E_U_30B3_U_30D4_U_30FC_2
  6
CONTINUOUS
 62
    7
 10
310.14732622262807
 20
142.82604720174217
 11
310.46289696907695
 21
141.80802148585073
  0
LINE
  8
_0-1__U_30EC_U_30A4_U_30E4_U_30FC_1_U_306E_U_30B3_U_30D4_U_30FC_2
  6
CONTINUOUS
 62
    7
 10
310.46289696907695
 20
141.80802148585073
 11
310.57314002460487
 21
140.71454817883236
  0
LINE
  8
_0-1__U_30EC_U_30A4_U_30E4_U_30FC_1_U_306E_U_30B3_U_30D4_U_30FC_2
  6
CONTINUOUS
 62
    7
 10
307.42087765560132
 20
140.71454817883236
 11
307.24242170946525
 21
141.597526151702
  0
LINE
  8
_0-1__U_30EC_U_30A4_U_30E4_U_30FC_1_U_306E_U_30B3_U_30D4_U_30FC_2
  6
CONTINUOUS
 62
    7
 10
307.24242170946525
 20
141.597526151702
 11
306.75597422694807
 21
142.31892914631325
  0
LINE
  8
_0-1__U_30EC_U_30A4_U_30E4_U_30FC_1_U_306E_U_30B3_U_30D4_U_30FC_2
  6
CONTINUOUS
 62
    7
 10
306.75597422694807
 20
142.31892914631325
 11
306.03457123233682
 21
142.80537662883066
  0
LINE
  8
_0-1__U_30EC_U_30A4_U_30E4_U_30FC_1_U_306E_U_30B3_U_30D4_U_30FC_2
  6
CONTINUOUS
 62
    7
 10
306.03457123233682
 20
142.80537662883066
 11
305.15124874991875
 21
142.9838325749665
  0
LINE
  8
_0-1__U_30EC_U_30A4_U_30E4_U_30FC_1_U_306E_U_30B3_U_30D4_U_30FC_2
  6
CONTINUOUS
 62
    7
 10
305.15124874991875
 20
142.9838325749665
 11
304.26792626750068
 21
142.80537662883066
  0
LINE
  8
_0-1__U_30EC_U_30A4_U_30E4_U_30FC_1_U_306E_U_30B3_U_30D4_U_30FC_2
  6
CONTINUOUS
 62
    7
 10
304.26792626750068
 20
142.80537662883066
 11
303.54721229198651
 21
142.31892914631325
  0
LINE
  8
_0-1__U_30EC_U_30A4_U_30E4_U_30FC_1_U_306E_U_30B3_U_30D4_U_30FC_2
  6
CONTINUOUS
 62
    7
 10
303.54721229198651
 20
142.31892914631325
 11
303.06179833811473
 21
141.597526151702
  0
LINE
  8
_0-1__U_30EC_U_30A4_U_30E4_U_30FC_1_U_306E_U_30B3_U_30D4_U_30FC_2
  6
CONTINUOUS
 62
    7
 10
303.06179833811473
 20
141.597526151702
 11
302.88368690152731
 21
140.71454817883236
  0
LINE
  8
_0-1__U_30EC_U_30A4_U_30E4_U_30FC_1_U_306E_U_30B3_U_30D4_U_30FC_2
  6
CONTINUOUS
 62
    7
 10
299.72866845613555
 20
136.69860037167663
 11
299.83891151166347
 21
135.60512706465838
  0
LINE
  8
_0-1__U_30EC_U_30A4_U_30E4_U_30FC_1_U_306E_U_30B3_U_30D4_U_30FC_2
  6
CONTINUOUS
 62
    7
 10
299.83891151166347
 20
135.60512706465838
 11
300.15482676766089
 21
134.58710134876705
  0
LINE
  8
_0-1__U_30EC_U_30A4_U_30E4_U_30FC_1_U_306E_U_30B3_U_30D4_U_30FC_2
  6
CONTINUOUS
 62
    7
 10
300.15482676766089
 20
134.58710134876705
 11
300.65471012257069
 21
133.66588281601125
  0
LINE
  8
_0-1__U_30EC_U_30A4_U_30E4_U_30FC_1_U_306E_U_30B3_U_30D4_U_30FC_2
  6
CONTINUOUS
 62
    7
 10
300.65471012257069
 20
133.66588281601125
 11
301.31685747483561
 21
132.8631755679481
  0
LINE
  8
_0-1__U_30EC_U_30A4_U_30E4_U_30FC_1_U_306E_U_30B3_U_30D4_U_30FC_2
  6
CONTINUOUS
 62
    7
 10
301.31685747483561
 20
132.8631755679481
 11
302.11956472289887
 21
132.20102821568307
  0
LINE
  8
_0-1__U_30EC_U_30A4_U_30E4_U_30FC_1_U_306E_U_30B3_U_30D4_U_30FC_2
  6
CONTINUOUS
 62
    7
 10
302.11956472289887
 20
132.20102821568307
 11
303.04078325565467
 21
131.70114486077327
  0
LINE
  8
_0-1__U_30EC_U_30A4_U_30E4_U_30FC_1_U_306E_U_30B3_U_30D4_U_30FC_2
  6
CONTINUOUS
 62
    7
 10
303.04078325565467
 20
131.70114486077327
 11
304.05915348109454
 21
131.38557411432438
  0
LINE
  8
_0-1__U_30EC_U_30A4_U_30E4_U_30FC_1_U_306E_U_30B3_U_30D4_U_30FC_2
  6
CONTINUOUS
 62
    7
 10
304.05915348109454
 20
131.38557411432438
 11
305.1526267881128
 21
131.27533105879647
  0
LINE
  8
_0-1__U_30EC_U_30A4_U_30E4_U_30FC_1_U_306E_U_30B3_U_30D4_U_30FC_2
  6
CONTINUOUS
 62
    7
 10
305.1526267881128
 20
131.27533105879647
 11
306.24541107603409
 21
131.38557411432438
  0
LINE
  8
_0-1__U_30EC_U_30A4_U_30E4_U_30FC_1_U_306E_U_30B3_U_30D4_U_30FC_2
  6
CONTINUOUS
 62
    7
 10
306.24541107603409
 20
131.38557411432438
 11
307.26309228237676
 21
131.70114486077327
  0
LINE
  8
_0-1__U_30EC_U_30A4_U_30E4_U_30FC_1_U_306E_U_30B3_U_30D4_U_30FC_2
  6
CONTINUOUS
 62
    7
 10
307.26309228237676
 20
131.70114486077327
 11
308.18362179603571
 21
132.20102821568307
  0
LINE
  8
_0-1__U_30EC_U_30A4_U_30E4_U_30FC_1_U_306E_U_30B3_U_30D4_U_30FC_2
  6
CONTINUOUS
 62
    7
 10
308.18362179603571
 20
132.20102821568307
 11
308.98564002500177
 21
132.8631755679481
  0
LINE
  8
_0-1__U_30EC_U_30A4_U_30E4_U_30FC_1_U_306E_U_30B3_U_30D4_U_30FC_2
  6
CONTINUOUS
 62
    7
 10
308.98564002500177
 20
132.8631755679481
 11
309.64778737726681
 21
133.66588281601125
  0
LINE
  8
_0-1__U_30EC_U_30A4_U_30E4_U_30FC_1_U_306E_U_30B3_U_30D4_U_30FC_2
  6
CONTINUOUS
 62
    7
 10
309.64778737726681
 20
133.66588281601125
 11
310.14732622262807
 21
134.58710134876705
  0
LINE
  8
_0-1__U_30EC_U_30A4_U_30E4_U_30FC_1_U_306E_U_30B3_U_30D4_U_30FC_2
  6
CONTINUOUS
 62
    7
 10
310.14732622262807
 20
134.58710134876705
 11
310.46289696907695
 21
135.60512706465838
  0
LINE
  8
_0-1__U_30EC_U_30A4_U_30E4_U_30FC_1_U_306E_U_30B3_U_30D4_U_30FC_2
  6
CONTINUOUS
 62
    7
 10
310.46289696907695
 20
135.60512706465838
 11
310.57314002460487
 21
136.69860037167663
  0
LINE
  8
_0-1__U_30EC_U_30A4_U_30E4_U_30FC_1_U_306E_U_30B3_U_30D4_U_30FC_2
  6
CONTINUOUS
 62
    7
 10
307.42087765560132
 20
136.69860037167663
 11
307.24242170946525
 21
135.81562239880722
  0
LINE
  8
_0-1__U_30EC_U_30A4_U_30E4_U_30FC_1_U_306E_U_30B3_U_30D4_U_30FC_2
  6
CONTINUOUS
 62
    7
 10
307.24242170946525
 20
135.81562239880722
 11
306.75597422694807
 21
135.09421940419585
  0
LINE
  8
_0-1__U_30EC_U_30A4_U_30E4_U_30FC_1_U_306E_U_30B3_U_30D4_U_30FC_2
  6
CONTINUOUS
 62
    7
 10
306.75597422694807
 20
135.09421940419585
 11
306.03457123233682
 21
134.60777192167856
  0
LINE
  8
_0-1__U_30EC_U_30A4_U_30E4_U_30FC_1_U_306E_U_30B3_U_30D4_U_30FC_2
  6
CONTINUOUS
 62
    7
 10
306.03457123233682
 20
134.60777192167856
 11
305.15124874991875
 21
134.42931597554261
  0
LINE
  8
_0-1__U_30EC_U_30A4_U_30E4_U_30FC_1_U_306E_U_30B3_U_30D4_U_30FC_2
  6
CONTINUOUS
 62
    7
 10
305.15124874991875
 20
134.42931597554261
 11
304.26792626750068
 21
134.60777192167856
  0
LINE
  8
_0-1__U_30EC_U_30A4_U_30E4_U_30FC_1_U_306E_U_30B3_U_30D4_U_30FC_2
  6
CONTINUOUS
 62
    7
 10
304.26792626750068
 20
134.60777192167856
 11
303.54721229198651
 21
135.09421940419585
  0
LINE
  8
_0-1__U_30EC_U_30A4_U_30E4_U_30FC_1_U_306E_U_30B3_U_30D4_U_30FC_2
  6
CONTINUOUS
 62
    7
 10
303.54721229198651
 20
135.09421940419585
 11
303.06179833811473
 21
135.81562239880722
  0
LINE
  8
_0-1__U_30EC_U_30A4_U_30E4_U_30FC_1_U_306E_U_30B3_U_30D4_U_30FC_2
  6
CONTINUOUS
 62
    7
 10
303.06179833811473
 20
135.81562239880722
 11
302.88368690152731
 21
136.69860037167663
  0
LINE
  8
_0-1__U_30EC_U_30A4_U_30E4_U_30FC_1_U_306E_U_30B3_U_30D4_U_30FC_2
  6
CONTINUOUS
 62
    7
 10
371.48346173246762
 20
140.71454817883236
 11
371.48346173246762
 21
136.69894488122517
  0
LINE
  8
_0-1__U_30EC_U_30A4_U_30E4_U_30FC_1_U_306E_U_30B3_U_30D4_U_30FC_2
  6
CONTINUOUS
 62
    7
 10
376.02065248654174
 20
136.69894488122517
 11
376.02065248654174
 21
140.71454817883236
  0
LINE
  8
_0-1__U_30EC_U_30A4_U_30E4_U_30FC_1_U_306E_U_30B3_U_30D4_U_30FC_2
  6
CONTINUOUS
 62
    7
 10
368.32844328707586
 20
136.69894488122517
 11
368.32844328707586
 21
140.71454817883236
  0
LINE
  8
_0-1__U_30EC_U_30A4_U_30E4_U_30FC_1_U_306E_U_30B3_U_30D4_U_30FC_2
  6
CONTINUOUS
 62
    7
 10
379.1729148555454
 20
140.71454817883236
 11
379.1729148555454
 21
136.69894488122517
  0
LINE
  8
_0-1__U_30EC_U_30A4_U_30E4_U_30FC_1_U_306E_U_30B3_U_30D4_U_30FC_2
  6
CONTINUOUS
 62
    7
 10
368.32844328707586
 20
140.71454817883236
 11
368.43868634260389
 21
141.80802148585073
  0
LINE
  8
_0-1__U_30EC_U_30A4_U_30E4_U_30FC_1_U_306E_U_30B3_U_30D4_U_30FC_2
  6
CONTINUOUS
 62
    7
 10
368.43868634260389
 20
141.80802148585073
 11
368.75494610814974
 21
142.82604720174217
  0
LINE
  8
_0-1__U_30EC_U_30A4_U_30E4_U_30FC_1_U_306E_U_30B3_U_30D4_U_30FC_2
  6
CONTINUOUS
 62
    7
 10
368.75494610814974
 20
142.82604720174217
 11
369.254484953511
 21
143.74726573449797
  0
LINE
  8
_0-1__U_30EC_U_30A4_U_30E4_U_30FC_1_U_306E_U_30B3_U_30D4_U_30FC_2
  6
CONTINUOUS
 62
    7
 10
369.254484953511
 20
143.74726573449797
 11
369.91663230577603
 21
144.54997298256112
  0
LINE
  8
_0-1__U_30EC_U_30A4_U_30E4_U_30FC_1_U_306E_U_30B3_U_30D4_U_30FC_2
  6
CONTINUOUS
 62
    7
 10
369.91663230577603
 20
144.54997298256112
 11
370.71933955383918
 21
145.21212033482615
  0
LINE
  8
_0-1__U_30EC_U_30A4_U_30E4_U_30FC_1_U_306E_U_30B3_U_30D4_U_30FC_2
  6
CONTINUOUS
 62
    7
 10
370.71933955383918
 20
145.21212033482615
 11
371.64055808659498
 21
145.71200368973595
  0
LINE
  8
_0-1__U_30EC_U_30A4_U_30E4_U_30FC_1_U_306E_U_30B3_U_30D4_U_30FC_2
  6
CONTINUOUS
 62
    7
 10
371.64055808659498
 20
145.71200368973595
 11
372.65892831203496
 21
146.02757443618472
  0
LINE
  8
_0-1__U_30EC_U_30A4_U_30E4_U_30FC_1_U_306E_U_30B3_U_30D4_U_30FC_2
  6
CONTINUOUS
 62
    7
 10
372.65892831203496
 20
146.02757443618472
 11
373.7524016190531
 21
146.13781749171275
  0
LINE
  8
_0-1__U_30EC_U_30A4_U_30E4_U_30FC_1_U_306E_U_30B3_U_30D4_U_30FC_2
  6
CONTINUOUS
 62
    7
 10
373.7524016190531
 20
146.13781749171275
 11
374.84518590697451
 21
146.02757443618472
  0
LINE
  8
_0-1__U_30EC_U_30A4_U_30E4_U_30FC_1_U_306E_U_30B3_U_30D4_U_30FC_2
  6
CONTINUOUS
 62
    7
 10
374.84518590697451
 20
146.02757443618472
 11
375.86286711331729
 21
145.71200368973595
  0
LINE
  8
_0-1__U_30EC_U_30A4_U_30E4_U_30FC_1_U_306E_U_30B3_U_30D4_U_30FC_2
  6
CONTINUOUS
 62
    7
 10
375.86286711331729
 20
145.71200368973595
 11
376.7833966269759
 21
145.21212033482615
  0
LINE
  8
_0-1__U_30EC_U_30A4_U_30E4_U_30FC_1_U_306E_U_30B3_U_30D4_U_30FC_2
  6
CONTINUOUS
 62
    7
 10
376.7833966269759
 20
145.21212033482615
 11
377.58541485594208
 21
144.54997298256112
  0
LINE
  8
_0-1__U_30EC_U_30A4_U_30E4_U_30FC_1_U_306E_U_30B3_U_30D4_U_30FC_2
  6
CONTINUOUS
 62
    7
 10
377.58541485594208
 20
144.54997298256112
 11
378.24756220820711
 21
143.74726573449797
  0
LINE
  8
_0-1__U_30EC_U_30A4_U_30E4_U_30FC_1_U_306E_U_30B3_U_30D4_U_30FC_2
  6
CONTINUOUS
 62
    7
 10
378.24756220820711
 20
143.74726573449797
 11
378.74710105356837
 21
142.82604720174217
  0
LINE
  8
_0-1__U_30EC_U_30A4_U_30E4_U_30FC_1_U_306E_U_30B3_U_30D4_U_30FC_2
  6
CONTINUOUS
 62
    7
 10
378.74710105356837
 20
142.82604720174217
 11
379.06267180001726
 21
141.80802148585073
  0
LINE
  8
_0-1__U_30EC_U_30A4_U_30E4_U_30FC_1_U_306E_U_30B3_U_30D4_U_30FC_2
  6
CONTINUOUS
 62
    7
 10
379.06267180001726
 20
141.80802148585073
 11
379.1729148555454
 21
140.71454817883236
  0
LINE
  8
_0-1__U_30EC_U_30A4_U_30E4_U_30FC_1_U_306E_U_30B3_U_30D4_U_30FC_2
  6
CONTINUOUS
 62
    7
 10
376.02065248654174
 20
140.71454817883236
 11
375.84219654040578
 21
141.597526151702
  0
LINE
  8
_0-1__U_30EC_U_30A4_U_30E4_U_30FC_1_U_306E_U_30B3_U_30D4_U_30FC_2
  6
CONTINUOUS
 62
    7
 10
375.84219654040578
 20
141.597526151702
 11
375.35574905788837
 21
142.31892914631325
  0
LINE
  8
_0-1__U_30EC_U_30A4_U_30E4_U_30FC_1_U_306E_U_30B3_U_30D4_U_30FC_2
  6
CONTINUOUS
 62
    7
 10
375.35574905788837
 20
142.31892914631325
 11
374.63434606327712
 21
142.80537662883066
  0
LINE
  8
_0-1__U_30EC_U_30A4_U_30E4_U_30FC_1_U_306E_U_30B3_U_30D4_U_30FC_2
  6
CONTINUOUS
 62
    7
 10
374.63434606327712
 20
142.80537662883066
 11
373.75102358085917
 21
142.9838325749665
  0
LINE
  8
_0-1__U_30EC_U_30A4_U_30E4_U_30FC_1_U_306E_U_30B3_U_30D4_U_30FC_2
  6
CONTINUOUS
 62
    7
 10
373.75102358085917
 20
142.9838325749665
 11
372.86770109844099
 21
142.80537662883066
  0
LINE
  8
_0-1__U_30EC_U_30A4_U_30E4_U_30FC_1_U_306E_U_30B3_U_30D4_U_30FC_2
  6
CONTINUOUS
 62
    7
 10
372.86770109844099
 20
142.80537662883066
 11
372.1469871229267
 21
142.31892914631325
  0
LINE
  8
_0-1__U_30EC_U_30A4_U_30E4_U_30FC_1_U_306E_U_30B3_U_30D4_U_30FC_2
  6
CONTINUOUS
 62
    7
 10
372.1469871229267
 20
142.31892914631325
 11
371.66191767860357
 21
141.597526151702
  0
LINE
  8
_0-1__U_30EC_U_30A4_U_30E4_U_30FC_1_U_306E_U_30B3_U_30D4_U_30FC_2
  6
CONTINUOUS
 62
    7
 10
371.66191767860357
 20
141.597526151702
 11
371.48346173246762
 21
140.71454817883236
  0
LINE
  8
_0-1__U_30EC_U_30A4_U_30E4_U_30FC_1_U_306E_U_30B3_U_30D4_U_30FC_2
  6
CONTINUOUS
 62
    7
 10
368.32844328707586
 20
136.69860037167663
 11
368.43868634260389
 21
135.60512706465838
  0
LINE
  8
_0-1__U_30EC_U_30A4_U_30E4_U_30FC_1_U_306E_U_30B3_U_30D4_U_30FC_2
  6
CONTINUOUS
 62
    7
 10
368.43868634260389
 20
135.60512706465838
 11
368.75494610814974
 21
134.58710134876705
  0
LINE
  8
_0-1__U_30EC_U_30A4_U_30E4_U_30FC_1_U_306E_U_30B3_U_30D4_U_30FC_2
  6
CONTINUOUS
 62
    7
 10
368.75494610814974
 20
134.58710134876705
 11
369.254484953511
 21
133.66588281601125
  0
LINE
  8
_0-1__U_30EC_U_30A4_U_30E4_U_30FC_1_U_306E_U_30B3_U_30D4_U_30FC_2
  6
CONTINUOUS
 62
    7
 10
369.254484953511
 20
133.66588281601125
 11
369.91663230577603
 21
132.8631755679481
  0
LINE
  8
_0-1__U_30EC_U_30A4_U_30E4_U_30FC_1_U_306E_U_30B3_U_30D4_U_30FC_2
  6
CONTINUOUS
 62
    7
 10
369.91663230577603
 20
132.8631755679481
 11
370.71933955383918
 21
132.20102821568307
  0
LINE
  8
_0-1__U_30EC_U_30A4_U_30E4_U_30FC_1_U_306E_U_30B3_U_30D4_U_30FC_2
  6
CONTINUOUS
 62
    7
 10
370.71933955383918
 20
132.20102821568307
 11
371.64055808659498
 21
131.70114486077327
  0
LINE
  8
_0-1__U_30EC_U_30A4_U_30E4_U_30FC_1_U_306E_U_30B3_U_30D4_U_30FC_2
  6
CONTINUOUS
 62
    7
 10
371.64055808659498
 20
131.70114486077327
 11
372.65892831203496
 21
131.38557411432438
  0
LINE
  8
_0-1__U_30EC_U_30A4_U_30E4_U_30FC_1_U_306E_U_30B3_U_30D4_U_30FC_2
  6
CONTINUOUS
 62
    7
 10
372.65892831203496
 20
131.38557411432438
 11
373.7524016190531
 21
131.27533105879647
  0
LINE
  8
_0-1__U_30EC_U_30A4_U_30E4_U_30FC_1_U_306E_U_30B3_U_30D4_U_30FC_2
  6
CONTINUOUS
 62
    7
 10
373.7524016190531
 20
131.27533105879647
 11
374.84518590697451
 21
131.38557411432438
  0
LINE
  8
_0-1__U_30EC_U_30A4_U_30E4_U_30FC_1_U_306E_U_30B3_U_30D4_U_30FC_2
  6
CONTINUOUS
 62
    7
 10
374.84518590697451
 20
131.38557411432438
 11
375.86286711331729
 21
131.70114486077327
  0
LINE
  8
_0-1__U_30EC_U_30A4_U_30E4_U_30FC_1_U_306E_U_30B3_U_30D4_U_30FC_2
  6
CONTINUOUS
 62
    7
 10
375.86286711331729
 20
131.70114486077327
 11
376.7833966269759
 21
132.20102821568307
  0
LINE
  8
_0-1__U_30EC_U_30A4_U_30E4_U_30FC_1_U_306E_U_30B3_U_30D4_U_30FC_2
  6
CONTINUOUS
 62
    7
 10
376.7833966269759
 20
132.20102821568307
 11
377.58541485594208
 21
132.8631755679481
  0
LINE
  8
_0-1__U_30EC_U_30A4_U_30E4_U_30FC_1_U_306E_U_30B3_U_30D4_U_30FC_2
  6
CONTINUOUS
 62
    7
 10
377.58541485594208
 20
132.8631755679481
 11
378.24756220820711
 21
133.66588281601125
  0
LINE
  8
_0-1__U_30EC_U_30A4_U_30E4_U_30FC_1_U_306E_U_30B3_U_30D4_U_30FC_2
  6
CONTINUOUS
 62
    7
 10
378.24756220820711
 20
133.66588281601125
 11
378.74710105356837
 21
134.58710134876705
  0
LINE
  8
_0-1__U_30EC_U_30A4_U_30E4_U_30FC_1_U_306E_U_30B3_U_30D4_U_30FC_2
  6
CONTINUOUS
 62
    7
 10
378.74710105356837
 20
134.58710134876705
 11
379.06267180001726
 21
135.60512706465838
  0
LINE
  8
_0-1__U_30EC_U_30A4_U_30E4_U_30FC_1_U_306E_U_30B3_U_30D4_U_30FC_2
  6
CONTINUOUS
 62
    7
 10
379.06267180001726
 20
135.60512706465838
 11
379.1729148555454
 21
136.69860037167663
  0
LINE
  8
_0-1__U_30EC_U_30A4_U_30E4_U_30FC_1_U_306E_U_30B3_U_30D4_U_30FC_2
  6
CONTINUOUS
 62
    7
 10
376.02065248654174
 20
136.69860037167663
 11
375.84219654040578
 21
135.81562239880722
  0
LINE
  8
_0-1__U_30EC_U_30A4_U_30E4_U_30FC_1_U_306E_U_30B3_U_30D4_U_30FC_2
  6
CONTINUOUS
 62
    7
 10
375.84219654040578
 20
135.81562239880722
 11
375.35574905788837
 21
135.09421940419585
  0
LINE
  8
_0-1__U_30EC_U_30A4_U_30E4_U_30FC_1_U_306E_U_30B3_U_30D4_U_30FC_2
  6
CONTINUOUS
 62
    7
 10
375.35574905788837
 20
135.09421940419585
 11
374.63434606327712
 21
134.60777192167856
  0
LINE
  8
_0-1__U_30EC_U_30A4_U_30E4_U_30FC_1_U_306E_U_30B3_U_30D4_U_30FC_2
  6
CONTINUOUS
 62
    7
 10
374.63434606327712
 20
134.60777192167856
 11
373.75102358085917
 21
134.42931597554261
  0
LINE
  8
_0-1__U_30EC_U_30A4_U_30E4_U_30FC_1_U_306E_U_30B3_U_30D4_U_30FC_2
  6
CONTINUOUS
 62
    7
 10
373.75102358085917
 20
134.42931597554261
 11
372.86770109844099
 21
134.60777192167856
  0
LINE
  8
_0-1__U_30EC_U_30A4_U_30E4_U_30FC_1_U_306E_U_30B3_U_30D4_U_30FC_2
  6
CONTINUOUS
 62
    7
 10
372.86770109844099
 20
134.60777192167856
 11
372.1469871229267
 21
135.09421940419585
  0
LINE
  8
_0-1__U_30EC_U_30A4_U_30E4_U_30FC_1_U_306E_U_30B3_U_30D4_U_30FC_2
  6
CONTINUOUS
 62
    7
 10
372.1469871229267
 20
135.09421940419585
 11
371.66191767860357
 21
135.81562239880722
  0
LINE
  8
_0-1__U_30EC_U_30A4_U_30E4_U_30FC_1_U_306E_U_30B3_U_30D4_U_30FC_2
  6
CONTINUOUS
 62
    7
 10
371.66191767860357
 20
135.81562239880722
 11
371.48346173246762
 21
136.69860037167663
  0
LINE
  8
_0-1__U_30EC_U_30A4_U_30E4_U_30FC_1_U_306E_U_30B3_U_30D4_U_30FC_2
  6
CONTINUOUS
 62
    7
 10
89.441418074679518
 20
132.96893999934522
 11
92.422975962388932
 21
133.13637163992846
  0
LINE
  8
_0-1__U_30EC_U_30A4_U_30E4_U_30FC_1_U_306E_U_30B3_U_30D4_U_30FC_2
  6
CONTINUOUS
 62
    7
 10
92.422975962388932
 20
133.13637163992846
 11
95.377145340990751
 21
133.63763303303219
  0
LINE
  8
_0-1__U_30EC_U_30A4_U_30E4_U_30FC_1_U_306E_U_30B3_U_30D4_U_30FC_2
  6
CONTINUOUS
 62
    7
 10
95.377145340990751
 20
133.63763303303219
 11
98.247082134978086
 21
134.46307791129809
  0
LINE
  8
_0-1__U_30EC_U_30A4_U_30E4_U_30FC_1_U_306E_U_30B3_U_30D4_U_30FC_2
  6
CONTINUOUS
 62
    7
 10
98.247082134978086
 20
134.46307791129809
 11
101.0050533256948
 21
135.60857216014378
  0
LINE
  8
_0-1__U_30EC_U_30A4_U_30E4_U_30FC_1_U_306E_U_30B3_U_30D4_U_30FC_2
  6
CONTINUOUS
 62
    7
 10
101.0050533256948
 20
135.60857216014378
 11
103.62659873519567
 21
137.05826834033687
  0
LINE
  8
_0-1__U_30EC_U_30A4_U_30E4_U_30FC_1_U_306E_U_30B3_U_30D4_U_30FC_2
  6
CONTINUOUS
 62
    7
 10
103.62659873519567
 20
137.05826834033687
 11
106.06314251713866
 21
138.78908431212628
  0
LINE
  8
_0-1__U_30EC_U_30A4_U_30E4_U_30FC_1_U_306E_U_30B3_U_30D4_U_30FC_2
  6
CONTINUOUS
 62
    7
 10
106.06314251713866
 20
138.78908431212628
 11
108.28419557647919
 21
140.7837945980859
  0
LINE
  8
_0-1__U_30EC_U_30A4_U_30E4_U_30FC_1_U_306E_U_30B3_U_30D4_U_30FC_2
  6
CONTINUOUS
 62
    7
 10
108.28419557647919
 20
140.7837945980859
 11
110.2768388051478
 21
143.01862803936748
  0
LINE
  8
_0-1__U_30EC_U_30A4_U_30E4_U_30FC_1_U_306E_U_30B3_U_30D4_U_30FC_2
  6
CONTINUOUS
 62
    7
 10
110.2768388051478
 20
143.01862803936748
 11
112.0021426241608
 21
145.45741113337598
  0
LINE
  8
_0-1__U_30EC_U_30A4_U_30E4_U_30FC_1_U_306E_U_30B3_U_30D4_U_30FC_2
  6
CONTINUOUS
 62
    7
 10
112.0021426241608
 20
145.45741113337598
 11
113.43719714854171
 21
148.07223860668054
  0
LINE
  8
_0-1__U_30EC_U_30A4_U_30E4_U_30FC_1_U_306E_U_30B3_U_30D4_U_30FC_2
  6
CONTINUOUS
 62
    7
 10
113.43719714854171
 20
148.07223860668054
 11
114.57786826370796
 21
150.84140635772437
  0
LINE
  8
_0-1__U_30EC_U_30A4_U_30E4_U_30FC_1_U_306E_U_30B3_U_30D4_U_30FC_2
  6
CONTINUOUS
 62
    7
 10
114.57786826370796
 20
150.84140635772437
 11
115.39797324397159
 21
153.70944834919484
  0
LINE
  8
_0-1__U_30EC_U_30A4_U_30E4_U_30FC_1_U_306E_U_30B3_U_30D4_U_30FC_2
  6
CONTINUOUS
 62
    7
 10
115.39797324397159
 20
153.70944834919484
 11
115.88855484107125
 21
156.65672753682608
  0
LINE
  8
_0-1__U_30EC_U_30A4_U_30E4_U_30FC_1_U_306E_U_30B3_U_30D4_U_30FC_2
  6
CONTINUOUS
 62
    7
 10
115.88855484107125
 20
156.65672753682608
 11
116.04806276203828
 21
159.6472426727972
  0
LINE
  8
_0-1__U_30EC_U_30A4_U_30E4_U_30FC_1_U_306E_U_30B3_U_30D4_U_30FC_2
  6
CONTINUOUS
 62
    7
 10
116.04806276203828
 20
159.6472426727972
 11
115.87270740183897
 21
162.62931732482943
  0
LINE
  8
_0-1__U_30EC_U_30A4_U_30E4_U_30FC_1_U_306E_U_30B3_U_30D4_U_30FC_2
  6
CONTINUOUS
 62
    7
 10
115.87270740183897
 20
162.62931732482943
 11
115.36076621273094
 21
165.57229014310414
  0
LINE
  8
_0-1__U_30EC_U_30A4_U_30E4_U_30FC_1_U_306E_U_30B3_U_30D4_U_30FC_2
  6
CONTINUOUS
 62
    7
 10
115.36076621273094
 20
165.57229014310414
 11
114.52136869774984
 21
168.44825585419071
  0
LINE
  8
_0-1__U_30EC_U_30A4_U_30E4_U_30FC_1_U_306E_U_30B3_U_30D4_U_30FC_2
  6
CONTINUOUS
 62
    7
 10
114.52136869774984
 20
168.44825585419071
 11
113.36967327703087
 21
171.20347096851921
  0
LINE
  8
_0-1__U_30EC_U_30A4_U_30E4_U_30FC_1_U_306E_U_30B3_U_30D4_U_30FC_2
  6
CONTINUOUS
 62
    7
 10
113.36967327703087
 20
171.20347096851921
 11
111.91291465109293
 21
173.81106374130476
  0
LINE
  8
_0-1__U_30EC_U_30A4_U_30E4_U_30FC_1_U_306E_U_30B3_U_30D4_U_30FC_2
  6
CONTINUOUS
 62
    7
 10
111.91291465109293
 20
173.81106374130476
 11
110.16986859033068
 21
176.24795203279629
  0
LINE
  8
_0-1__U_30EC_U_30A4_U_30E4_U_30FC_1_U_306E_U_30B3_U_30D4_U_30FC_2
  6
CONTINUOUS
 62
    7
 10
110.16986859033068
 20
176.24795203279629
 11
108.17016291591744
 21
178.46659352529727
  0
LINE
  8
_0-1__U_30EC_U_30A4_U_30E4_U_30FC_1_U_306E_U_30B3_U_30D4_U_30FC_2
  6
CONTINUOUS
 62
    7
 10
108.17016291591744
 20
178.46659352529727
 11
105.93222888869911
 21
180.44235578608809
  0
LINE
  8
_0-1__U_30EC_U_30A4_U_30E4_U_30FC_1_U_306E_U_30B3_U_30D4_U_30FC_2
  6
CONTINUOUS
 62
    7
 10
105.93222888869911
 20
180.44235578608809
 11
103.48156021526677
 21
182.16111392367915
  0
LINE
  8
_0-1__U_30EC_U_30A4_U_30E4_U_30FC_1_U_306E_U_30B3_U_30D4_U_30FC_2
  6
CONTINUOUS
 62
    7
 10
103.48156021526677
 20
182.16111392367915
 11
100.86363215602535
 21
183.59410139076883
  0
LINE
  8
_0-1__U_30EC_U_30A4_U_30E4_U_30FC_1_U_306E_U_30B3_U_30D4_U_30FC_2
  6
CONTINUOUS
 62
    7
 10
100.86363215602535
 20
183.59410139076883
 11
98.09945979343513
 21
184.71892506670289
  0
LINE
  8
_0-1__U_30EC_U_30A4_U_30E4_U_30FC_1_U_306E_U_30B3_U_30D4_U_30FC_2
  6
CONTINUOUS
 62
    7
 10
98.09945979343513
 20
184.71892506670289
 11
95.215570362732592
 21
185.53127858212483
  0
LINE
  8
_0-1__U_30EC_U_30A4_U_30E4_U_30FC_1_U_306E_U_30B3_U_30D4_U_30FC_2
  6
CONTINUOUS
 62
    7
 10
95.215570362732592
 20
185.53127858212483
 11
92.270702741940909
 21
186.01565900735099
  0
LINE
  8
_0-1__U_30EC_U_30A4_U_30E4_U_30FC_1_U_306E_U_30B3_U_30D4_U_30FC_2
  6
CONTINUOUS
 62
    7
 10
92.270702741940909
 20
186.01565900735099
 11
89.287077796940366
 21
186.16276458457114
  0
LINE
  8
_0-1__U_30EC_U_30A4_U_30E4_U_30FC_1_U_306E_U_30B3_U_30D4_U_30FC_2
  6
CONTINUOUS
 62
    7
 10
89.287077796940366
 20
186.16276458457114
 11
86.297940699163291
 21
185.97672942836763
  0
LINE
  8
_0-1__U_30EC_U_30A4_U_30E4_U_30FC_1_U_306E_U_30B3_U_30D4_U_30FC_2
  6
CONTINUOUS
 62
    7
 10
86.297940699163291
 20
185.97672942836763
 11
83.354106607017343
 21
185.45858706738599
  0
LINE
  8
_0-1__U_30EC_U_30A4_U_30E4_U_30FC_1_U_306E_U_30B3_U_30D4_U_30FC_2
  6
CONTINUOUS
 62
    7
 10
83.354106607017343
 20
185.45858706738599
 11
80.491749023097441
 21
184.61040455891757
  0
LINE
  8
_0-1__U_30EC_U_30A4_U_30E4_U_30FC_1_U_306E_U_30B3_U_30D4_U_30FC_2
  6
CONTINUOUS
 62
    7
 10
80.491749023097441
 20
184.61040455891757
 11
77.731194010766785
 21
183.44458424670901
  0
LINE
  8
_0-1__U_30EC_U_30A4_U_30E4_U_30FC_1_U_306E_U_30B3_U_30D4_U_30FC_2
  6
CONTINUOUS
 62
    7
 10
77.731194010766785
 20
183.44458424670901
 11
75.127735352563491
 21
181.98127993934904
  0
LINE
  8
_0-1__U_30EC_U_30A4_U_30E4_U_30FC_1_U_306E_U_30B3_U_30D4_U_30FC_2
  6
CONTINUOUS
 62
    7
 10
75.127735352563491
 20
181.98127993934904
 11
72.706522245529868
 21
180.23323849013329
  0
LINE
  8
_0-1__U_30EC_U_30A4_U_30E4_U_30FC_1_U_306E_U_30B3_U_30D4_U_30FC_2
  6
CONTINUOUS
 62
    7
 10
72.706522245529868
 20
180.23323849013329
 11
70.488053007803273
 21
178.21889115990766
  0
LINE
  8
_0-1__U_30EC_U_30A4_U_30E4_U_30FC_1_U_306E_U_30B3_U_30D4_U_30FC_2
  6
CONTINUOUS
 62
    7
 10
70.488053007803273
 20
178.21889115990766
 11
68.514530059077856
 21
175.97578948946156
  0
LINE
  8
_0-1__U_30EC_U_30A4_U_30E4_U_30FC_1_U_306E_U_30B3_U_30D4_U_30FC_2
  6
CONTINUOUS
 62
    7
 10
68.514530059077856
 20
175.97578948946156
 11
66.809896812976262
 21
173.52787689241731
  0
LINE
  8
_0-1__U_30EC_U_30A4_U_30E4_U_30FC_1_U_306E_U_30B3_U_30D4_U_30FC_2
  6
CONTINUOUS
 62
    7
 10
66.809896812976262
 20
173.52787689241731
 11
65.386038848922567
 21
170.89479041304079
  0
LINE
  8
_0-1__U_30EC_U_30A4_U_30E4_U_30FC_1_U_306E_U_30B3_U_30D4_U_30FC_2
  6
CONTINUOUS
 62
    7
 10
65.386038848922567
 20
170.89479041304079
 11
64.265866051893568
 21
168.13061805045058
  0
LINE
  8
_0-1__U_30EC_U_30A4_U_30E4_U_30FC_1_U_306E_U_30B3_U_30D4_U_30FC_2
  6
CONTINUOUS
 62
    7
 10
64.265866051893568
 20
168.13061805045058
 11
63.467292918412682
 21
165.25258528207289
  0
LINE
  8
_0-1__U_30EC_U_30A4_U_30E4_U_30FC_1_U_306E_U_30B3_U_30D4_U_30FC_2
  6
CONTINUOUS
 62
    7
 10
63.467292918412682
 20
165.25258528207289
 11
62.992041996222383
 21
162.2954875723087
  0
LINE
  8
_0-1__U_30EC_U_30A4_U_30E4_U_30FC_1_U_306E_U_30B3_U_30D4_U_30FC_2
  6
CONTINUOUS
 62
    7
 10
62.992041996222383
 20
162.2954875723087
 11
62.851137590875737
 21
159.31341292027648
  0
LINE
  8
_0-1__U_30EC_U_30A4_U_30E4_U_30FC_1_U_306E_U_30B3_U_30D4_U_30FC_2
  6
CONTINUOUS
 62
    7
 10
62.851137590875737
 20
159.31341292027648
 11
63.050436364697362
 21
156.33392208985808
  0
LINE
  8
_0-1__U_30EC_U_30A4_U_30E4_U_30FC_1_U_306E_U_30B3_U_30D4_U_30FC_2
  6
CONTINUOUS
 62
    7
 10
63.050436364697362
 20
156.33392208985808
 11
63.581153324200159
 21
153.38250878764458
  0
LINE
  8
_0-1__U_30EC_U_30A4_U_30E4_U_30FC_1_U_306E_U_30B3_U_30D4_U_30FC_2
  6
CONTINUOUS
 62
    7
 10
63.581153324200159
 20
153.38250878764458
 11
64.434847985445003
 21
150.52135698714469
  0
LINE
  8
_0-1__U_30EC_U_30A4_U_30E4_U_30FC_1_U_306E_U_30B3_U_30D4_U_30FC_2
  6
CONTINUOUS
 62
    7
 10
64.434847985445003
 20
150.52135698714469
 11
65.609453291140994
 21
147.77389333765788
  0
LINE
  8
_0-1__U_30EC_U_30A4_U_30E4_U_30FC_1_U_306E_U_30B3_U_30D4_U_30FC_2
  6
CONTINUOUS
 62
    7
 10
65.609453291140994
 20
147.77389333765788
 11
67.084987687473472
 21
145.1669895839693
  0
LINE
  8
_0-1__U_30EC_U_30A4_U_30E4_U_30FC_1_U_306E_U_30B3_U_30D4_U_30FC_2
  6
CONTINUOUS
 62
    7
 10
67.084987687473472
 20
145.1669895839693
 11
68.837163251271591
 21
142.75059961061513
  0
LINE
  8
_0-1__U_30EC_U_30A4_U_30E4_U_30FC_1_U_306E_U_30B3_U_30D4_U_30FC_2
  6
CONTINUOUS
 62
    7
 10
68.837163251271591
 20
142.75059961061513
 11
70.853922148336778
 21
140.54746104779778
  0
LINE
  8
_0-1__U_30EC_U_30A4_U_30E4_U_30FC_1_U_306E_U_30B3_U_30D4_U_30FC_2
  6
CONTINUOUS
 62
    7
 10
70.853922148336778
 20
140.54746104779778
 11
73.110287436401222
 21
138.57824446842901
  0
LINE
  8
_0-1__U_30EC_U_30A4_U_30E4_U_30FC_1_U_306E_U_30B3_U_30D4_U_30FC_2
  6
CONTINUOUS
 62
    7
 10
73.110287436401222
 20
138.57824446842901
 11
75.563884440996048
 21
136.87740082736124
  0
LINE
  8
_0-1__U_30EC_U_30A4_U_30E4_U_30FC_1_U_306E_U_30B3_U_30D4_U_30FC_2
  6
CONTINUOUS
 62
    7
 10
75.563884440996048
 20
136.87740082736124
 11
78.193698079661544
 21
135.46594520705432
  0
LINE
  8
_0-1__U_30EC_U_30A4_U_30E4_U_30FC_1_U_306E_U_30B3_U_30D4_U_30FC_2
  6
CONTINUOUS
 62
    7
 10
78.193698079661544
 20
135.46594520705432
 11
80.972684352838428
 21
134.35352387486714
  0
LINE
  8
_0-1__U_30EC_U_30A4_U_30E4_U_30FC_1_U_306E_U_30B3_U_30D4_U_30FC_2
  6
CONTINUOUS
 62
    7
 10
80.972684352838428
 20
134.35352387486714
 11
83.850200356893311
 21
133.5635634800993
  0
LINE
  8
_0-1__U_30EC_U_30A4_U_30E4_U_30FC_1_U_306E_U_30B3_U_30D4_U_30FC_2
  6
CONTINUOUS
 62
    7
 10
83.850200356893311
 20
133.5635634800993
 11
86.630220158715588
 21
133.11742361475953
  0
LINE
  8
_0-1__U_30EC_U_30A4_U_30E4_U_30FC_1_U_306E_U_30B3_U_30D4_U_30FC_2
  6
CONTINUOUS
 62
    7
 10
86.630220158715588
 20
133.11742361475953
 11
89.441418074679518
 21
132.96893999934522
  0
LINE
  8
_0-1__U_30EC_U_30A4_U_30E4_U_30FC_1_U_306E_U_30B3_U_30D4_U_30FC_2
  6
CONTINUOUS
 62
    7
 10
86.921675236767783
 20
135.69986719050289
 11
89.600925995646548
 21
135.57033160025739
  0
LINE
  8
_0-1__U_30EC_U_30A4_U_30E4_U_30FC_1_U_306E_U_30B3_U_30D4_U_30FC_2
  6
CONTINUOUS
 62
    7
 10
89.600925995646548
 20
135.57033160025739
 11
92.284999888204766
 21
135.736729712195
  0
LINE
  8
_0-1__U_30EC_U_30A4_U_30E4_U_30FC_1_U_306E_U_30B3_U_30D4_U_30FC_2
  6
CONTINUOUS
 62
    7
 10
92.284999888204766
 20
135.736729712195
 11
94.926010087197255
 21
136.2018176027037
  0
LINE
  8
_0-1__U_30EC_U_30A4_U_30E4_U_30FC_1_U_306E_U_30B3_U_30D4_U_30FC_2
  6
CONTINUOUS
 62
    7
 10
94.926010087197255
 20
136.2018176027037
 11
97.506558860423638
 21
136.96249468584685
  0
LINE
  8
_0-1__U_30EC_U_30A4_U_30E4_U_30FC_1_U_306E_U_30B3_U_30D4_U_30FC_2
  6
CONTINUOUS
 62
    7
 10
97.506558860423638
 20
136.96249468584685
 11
99.995123584193948
 21
138.01187077065387
  0
LINE
  8
_0-1__U_30EC_U_30A4_U_30E4_U_30FC_1_U_306E_U_30B3_U_30D4_U_30FC_2
  6
CONTINUOUS
 62
    7
 10
99.995123584193948
 20
138.01187077065387
 11
102.34157811919749
 21
139.32583018872819
  0
LINE
  8
_0-1__U_30EC_U_30A4_U_30E4_U_30FC_1_U_306E_U_30B3_U_30D4_U_30FC_2
  6
CONTINUOUS
 62
    7
 10
102.34157811919749
 20
139.32583018872819
 11
104.52714669504007
 21
140.89920529684181
  0
LINE
  8
_0-1__U_30EC_U_30A4_U_30E4_U_30FC_1_U_306E_U_30B3_U_30D4_U_30FC_2
  6
CONTINUOUS
 62
    7
 10
104.52714669504007
 20
140.89920529684181
 11
106.52874717197017
 21
142.70891395524356
  0
LINE
  8
_0-1__U_30EC_U_30A4_U_30E4_U_30FC_1_U_306E_U_30B3_U_30D4_U_30FC_2
  6
CONTINUOUS
 62
    7
 10
106.52874717197017
 20
142.70891395524356
 11
108.30951702829589
 21
144.72808441914853
  0
LINE
  8
_0-1__U_30EC_U_30A4_U_30E4_U_30FC_1_U_306E_U_30B3_U_30D4_U_30FC_2
  6
CONTINUOUS
 62
    7
 10
108.30951702829589
 20
144.72808441914853
 11
109.85136951271943
 21
146.93363454880543
  0
LINE
  8
_0-1__U_30EC_U_30A4_U_30E4_U_30FC_1_U_306E_U_30B3_U_30D4_U_30FC_2
  6
CONTINUOUS
 62
    7
 10
109.85136951271943
 20
146.93363454880543
 11
111.14276355536538
 21
149.3052382808514
  0
LINE
  8
_0-1__U_30EC_U_30A4_U_30E4_U_30FC_1_U_306E_U_30B3_U_30D4_U_30FC_2
  6
CONTINUOUS
 62
    7
 10
111.14276355536538
 20
149.3052382808514
 11
112.15751643054557
 21
151.79879839307532
  0
LINE
  8
_0-1__U_30EC_U_30A4_U_30E4_U_30FC_1_U_306E_U_30B3_U_30D4_U_30FC_2
  6
CONTINUOUS
 62
    7
 10
112.15751643054557
 20
151.79879839307532
 11
112.8842593231592
 21
154.39433333166252
  0
LINE
  8
_0-1__U_30EC_U_30A4_U_30E4_U_30FC_1_U_306E_U_30B3_U_30D4_U_30FC_2
  6
CONTINUOUS
 62
    7
 10
112.8842593231592
 20
154.39433333166252
 11
113.31713557088074
 21
157.06376556840834
  0
LINE
  8
_0-1__U_30EC_U_30A4_U_30E4_U_30FC_1_U_306E_U_30B3_U_30D4_U_30FC_2
  6
CONTINUOUS
 62
    7
 10
113.31713557088074
 20
157.06376556840834
 11
113.44977174706275
 21
159.75300710419432
  0
LINE
  8
_0-1__U_30EC_U_30A4_U_30E4_U_30FC_1_U_306E_U_30B3_U_30D4_U_30FC_2
  6
CONTINUOUS
 62
    7
 10
113.44977174706275
 20
159.75300710419432
 11
113.27355511299231
 21
162.44397118772301
  0
LINE
  8
_0-1__U_30EC_U_30A4_U_30E4_U_30FC_1_U_306E_U_30B3_U_30D4_U_30FC_2
  6
CONTINUOUS
 62
    7
 10
113.27355511299231
 20
162.44397118772301
 11
112.79882095512494
 21
165.10651323349825
  0
LINE
  8
_0-1__U_30EC_U_30A4_U_30E4_U_30FC_1_U_306E_U_30B3_U_30D4_U_30FC_2
  6
CONTINUOUS
 62
    7
 10
112.79882095512494
 20
165.10651323349825
 11
112.03177044533402
 21
167.69033484743576
  0
LINE
  8
_0-1__U_30EC_U_30A4_U_30E4_U_30FC_1_U_306E_U_30B3_U_30D4_U_30FC_2
  6
CONTINUOUS
 62
    7
 10
112.03177044533402
 20
167.69033484743576
 11
110.97481515045934
 21
170.17200938023538
  0
LINE
  8
_0-1__U_30EC_U_30A4_U_30E4_U_30FC_1_U_306E_U_30B3_U_30D4_U_30FC_2
  6
CONTINUOUS
 62
    7
 10
110.97481515045934
 20
170.17200938023538
 11
109.64207996199048
 21
172.5287992016948
  0
LINE
  8
_0-1__U_30EC_U_30A4_U_30E4_U_30FC_1_U_306E_U_30B3_U_30D4_U_30FC_2
  6
CONTINUOUS
 62
    7
 10
109.64207996199048
 20
172.5287992016948
 11
108.06198691768066
 21
174.71402326798884
  0
LINE
  8
_0-1__U_30EC_U_30A4_U_30E4_U_30FC_1_U_306E_U_30B3_U_30D4_U_30FC_2
  6
CONTINUOUS
 62
    7
 10
108.06198691768066
 20
174.71402326798884
 11
106.24418228488855
 21
176.70373816549485
  0
LINE
  8
_0-1__U_30EC_U_30A4_U_30E4_U_30FC_1_U_306E_U_30B3_U_30D4_U_30FC_2
  6
CONTINUOUS
 62
    7
 10
106.24418228488855
 20
176.70373816549485
 11
104.20968114607422
 21
178.484852531369
  0
LINE
  8
_0-1__U_30EC_U_30A4_U_30E4_U_30FC_1_U_306E_U_30B3_U_30D4_U_30FC_2
  6
CONTINUOUS
 62
    7
 10
104.20968114607422
 20
178.484852531369
 11
101.99603504202696
 21
180.02239864643602
  0
LINE
  8
_0-1__U_30EC_U_30A4_U_30E4_U_30FC_1_U_306E_U_30B3_U_30D4_U_30FC_2
  6
CONTINUOUS
 62
    7
 10
101.99603504202696
 20
180.02239864643602
 11
99.623397781335484
 21
181.29777299507552
  0
LINE
  8
_0-1__U_30EC_U_30A4_U_30E4_U_30FC_1_U_306E_U_30B3_U_30D4_U_30FC_2
  6
CONTINUOUS
 62
    7
 10
99.623397781335484
 20
181.29777299507552
 11
97.116057287170634
 21
182.30408538631704
  0
LINE
  8
_0-1__U_30EC_U_30A4_U_30E4_U_30FC_1_U_306E_U_30B3_U_30D4_U_30FC_2
  6
CONTINUOUS
 62
    7
 10
97.116057287170634
 20
182.30408538631704
 11
94.521383622454664
 21
183.02083750202323
  0
LINE
  8
_0-1__U_30EC_U_30A4_U_30E4_U_30FC_1_U_306E_U_30B3_U_30D4_U_30FC_2
  6
CONTINUOUS
 62
    7
 10
94.521383622454664
 20
183.02083750202323
 11
91.86142539829325
 21
183.44079464167518
  0
LINE
  8
_0-1__U_30EC_U_30A4_U_30E4_U_30FC_1_U_306E_U_30B3_U_30D4_U_30FC_2
  6
CONTINUOUS
 62
    7
 10
91.86142539829325
 20
183.44079464167518
 11
89.166671709730849
 21
183.56171749320751
  0
LINE
  8
_0-1__U_30EC_U_30A4_U_30E4_U_30FC_1_U_306E_U_30B3_U_30D4_U_30FC_2
  6
CONTINUOUS
 62
    7
 10
89.166671709730849
 20
183.56171749320751
 11
86.481392033752854
 21
183.37912743248918
  0
LINE
  8
_0-1__U_30EC_U_30A4_U_30E4_U_30FC_1_U_306E_U_30B3_U_30D4_U_30FC_2
  6
CONTINUOUS
 62
    7
 10
86.481392033752854
 20
183.37912743248918
 11
83.834180662886865
 21
182.89405798816605
  0
LINE
  8
_0-1__U_30EC_U_30A4_U_30E4_U_30FC_1_U_306E_U_30B3_U_30D4_U_30FC_2
  6
CONTINUOUS
 62
    7
 10
83.834180662886865
 20
182.89405798816605
 11
81.249325520303955
 21
182.11667219191949
  0
LINE
  8
_0-1__U_30EC_U_30A4_U_30E4_U_30FC_1_U_306E_U_30B3_U_30D4_U_30FC_2
  6
CONTINUOUS
 62
    7
 10
81.249325520303955
 20
182.11667219191949
 11
78.77626372621728
 21
181.05799434930211
  0
LINE
  8
_0-1__U_30EC_U_30A4_U_30E4_U_30FC_1_U_306E_U_30B3_U_30D4_U_30FC_2
  6
CONTINUOUS
 62
    7
 10
78.77626372621728
 20
181.05799434930211
 11
76.436871636958472
 21
179.72508690605909
  0
LINE
  8
_0-1__U_30EC_U_30A4_U_30E4_U_30FC_1_U_306E_U_30B3_U_30D4_U_30FC_2
  6
CONTINUOUS
 62
    7
 10
76.436871636958472
 20
179.72508690605909
 11
74.251647570664431
 21
178.13586435871329
  0
LINE
  8
_0-1__U_30EC_U_30A4_U_30E4_U_30FC_1_U_306E_U_30B3_U_30D4_U_30FC_2
  6
CONTINUOUS
 62
    7
 10
74.251647570664431
 20
178.13586435871329
 11
72.26675580683775
 21
176.31788747114692
  0
LINE
  8
_0-1__U_30EC_U_30A4_U_30E4_U_30FC_1_U_306E_U_30B3_U_30D4_U_30FC_2
  6
CONTINUOUS
 62
    7
 10
72.26675580683775
 20
176.31788747114692
 11
70.49528770832228
 21
174.28235280368708
  0
LINE
  8
_0-1__U_30EC_U_30A4_U_30E4_U_30FC_1_U_306E_U_30B3_U_30D4_U_30FC_2
  6
CONTINUOUS
 62
    7
 10
70.49528770832228
 20
174.28235280368708
 11
68.959808650546506
 21
172.05303151518191
  0
LINE
  8
_0-1__U_30EC_U_30A4_U_30E4_U_30FC_1_U_306E_U_30B3_U_30D4_U_30FC_2
  6
CONTINUOUS
 62
    7
 10
68.959808650546506
 20
172.05303151518191
 11
67.684262047132734
 21
169.67522661126245
  0
LINE
  8
_0-1__U_30EC_U_30A4_U_30E4_U_30FC_1_U_306E_U_30B3_U_30D4_U_30FC_2
  6
CONTINUOUS
 62
    7
 10
67.684262047132734
 20
169.67522661126245
 11
66.689490725766859
 21
167.16736935277478
  0
LINE
  8
_0-1__U_30EC_U_30A4_U_30E4_U_30FC_1_U_306E_U_30B3_U_30D4_U_30FC_2
  6
CONTINUOUS
 62
    7
 10
66.689490725766859
 20
167.16736935277478
 11
65.977733998514168
 21
164.55460893676135
  0
LINE
  8
_0-1__U_30EC_U_30A4_U_30E4_U_30FC_1_U_306E_U_30B3_U_30D4_U_30FC_2
  6
CONTINUOUS
 62
    7
 10
65.977733998514168
 20
164.55460893676135
 11
65.564150285509982
 21
161.88827728595228
  0
LINE
  8
_0-1__U_30EC_U_30A4_U_30E4_U_30FC_1_U_306E_U_30B3_U_30D4_U_30FC_2
  6
CONTINUOUS
 62
    7
 10
65.564150285509982
 20
161.88827728595228
 11
65.45649105159589
 21
159.19490163558393
  0
LINE
  8
_0-1__U_30EC_U_30A4_U_30E4_U_30FC_1_U_306E_U_30B3_U_30D4_U_30FC_2
  6
CONTINUOUS
 62
    7
 10
65.45649105159589
 20
159.19490163558393
 11
65.65113894651256
 21
156.49894216360164
  0
LINE
  8
_0-1__U_30EC_U_30A4_U_30E4_U_30FC_1_U_306E_U_30B3_U_30D4_U_30FC_2
  6
CONTINUOUS
 62
    7
 10
65.65113894651256
 20
156.49894216360164
 11
66.143787600903238
 21
153.84794118770193
  0
LINE
  8
_0-1__U_30EC_U_30A4_U_30E4_U_30FC_1_U_306E_U_30B3_U_30D4_U_30FC_2
  6
CONTINUOUS
 62
    7
 10
66.143787600903238
 20
153.84794118770193
 11
66.93047515496005
 21
151.27824446525401
  0
LINE
  8
_0-1__U_30EC_U_30A4_U_30E4_U_30FC_1_U_306E_U_30B3_U_30D4_U_30FC_2
  6
CONTINUOUS
 62
    7
 10
66.93047515496005
 20
151.27824446525401
 11
68.006033965455003
 21
148.80053179226238
  0
LINE
  8
_0-1__U_30EC_U_30A4_U_30E4_U_30FC_1_U_306E_U_30B3_U_30D4_U_30FC_2
  6
CONTINUOUS
 62
    7
 10
68.006033965455003
 20
148.80053179226238
 11
69.344109051926011
 21
146.46613509145695
  0
LINE
  8
_0-1__U_30EC_U_30A4_U_30E4_U_30FC_1_U_306E_U_30B3_U_30D4_U_30FC_2
  6
CONTINUOUS
 62
    7
 10
69.344109051926011
 20
146.46613509145695
 11
70.938671497273958
 21
144.29848101213778
  0
LINE
  8
_0-1__U_30EC_U_30A4_U_30E4_U_30FC_1_U_306E_U_30B3_U_30D4_U_30FC_2
  6
CONTINUOUS
 62
    7
 10
70.938671497273958
 20
144.29848101213778
 11
72.771979059749697
 21
142.31376150308537
  0
LINE
  8
_0-1__U_30EC_U_30A4_U_30E4_U_30FC_1_U_306E_U_30B3_U_30D4_U_30FC_2
  6
CONTINUOUS
 62
    7
 10
72.771979059749697
 20
142.31376150308537
 11
74.806480198563918
 21
140.55366221967128
  0
LINE
  8
_0-1__U_30EC_U_30A4_U_30E4_U_30FC_1_U_306E_U_30B3_U_30D4_U_30FC_2
  6
CONTINUOUS
 62
    7
 10
74.806480198563918
 20
140.55366221967128
 11
77.029255805647153
 21
139.03403060112768
  0
LINE
  8
_0-1__U_30EC_U_30A4_U_30E4_U_30FC_1_U_306E_U_30B3_U_30D4_U_30FC_2
  6
CONTINUOUS
 62
    7
 10
77.029255805647153
 20
139.03403060112768
 11
79.415328938731136
 21
137.76899153894382
  0
LINE
  8
_0-1__U_30EC_U_30A4_U_30E4_U_30FC_1_U_306E_U_30B3_U_30D4_U_30FC_2
  6
CONTINUOUS
 62
    7
 10
79.415328938731136
 20
137.76899153894382
 11
81.91922433741081
 21
136.77921560603156
  0
LINE
  8
_0-1__U_30EC_U_30A4_U_30E4_U_30FC_1_U_306E_U_30B3_U_30D4_U_30FC_2
  6
CONTINUOUS
 62
    7
 10
81.91922433741081
 20
136.77921560603156
 11
84.39073583852894
 21
136.10914453415043
  0
LINE
  8
_0-1__U_30EC_U_30A4_U_30E4_U_30FC_1_U_306E_U_30B3_U_30D4_U_30FC_2
  6
CONTINUOUS
 62
    7
 10
84.39073583852894
 20
136.10914453415043
 11
86.921675236767783
 21
135.69986719050289
  0
LINE
  8
_0-1__U_30EC_U_30A4_U_30E4_U_30FC_1_U_306E_U_30B3_U_30D4_U_30FC_2
  6
CONTINUOUS
 62
    7
 10
86.921675236767783
 20
135.69986719050289
 11
89.611605791650845
 21
135.5686090525148
  0
LINE
  8
_0-1__U_30EC_U_30A4_U_30E4_U_30FC_1_U_306E_U_30B3_U_30D4_U_30FC_2
  6
CONTINUOUS
 62
    7
 10
89.611605791650845
 20
135.5686090525148
 11
92.308082027955948
 21
135.73914127903467
  0
LINE
  8
_0-1__U_30EC_U_30A4_U_30E4_U_30FC_1_U_306E_U_30B3_U_30D4_U_30FC_2
  6
CONTINUOUS
 62
    7
 10
92.308082027955948
 20
135.73914127903467
 11
94.960805551598355
 21
136.20870779367428
  0
LINE
  8
_0-1__U_30EC_U_30A4_U_30E4_U_30FC_1_U_306E_U_30B3_U_30D4_U_30FC_2
  6
CONTINUOUS
 62
    7
 10
94.960805551598355
 20
136.20870779367428
 11
97.541182070050468
 21
136.97489702959373
  0
LINE
  8
_0-1__U_30EC_U_30A4_U_30E4_U_30FC_1_U_306E_U_30B3_U_30D4_U_30FC_2
  6
CONTINUOUS
 62
    7
 10
97.541182070050468
 20
136.97489702959373
 11
100.03233061543449
 21
138.02771820988605
  0
LINE
  8
_0-1__U_30EC_U_30A4_U_30E4_U_30FC_1_U_306E_U_30B3_U_30D4_U_30FC_2
  6
CONTINUOUS
 62
    7
 10
100.03233061543449
 20
138.02771820988605
 11
102.37861289566399
 21
139.34891232847937
  0
LINE
  8
_0-1__U_30EC_U_30A4_U_30E4_U_30FC_1_U_306E_U_30B3_U_30D4_U_30FC_2
  6
CONTINUOUS
 62
    7
 10
102.37861289566399
 20
139.34891232847937
 11
104.56263117853814
 21
140.92642155117537
  0
LINE
  8
_0-1__U_30EC_U_30A4_U_30E4_U_30FC_1_U_306E_U_30B3_U_30D4_U_30FC_2
  6
CONTINUOUS
 62
    7
 10
104.56263117853814
 20
140.92642155117537
 11
106.56319812682273
 21
142.7440539291932
  0
LINE
  8
_0-1__U_30EC_U_30A4_U_30E4_U_30FC_1_U_306E_U_30B3_U_30D4_U_30FC_2
  6
CONTINUOUS
 62
    7
 10
106.56319812682273
 20
142.7440539291932
 11
108.34207318063147
 21
144.76632497903481
  0
LINE
  8
_0-1__U_30EC_U_30A4_U_30E4_U_30FC_1_U_306E_U_30B3_U_30D4_U_30FC_2
  6
CONTINUOUS
 62
    7
 10
108.34207318063147
 20
144.76632497903481
 11
109.88099733389254
 21
146.97979882830779
  0
LINE
  8
_0-1__U_30EC_U_30A4_U_30E4_U_30FC_1_U_306E_U_30B3_U_30D4_U_30FC_2
  6
CONTINUOUS
 62
    7
 10
109.88099733389254
 20
146.97979882830779
 11
111.16860177150465
 21
149.35760373222715
  0
LINE
  8
_0-1__U_30EC_U_30A4_U_30E4_U_30FC_1_U_306E_U_30B3_U_30D4_U_30FC_2
  6
CONTINUOUS
 62
    7
 10
111.16860177150465
 20
149.35760373222715
 11
112.17680896526304
 21
151.85529795903344
  0
LINE
  8
_0-1__U_30EC_U_30A4_U_30E4_U_30FC_1_U_306E_U_30B3_U_30D4_U_30FC_2
  6
CONTINUOUS
 62
    7
 10
112.17680896526304
 20
151.85529795903344
 11
112.89666166690597
 21
154.45186642626626
  0
LINE
  8
_0-1__U_30EC_U_30A4_U_30E4_U_30FC_1_U_306E_U_30B3_U_30D4_U_30FC_2
  6
CONTINUOUS
 62
    7
 10
112.89666166690597
 20
154.45186642626626
 11
113.32368125230266
 21
157.12267670120613
  0
LINE
  8
_0-1__U_30EC_U_30A4_U_30E4_U_30FC_1_U_306E_U_30B3_U_30D4_U_30FC_2
  6
CONTINUOUS
 62
    7
 10
113.32368125230266
 20
157.12267670120613
 11
113.4478769445459
 21
159.81329627518616
  0
LINE
  8
_0-1__U_30EC_U_30A4_U_30E4_U_30FC_1_U_306E_U_30B3_U_30D4_U_30FC_2
  6
CONTINUOUS
 62
    7
 10
113.4478769445459
 20
159.81329627518616
 11
113.26821521499016
 21
162.5011597727781
  0
LINE
  8
_0-1__U_30EC_U_30A4_U_30E4_U_30FC_1_U_306E_U_30B3_U_30D4_U_30FC_2
  6
CONTINUOUS
 62
    7
 10
113.26821521499016
 20
162.5011597727781
 11
112.78659086615221
 21
165.16025672306827
  0
LINE
  8
_0-1__U_30EC_U_30A4_U_30E4_U_30FC_1_U_306E_U_30B3_U_30D4_U_30FC_2
  6
CONTINUOUS
 62
    7
 10
112.78659086615221
 20
165.16025672306827
 11
112.01454496790768
 21
167.74097775106893
  0
LINE
  8
_0-1__U_30EC_U_30A4_U_30E4_U_30FC_1_U_306E_U_30B3_U_30D4_U_30FC_2
  6
CONTINUOUS
 62
    7
 10
112.01454496790768
 20
167.74097775106893
 11
110.95466134187063
 21
170.21576209289807
  0
LINE
  8
_0-1__U_30EC_U_30A4_U_30E4_U_30FC_1_U_306E_U_30B3_U_30D4_U_30FC_2
  6
CONTINUOUS
 62
    7
 10
110.95466134187063
 20
170.21576209289807
 11
109.6217538986275
 21
172.56393917564444
  0
LINE
  8
_0-1__U_30EC_U_30A4_U_30E4_U_30FC_1_U_306E_U_30B3_U_30D4_U_30FC_2
  6
CONTINUOUS
 62
    7
 10
109.6217538986275
 20
172.56393917564444
 11
108.03821575883239
 21
174.74399559871048
  0
LINE
  8
_0-1__U_30EC_U_30A4_U_30E4_U_30FC_1_U_306E_U_30B3_U_30D4_U_30FC_2
  6
CONTINUOUS
 62
    7
 10
108.03821575883239
 20
174.74399559871048
 11
106.2186885782977
 21
176.73233245802234
  0
LINE
  8
_0-1__U_30EC_U_30A4_U_30E4_U_30FC_1_U_306E_U_30B3_U_30D4_U_30FC_2
  6
CONTINUOUS
 62
    7
 10
106.2186885782977
 20
176.73233245802234
 11
104.18194812741797
 21
178.5089681997658
  0
LINE
  8
_0-1__U_30EC_U_30A4_U_30E4_U_30FC_1_U_306E_U_30B3_U_30D4_U_30FC_2
  6
CONTINUOUS
 62
    7
 10
104.18194812741797
 20
178.5089681997658
 11
101.96485692788542
 21
180.04238020025056
  0
LINE
  8
_0-1__U_30EC_U_30A4_U_30E4_U_30FC_1_U_306E_U_30B3_U_30D4_U_30FC_2
  6
CONTINUOUS
 62
    7
 10
101.96485692788542
 20
180.04238020025056
 11
99.589808100354162
 21
181.31396494385623
  0
LINE
  8
_0-1__U_30EC_U_30A4_U_30E4_U_30FC_1_U_306E_U_30B3_U_30D4_U_30FC_2
  6
CONTINUOUS
 62
    7
 10
99.589808100354162
 20
181.31396494385623
 11
97.079539275026946
 21
182.31683223961235
  0
LINE
  8
_0-1__U_30EC_U_30A4_U_30E4_U_30FC_1_U_306E_U_30B3_U_30D4_U_30FC_2
  6
CONTINUOUS
 62
    7
 10
97.079539275026946
 20
182.31683223961235
 11
94.479870221857368
 21
183.03151729802752
  0
LINE
  8
_0-1__U_30EC_U_30A4_U_30E4_U_30FC_1_U_306E_U_30B3_U_30D4_U_30FC_2
  6
CONTINUOUS
 62
    7
 10
94.479870221857368
 20
183.03151729802752
 11
91.817155921307744
 21
183.4463067944516
  0
LINE
  8
_0-1__U_30EC_U_30A4_U_30E4_U_30FC_1_U_306E_U_30B3_U_30D4_U_30FC_2
  6
CONTINUOUS
 62
    7
 10
91.817155921307744
 20
183.4463067944516
 11
89.117406844291736
 21
183.56171749320751
  0
LINE
  8
_0-1__U_30EC_U_30A4_U_30E4_U_30FC_1_U_306E_U_30B3_U_30D4_U_30FC_2
  6
CONTINUOUS
 62
    7
 10
89.117406844291736
 20
183.56171749320751
 11
86.429371091925645
 21
183.37361527971288
  0
LINE
  8
_0-1__U_30EC_U_30A4_U_30E4_U_30FC_1_U_306E_U_30B3_U_30D4_U_30FC_2
  6
CONTINUOUS
 62
    7
 10
86.429371091925645
 20
183.37361527971288
 11
83.782848740156624
 21
182.88337819216176
  0
LINE
  8
_0-1__U_30EC_U_30A4_U_30E4_U_30FC_1_U_306E_U_30B3_U_30D4_U_30FC_2
  6
CONTINUOUS
 62
    7
 10
83.782848740156624
 20
182.88337819216176
 11
81.197304578476633
 21
182.09806867629899
  0
LINE
  8
_0-1__U_30EC_U_30A4_U_30E4_U_30FC_1_U_306E_U_30B3_U_30D4_U_30FC_2
  6
CONTINUOUS
 62
    7
 10
81.197304578476633
 20
182.09806867629899
 11
78.724415039164342
 21
181.03422319045384
  0
LINE
  8
_0-1__U_30EC_U_30A4_U_30E4_U_30FC_1_U_306E_U_30B3_U_30D4_U_30FC_2
  6
CONTINUOUS
 62
    7
 10
78.724415039164342
 20
181.03422319045384
 11
76.386917752422278
 21
179.6958035944343
  0
LINE
  8
_0-1__U_30EC_U_30A4_U_30E4_U_30FC_1_U_306E_U_30B3_U_30D4_U_30FC_2
  6
CONTINUOUS
 62
    7
 10
76.386917752422278
 20
179.6958035944343
 11
74.205655545936338
 21
178.09693477972993
  0
LINE
  8
_0-1__U_30EC_U_30A4_U_30E4_U_30FC_1_U_306E_U_30B3_U_30D4_U_30FC_2
  6
CONTINUOUS
 62
    7
 10
74.205655545936338
 20
178.09693477972993
 11
72.224208877594947
 21
176.27379024893568
  0
LINE
  8
_0-1__U_30EC_U_30A4_U_30E4_U_30FC_1_U_306E_U_30B3_U_30D4_U_30FC_2
  6
CONTINUOUS
 62
    7
 10
72.224208877594947
 20
176.27379024893568
 11
70.459803224824213
 21
174.23515499553909
  0
LINE
  8
_0-1__U_30EC_U_30A4_U_30E4_U_30FC_1_U_306E_U_30B3_U_30D4_U_30FC_2
  6
CONTINUOUS
 62
    7
 10
70.459803224824213
 20
174.23515499553909
 11
68.930180829373285
 21
172.00721174522809
  0
LINE
  8
_0-1__U_30EC_U_30A4_U_30E4_U_30FC_1_U_306E_U_30B3_U_30D4_U_30FC_2
  6
CONTINUOUS
 62
    7
 10
68.930180829373285
 20
172.00721174522809
 11
67.664280493318188
 21
169.62768429356603
  0
LINE
  8
_0-1__U_30EC_U_30A4_U_30E4_U_30FC_1_U_306E_U_30B3_U_30D4_U_30FC_2
  6
CONTINUOUS
 62
    7
 10
67.664280493318188
 20
169.62768429356603
 11
66.673987796083225
 21
167.12292762101512
  0
LINE
  8
_0-1__U_30EC_U_30A4_U_30E4_U_30FC_1_U_306E_U_30B3_U_30D4_U_30FC_2
  6
CONTINUOUS
 62
    7
 10
66.673987796083225
 20
167.12292762101512
 11
65.968949005026843
 21
164.51361230048687
  0
LINE
  8
_0-1__U_30EC_U_30A4_U_30E4_U_30FC_1_U_306E_U_30B3_U_30D4_U_30FC_2
  6
CONTINUOUS
 62
    7
 10
65.968949005026843
 20
164.51361230048687
 11
65.559843916153454
 21
161.84900319742027
  0
LINE
  8
_0-1__U_30EC_U_30A4_U_30E4_U_30FC_1_U_306E_U_30B3_U_30D4_U_30FC_2
  6
CONTINUOUS
 62
    7
 10
65.559843916153454
 20
161.84900319742027
 11
65.45649105159589
 21
159.15769460434316
  0
LINE
  8
_0-1__U_30EC_U_30A4_U_30E4_U_30FC_1_U_306E_U_30B3_U_30D4_U_30FC_2
  6
CONTINUOUS
 62
    7
 10
65.45649105159589
 20
159.15769460434316
 11
65.655100806320547
 21
156.46173513236099
  0
LINE
  8
_0-1__U_30EC_U_30A4_U_30E4_U_30FC_1_U_306E_U_30B3_U_30D4_U_30FC_2
  6
CONTINUOUS
 62
    7
 10
65.655100806320547
 20
156.46173513236099
 11
66.151022301422245
 21
153.81383474239792
  0
LINE
  8
_0-1__U_30EC_U_30A4_U_30E4_U_30FC_1_U_306E_U_30B3_U_30D4_U_30FC_2
  6
CONTINUOUS
 62
    7
 10
66.151022301422245
 20
153.81383474239792
 11
66.943222008255475
 21
151.24034841491627
  0
LINE
  8
_0-1__U_30EC_U_30A4_U_30E4_U_30FC_1_U_306E_U_30B3_U_30D4_U_30FC_2
  6
CONTINUOUS
 62
    7
 10
66.943222008255475
 20
151.24034841491627
 11
68.022225914235719
 21
148.76298025147307
  0
LINE
  8
_0-1__U_30EC_U_30A4_U_30E4_U_30FC_1_U_306E_U_30B3_U_30D4_U_30FC_2
  6
CONTINUOUS
 62
    7
 10
68.022225914235719
 20
148.76298025147307
 11
69.366674427354496
 21
146.43030609841045
  0
LINE
  8
_0-1__U_30EC_U_30A4_U_30E4_U_30FC_1_U_306E_U_30B3_U_30D4_U_30FC_2
  6
CONTINUOUS
 62
    7
 10
69.366674427354496
 20
146.43030609841045
 11
70.966749025478748
 21
144.2636855477368
  0
LINE
  8
_0-1__U_30EC_U_30A4_U_30E4_U_30FC_1_U_306E_U_30B3_U_30D4_U_30FC_2
  6
CONTINUOUS
 62
    7
 10
70.966749025478748
 20
144.2636855477368
 11
72.805224231182365
 21
142.28137760552417
  0
LINE
  8
_0-1__U_30EC_U_30A4_U_30E4_U_30FC_1_U_306E_U_30B3_U_30D4_U_30FC_2
  6
CONTINUOUS
 62
    7
 10
72.805224231182365
 20
142.28137760552417
 11
74.844893013224464
 21
140.52231185075547
  0
LINE
  8
_0-1__U_30EC_U_30A4_U_30E4_U_30FC_1_U_306E_U_30B3_U_30D4_U_30FC_2
  6
CONTINUOUS
 62
    7
 10
74.844893013224464
 20
140.52231185075547
 11
77.073697537406815
 21
139.00715885634267
  0
LINE
  8
_0-1__U_30EC_U_30A4_U_30E4_U_30FC_1_U_306E_U_30B3_U_30D4_U_30FC_2
  6
CONTINUOUS
 62
    7
 10
77.073697537406815
 20
139.00715885634267
 11
79.46493831371879
 21
137.74590939919275
  0
LINE
  8
_0-1__U_30EC_U_30A4_U_30E4_U_30FC_1_U_306E_U_30B3_U_30D4_U_30FC_2
  6
CONTINUOUS
 62
    7
 10
79.46493831371879
 20
137.74590939919275
 11
81.973484591303418
 21
136.76233463815376
  0
LINE
  8
_0-1__U_30EC_U_30A4_U_30E4_U_30FC_1_U_306E_U_30B3_U_30D4_U_30FC_2
  6
CONTINUOUS
 62
    7
 10
81.973484591303418
 20
136.76233463815376
 11
84.420363659702161
 21
136.0998427763403
  0
LINE
  8
_0-1__U_30EC_U_30A4_U_30E4_U_30FC_1_U_306E_U_30B3_U_30D4_U_30FC_2
  6
CONTINUOUS
 62
    7
 10
84.420363659702161
 20
136.0998427763403
 11
86.921675236767783
 21
135.69986719050289
  0
LINE
  8
_0-1__U_30EC_U_30A4_U_30E4_U_30FC_1_U_306E_U_30B3_U_30D4_U_30FC_2
  6
CONTINUOUS
 62
    7
 10
45.45082156875003
 20
193.56403547030763
 11
45.45082156875003
 21
125.56577431109199
  0
LINE
  8
_0-1__U_30EC_U_30A4_U_30E4_U_30FC_1_U_306E_U_30B3_U_30D4_U_30FC_2
  6
CONTINUOUS
 62
    7
 10
91.863492455584378
 20
115.60600326323456
 11
91.751526852313759
 21
115.60600326323456
  0
LINE
  8
_0-1__U_30EC_U_30A4_U_30E4_U_30FC_1_U_306E_U_30B3_U_30D4_U_30FC_2
  6
CONTINUOUS
 62
    7
 10
91.751526852313759
 20
115.60600326323456
 11
87.149912812665548
 21
115.60600326323456
  0
LINE
  8
_0-1__U_30EC_U_30A4_U_30E4_U_30FC_1_U_306E_U_30B3_U_30D4_U_30FC_2
  6
CONTINUOUS
 62
    7
 10
87.035018878232563
 20
115.63528657485924
 11
87.149912812665548
 21
115.63528657485924
  0
LINE
  8
_0-1__U_30EC_U_30A4_U_30E4_U_30FC_1_U_306E_U_30B3_U_30D4_U_30FC_2
  6
CONTINUOUS
 62
    7
 10
87.149912812665548
 20
115.63528657485924
 11
91.751526852313759
 21
115.63528657485924
  0
LINE
  8
_0-1__U_30EC_U_30A4_U_30E4_U_30FC_1_U_306E_U_30B3_U_30D4_U_30FC_2
  6
CONTINUOUS
 62
    7
 10
55.450727979010594
 20
115.5670736842512
 11
123.45036717642029
 21
115.5670736842512
  0
LINE
  8
_0-1__U_30EC_U_30A4_U_30E4_U_30FC_1_U_306E_U_30B3_U_30D4_U_30FC_2
  6
CONTINUOUS
 62
    7
 10
123.45036717642029
 20
203.56480315443932
 11
55.450727979010594
 21
203.56480315443932
  0
LINE
  8
_0-1__U_30EC_U_30A4_U_30E4_U_30FC_1_U_306E_U_30B3_U_30D4_U_30FC_2
  6
CONTINUOUS
 62
    7
 10
133.45079035100355
 20
125.56577431109199
 11
133.45079035100355
 21
193.56403547030763
  0
LINE
  8
_0-1__U_30EC_U_30A4_U_30E4_U_30FC_1_U_306E_U_30B3_U_30D4_U_30FC_2
  6
CONTINUOUS
 62
    7
 10
133.45079035100355
 20
125.56577431109199
 11
133.38791735839766
 21
124.44680729748265
  0
LINE
  8
_0-1__U_30EC_U_30A4_U_30E4_U_30FC_1_U_306E_U_30B3_U_30D4_U_30FC_2
  6
CONTINUOUS
 62
    7
 10
133.38791735839766
 20
124.44680729748265
 11
133.19843710670909
 21
123.3426541944601
  0
LINE
  8
_0-1__U_30EC_U_30A4_U_30E4_U_30FC_1_U_306E_U_30B3_U_30D4_U_30FC_2
  6
CONTINUOUS
 62
    7
 10
133.19843710670909
 20
123.3426541944601
 11
132.88803400348797
 21
122.26640636486817
  0
LINE
  8
_0-1__U_30EC_U_30A4_U_30E4_U_30FC_1_U_306E_U_30B3_U_30D4_U_30FC_2
  6
CONTINUOUS
 62
    7
 10
132.88803400348797
 20
122.26640636486817
 11
132.45929187034869
 21
121.22977713335635
  0
LINE
  8
_0-1__U_30EC_U_30A4_U_30E4_U_30FC_1_U_306E_U_30B3_U_30D4_U_30FC_2
  6
CONTINUOUS
 62
    7
 10
132.45929187034869
 20
121.22977713335635
 11
131.91755060529306
 21
120.24792492006029
  0
LINE
  8
_0-1__U_30EC_U_30A4_U_30E4_U_30FC_1_U_306E_U_30B3_U_30D4_U_30FC_2
  6
CONTINUOUS
 62
    7
 10
131.91755060529306
 20
120.24792492006029
 11
131.26866687064637
 21
119.33221854008079
  0
LINE
  8
_0-1__U_30EC_U_30A4_U_30E4_U_30FC_1_U_306E_U_30B3_U_30D4_U_30FC_2
  6
CONTINUOUS
 62
    7
 10
131.26866687064637
 20
119.33221854008079
 11
130.52056438602438
 21
118.49643837535925
  0
LINE
  8
_0-1__U_30EC_U_30A4_U_30E4_U_30FC_1_U_306E_U_30B3_U_30D4_U_30FC_2
  6
CONTINUOUS
 62
    7
 10
130.52056438602438
 20
118.49643837535925
 11
129.68478422130272
 21
117.74988618370557
  0
LINE
  8
_0-1__U_30EC_U_30A4_U_30E4_U_30FC_1_U_306E_U_30B3_U_30D4_U_30FC_2
  6
CONTINUOUS
 62
    7
 10
129.68478422130272
 20
117.74988618370557
 11
128.77028362474312
 21
117.09979666563888
  0
LINE
  8
_0-1__U_30EC_U_30A4_U_30E4_U_30FC_1_U_306E_U_30B3_U_30D4_U_30FC_2
  6
CONTINUOUS
 62
    7
 10
128.77028362474312
 20
117.09979666563888
 11
127.78774239234997
 21
116.55857216490617
  0
LINE
  8
_0-1__U_30EC_U_30A4_U_30E4_U_30FC_1_U_306E_U_30B3_U_30D4_U_30FC_2
  6
CONTINUOUS
 62
    7
 10
127.78774239234997
 20
116.55857216490617
 11
126.75249119903231
 21
116.12862424834699
  0
LINE
  8
_0-1__U_30EC_U_30A4_U_30E4_U_30FC_1_U_306E_U_30B3_U_30D4_U_30FC_2
  6
CONTINUOUS
 62
    7
 10
126.75249119903231
 20
116.12862424834699
 11
125.67538209556892
 21
115.81787663557745
  0
LINE
  8
_0-1__U_30EC_U_30A4_U_30E4_U_30FC_1_U_306E_U_30B3_U_30D4_U_30FC_2
  6
CONTINUOUS
 62
    7
 10
125.67538209556892
 20
115.81787663557745
 11
124.57019546390086
 21
115.62942991253428
  0
LINE
  8
_0-1__U_30EC_U_30A4_U_30E4_U_30FC_1_U_306E_U_30B3_U_30D4_U_30FC_2
  6
CONTINUOUS
 62
    7
 10
124.57019546390086
 20
115.62942991253428
 11
123.45036717642029
 21
115.5670736842512
  0
LINE
  8
_0-1__U_30EC_U_30A4_U_30E4_U_30FC_1_U_306E_U_30B3_U_30D4_U_30FC_2
  6
CONTINUOUS
 62
    7
 10
123.45036717642029
 20
203.56480315443932
 11
124.57019546390086
 21
203.50124114273657
  0
LINE
  8
_0-1__U_30EC_U_30A4_U_30E4_U_30FC_1_U_306E_U_30B3_U_30D4_U_30FC_2
  6
CONTINUOUS
 62
    7
 10
124.57019546390086
 20
203.50124114273657
 11
125.67538209556892
 21
203.31365569356464
  0
LINE
  8
_0-1__U_30EC_U_30A4_U_30E4_U_30FC_1_U_306E_U_30B3_U_30D4_U_30FC_2
  6
CONTINUOUS
 62
    7
 10
125.67538209556892
 20
203.31365569356464
 11
126.75249119903231
 21
203.00359709989218
  0
LINE
  8
_0-1__U_30EC_U_30A4_U_30E4_U_30FC_1_U_306E_U_30B3_U_30D4_U_30FC_2
  6
CONTINUOUS
 62
    7
 10
126.75249119903231
 20
203.00359709989218
 11
127.78774239234997
 21
202.57330467378446
  0
LINE
  8
_0-1__U_30EC_U_30A4_U_30E4_U_30FC_1_U_306E_U_30B3_U_30D4_U_30FC_2
  6
CONTINUOUS
 62
    7
 10
127.78774239234997
 20
202.57330467378446
 11
128.77028362474312
 21
202.03052988008332
  0
LINE
  8
_0-1__U_30EC_U_30A4_U_30E4_U_30FC_1_U_306E_U_30B3_U_30D4_U_30FC_2
  6
CONTINUOUS
 62
    7
 10
128.77028362474312
 20
202.03052988008332
 11
129.68478422130272
 21
201.38233516453349
  0
LINE
  8
_0-1__U_30EC_U_30A4_U_30E4_U_30FC_1_U_306E_U_30B3_U_30D4_U_30FC_2
  6
CONTINUOUS
 62
    7
 10
129.68478422130272
 20
201.38233516453349
 11
130.52056438602438
 21
200.63440493468588
  0
LINE
  8
_0-1__U_30EC_U_30A4_U_30E4_U_30FC_1_U_306E_U_30B3_U_30D4_U_30FC_2
  6
CONTINUOUS
 62
    7
 10
130.52056438602438
 20
200.63440493468588
 11
131.26866687064637
 21
199.79879702473849
  0
LINE
  8
_0-1__U_30EC_U_30A4_U_30E4_U_30FC_1_U_306E_U_30B3_U_30D4_U_30FC_2
  6
CONTINUOUS
 62
    7
 10
131.26866687064637
 20
199.79879702473849
 11
131.91755060529306
 21
198.88412417340462
  0
LINE
  8
_0-1__U_30EC_U_30A4_U_30E4_U_30FC_1_U_306E_U_30B3_U_30D4_U_30FC_2
  6
CONTINUOUS
 62
    7
 10
131.91755060529306
 20
198.88412417340462
 11
132.45929187034869
 21
197.90296097920552
  0
LINE
  8
_0-1__U_30EC_U_30A4_U_30E4_U_30FC_1_U_306E_U_30B3_U_30D4_U_30FC_2
  6
CONTINUOUS
 62
    7
 10
132.45929187034869
 20
197.90296097920552
 11
132.88803400348797
 21
196.86770978588797
  0
LINE
  8
_0-1__U_30EC_U_30A4_U_30E4_U_30FC_1_U_306E_U_30B3_U_30D4_U_30FC_2
  6
CONTINUOUS
 62
    7
 10
132.88803400348797
 20
196.86770978588797
 11
133.19843710670909
 21
195.78905038945626
  0
LINE
  8
_0-1__U_30EC_U_30A4_U_30E4_U_30FC_1_U_306E_U_30B3_U_30D4_U_30FC_2
  6
CONTINUOUS
 62
    7
 10
133.19843710670909
 20
195.78905038945626
 11
133.38791735839766
 21
194.68403601256236
  0
LINE
  8
_0-1__U_30EC_U_30A4_U_30E4_U_30FC_1_U_306E_U_30B3_U_30D4_U_30FC_2
  6
CONTINUOUS
 62
    7
 10
133.38791735839766
 20
194.68403601256236
 11
133.45079035100355
 21
193.56403547030763
  0
LINE
  8
_0-1__U_30EC_U_30A4_U_30E4_U_30FC_1_U_306E_U_30B3_U_30D4_U_30FC_2
  6
CONTINUOUS
 62
    7
 10
55.450727979010594
 20
115.5670736842512
 11
54.330727436755751
 21
115.62942991253428
  0
LINE
  8
_0-1__U_30EC_U_30A4_U_30E4_U_30FC_1_U_306E_U_30B3_U_30D4_U_30FC_2
  6
CONTINUOUS
 62
    7
 10
54.330727436755751
 20
115.62942991253428
 11
53.226402078958927
 21
115.81787663557745
  0
LINE
  8
_0-1__U_30EC_U_30A4_U_30E4_U_30FC_1_U_306E_U_30B3_U_30D4_U_30FC_2
  6
CONTINUOUS
 62
    7
 10
53.226402078958927
 20
115.81787663557745
 11
52.148259446850034
 21
116.12862424834699
  0
LINE
  8
_0-1__U_30EC_U_30A4_U_30E4_U_30FC_1_U_306E_U_30B3_U_30D4_U_30FC_2
  6
CONTINUOUS
 62
    7
 10
52.148259446850034
 20
116.12862424834699
 11
51.111802470112593
 21
116.55857216490617
  0
LINE
  8
_0-1__U_30EC_U_30A4_U_30E4_U_30FC_1_U_306E_U_30B3_U_30D4_U_30FC_2
  6
CONTINUOUS
 62
    7
 10
51.111802470112593
 20
116.55857216490617
 11
50.130639275913495
 21
117.09979666563888
  0
LINE
  8
_0-1__U_30EC_U_30A4_U_30E4_U_30FC_1_U_306E_U_30B3_U_30D4_U_30FC_2
  6
CONTINUOUS
 62
    7
 10
50.130639275913495
 20
117.09979666563888
 11
49.215449660256809
 21
117.74988618370557
  0
LINE
  8
_0-1__U_30EC_U_30A4_U_30E4_U_30FC_1_U_306E_U_30B3_U_30D4_U_30FC_2
  6
CONTINUOUS
 62
    7
 10
49.215449660256809
 20
117.74988618370557
 11
48.379669495535268
 21
118.49643837535925
  0
LINE
  8
_0-1__U_30EC_U_30A4_U_30E4_U_30FC_1_U_306E_U_30B3_U_30D4_U_30FC_2
  6
CONTINUOUS
 62
    7
 10
48.379669495535268
 20
118.49643837535925
 11
47.631911520461699
 21
119.33221854008079
  0
LINE
  8
_0-1__U_30EC_U_30A4_U_30E4_U_30FC_1_U_306E_U_30B3_U_30D4_U_30FC_2
  6
CONTINUOUS
 62
    7
 10
47.631911520461699
 20
119.33221854008079
 11
46.983716804911978
 21
120.24792492006029
  0
LINE
  8
_0-1__U_30EC_U_30A4_U_30E4_U_30FC_1_U_306E_U_30B3_U_30D4_U_30FC_2
  6
CONTINUOUS
 62
    7
 10
46.983716804911978
 20
120.24792492006029
 11
46.441458775533647
 21
121.22977713335635
  0
LINE
  8
_0-1__U_30EC_U_30A4_U_30E4_U_30FC_1_U_306E_U_30B3_U_30D4_U_30FC_2
  6
CONTINUOUS
 62
    7
 10
46.441458775533647
 20
121.22977713335635
 11
46.012544387620096
 21
122.26640636486817
  0
LINE
  8
_0-1__U_30EC_U_30A4_U_30E4_U_30FC_1_U_306E_U_30B3_U_30D4_U_30FC_2
  6
CONTINUOUS
 62
    7
 10
46.012544387620096
 20
122.26640636486817
 11
45.701107755753469
 21
123.3426541944601
  0
LINE
  8
_0-1__U_30EC_U_30A4_U_30E4_U_30FC_1_U_306E_U_30B3_U_30D4_U_30FC_2
  6
CONTINUOUS
 62
    7
 10
45.701107755753469
 20
123.3426541944601
 11
45.513350051807379
 21
124.44680729748265
  0
LINE
  8
_0-1__U_30EC_U_30A4_U_30E4_U_30FC_1_U_306E_U_30B3_U_30D4_U_30FC_2
  6
CONTINUOUS
 62
    7
 10
45.513350051807379
 20
124.44680729748265
 11
45.45082156875003
 21
125.56577431109199
  0
LINE
  8
_0-1__U_30EC_U_30A4_U_30E4_U_30FC_1_U_306E_U_30B3_U_30D4_U_30FC_2
  6
CONTINUOUS
 62
    7
 10
45.45082156875003
 20
193.56403547030763
 11
45.513350051807379
 21
194.68403601256236
  0
LINE
  8
_0-1__U_30EC_U_30A4_U_30E4_U_30FC_1_U_306E_U_30B3_U_30D4_U_30FC_2
  6
CONTINUOUS
 62
    7
 10
45.513350051807379
 20
194.68403601256236
 11
45.701107755753469
 21
195.78905038945626
  0
LINE
  8
_0-1__U_30EC_U_30A4_U_30E4_U_30FC_1_U_306E_U_30B3_U_30D4_U_30FC_2
  6
CONTINUOUS
 62
    7
 10
45.701107755753469
 20
195.78905038945626
 11
46.012544387620096
 21
196.86770978588797
  0
LINE
  8
_0-1__U_30EC_U_30A4_U_30E4_U_30FC_1_U_306E_U_30B3_U_30D4_U_30FC_2
  6
CONTINUOUS
 62
    7
 10
46.012544387620096
 20
196.86770978588797
 11
46.441458775533647
 21
197.90296097920552
  0
LINE
  8
_0-1__U_30EC_U_30A4_U_30E4_U_30FC_1_U_306E_U_30B3_U_30D4_U_30FC_2
  6
CONTINUOUS
 62
    7
 10
46.441458775533647
 20
197.90296097920552
 11
46.983716804911978
 21
198.88412417340462
  0
LINE
  8
_0-1__U_30EC_U_30A4_U_30E4_U_30FC_1_U_306E_U_30B3_U_30D4_U_30FC_2
  6
CONTINUOUS
 62
    7
 10
46.983716804911978
 20
198.88412417340462
 11
47.631911520461699
 21
199.79879702473849
  0
LINE
  8
_0-1__U_30EC_U_30A4_U_30E4_U_30FC_1_U_306E_U_30B3_U_30D4_U_30FC_2
  6
CONTINUOUS
 62
    7
 10
47.631911520461699
 20
199.79879702473849
 11
48.379669495535268
 21
200.63440493468588
  0
LINE
  8
_0-1__U_30EC_U_30A4_U_30E4_U_30FC_1_U_306E_U_30B3_U_30D4_U_30FC_2
  6
CONTINUOUS
 62
    7
 10
48.379669495535268
 20
200.63440493468588
 11
49.215449660256809
 21
201.38233516453349
  0
LINE
  8
_0-1__U_30EC_U_30A4_U_30E4_U_30FC_1_U_306E_U_30B3_U_30D4_U_30FC_2
  6
CONTINUOUS
 62
    7
 10
49.215449660256809
 20
201.38233516453349
 11
50.130639275913495
 21
202.03052988008332
  0
LINE
  8
_0-1__U_30EC_U_30A4_U_30E4_U_30FC_1_U_306E_U_30B3_U_30D4_U_30FC_2
  6
CONTINUOUS
 62
    7
 10
50.130639275913495
 20
202.03052988008332
 11
51.111802470112593
 21
202.57330467378446
  0
LINE
  8
_0-1__U_30EC_U_30A4_U_30E4_U_30FC_1_U_306E_U_30B3_U_30D4_U_30FC_2
  6
CONTINUOUS
 62
    7
 10
51.111802470112593
 20
202.57330467378446
 11
52.148259446850034
 21
203.00359709989218
  0
LINE
  8
_0-1__U_30EC_U_30A4_U_30E4_U_30FC_1_U_306E_U_30B3_U_30D4_U_30FC_2
  6
CONTINUOUS
 62
    7
 10
52.148259446850034
 20
203.00359709989218
 11
53.226402078958927
 21
203.31365569356464
  0
LINE
  8
_0-1__U_30EC_U_30A4_U_30E4_U_30FC_1_U_306E_U_30B3_U_30D4_U_30FC_2
  6
CONTINUOUS
 62
    7
 10
53.226402078958927
 20
203.31365569356464
 11
54.330727436755751
 21
203.50124114273657
  0
LINE
  8
_0-1__U_30EC_U_30A4_U_30E4_U_30FC_1_U_306E_U_30B3_U_30D4_U_30FC_2
  6
CONTINUOUS
 62
    7
 10
54.330727436755751
 20
203.50124114273657
 11
55.450727979010594
 21
203.56480315443932
  0
LINE
  8
_0-1__U_30EC_U_30A4_U_30E4_U_30FC_1_U_306E_U_30B3_U_30D4_U_30FC_2
  6
CONTINUOUS
 62
    7
 10
123.6167652883579
 20
203.56394188056797
 11
125.28333022934748
 21
203.40443395960094
  0
LINE
  8
_0-1__U_30EC_U_30A4_U_30E4_U_30FC_1_U_306E_U_30B3_U_30D4_U_30FC_2
  6
CONTINUOUS
 62
    7
 10
125.28333022934748
 20
203.40443395960094
 11
126.89942452147829
 21
202.96931839981389
  0
LINE
  8
_0-1__U_30EC_U_30A4_U_30E4_U_30FC_1_U_306E_U_30B3_U_30D4_U_30FC_2
  6
CONTINUOUS
 62
    7
 10
126.89942452147829
 20
202.96931839981389
 11
128.42060643299021
 21
202.26824146856549
  0
LINE
  8
_0-1__U_30EC_U_30A4_U_30E4_U_30FC_1_U_306E_U_30B3_U_30D4_U_30FC_2
  6
CONTINUOUS
 62
    7
 10
128.42060643299021
 20
202.26824146856549
 11
129.80053942960706
 21
201.32376854128435
  0
LINE
  8
_0-1__U_30EC_U_30A4_U_30E4_U_30FC_1_U_306E_U_30B3_U_30D4_U_30FC_2
  6
CONTINUOUS
 62
    7
 10
129.80053942960706
 20
201.32376854128435
 11
131.00218873486222
 21
200.15932626726985
  0
LINE
  8
_0-1__U_30EC_U_30A4_U_30E4_U_30FC_1_U_306E_U_30B3_U_30D4_U_30FC_2
  6
CONTINUOUS
 62
    7
 10
131.00218873486222
 20
200.15932626726985
 11
131.99385947029145
 21
198.810226875246
  0
LINE
  8
_0-1__U_30EC_U_30A4_U_30E4_U_30FC_1_U_306E_U_30B3_U_30D4_U_30FC_2
  6
CONTINUOUS
 62
    7
 10
131.99385947029145
 20
198.810226875246
 11
132.74178970013907
 21
197.31453867032482
  0
LINE
  8
_0-1__U_30EC_U_30A4_U_30E4_U_30FC_1_U_306E_U_30B3_U_30D4_U_30FC_2
  6
CONTINUOUS
 62
    7
 10
132.74178970013907
 20
197.31453867032482
 11
133.22927071130209
 21
195.714808581749
  0
LINE
  8
_0-1__U_30EC_U_30A4_U_30E4_U_30FC_1_U_306E_U_30B3_U_30D4_U_30FC_2
  6
CONTINUOUS
 62
    7
 10
133.22927071130209
 20
195.714808581749
 11
133.3944630398197
 21
194.67835160501167
  0
LINE
  8
_0-1__U_30EC_U_30A4_U_30E4_U_30FC_1_U_306E_U_30B3_U_30D4_U_30FC_2
  6
CONTINUOUS
 62
    7
 10
133.3944630398197
 20
194.67835160501167
 11
133.45061809622928
 21
193.63069806794724
  0
LINE
  8
_0-1__U_30EC_U_30A4_U_30E4_U_30FC_1_U_306E_U_30B3_U_30D4_U_30FC_2
  6
CONTINUOUS
 62
    7
 10
133.45061809622928
 20
125.40109874689696
 11
133.29214370390787
 21
123.73470606068153
  0
LINE
  8
_0-1__U_30EC_U_30A4_U_30E4_U_30FC_1_U_306E_U_30B3_U_30D4_U_30FC_2
  6
CONTINUOUS
 62
    7
 10
133.29214370390787
 20
123.73470606068153
 11
132.85668363457228
 21
122.11792274945387
  0
LINE
  8
_0-1__U_30EC_U_30A4_U_30E4_U_30FC_1_U_306E_U_30B3_U_30D4_U_30FC_2
  6
CONTINUOUS
 62
    7
 10
132.85668363457228
 20
122.11792274945387
 11
132.15612346764658
 21
120.5996691691042
  0
LINE
  8
_0-1__U_30EC_U_30A4_U_30E4_U_30FC_1_U_306E_U_30B3_U_30D4_U_30FC_2
  6
CONTINUOUS
 62
    7
 10
132.15612346764658
 20
120.5996691691042
 11
131.21096152126836
 21
119.21680784132488
  0
LINE
  8
_0-1__U_30EC_U_30A4_U_30E4_U_30FC_1_U_306E_U_30B3_U_30D4_U_30FC_2
  6
CONTINUOUS
 62
    7
 10
131.21096152126836
 20
119.21680784132488
 11
130.04617473770543
 21
118.01688108381242
  0
LINE
  8
_0-1__U_30EC_U_30A4_U_30E4_U_30FC_1_U_306E_U_30B3_U_30D4_U_30FC_2
  6
CONTINUOUS
 62
    7
 10
130.04617473770543
 20
118.01688108381242
 11
128.69741985523012
 21
117.02366005541498
  0
LINE
  8
_0-1__U_30EC_U_30A4_U_30E4_U_30FC_1_U_306E_U_30B3_U_30D4_U_30FC_2
  6
CONTINUOUS
 62
    7
 10
128.69741985523012
 20
117.02366005541498
 11
127.20121488598613
 21
116.27641884466422
  0
LINE
  8
_0-1__U_30EC_U_30A4_U_30E4_U_30FC_1_U_306E_U_30B3_U_30D4_U_30FC_2
  6
CONTINUOUS
 62
    7
 10
127.20121488598613
 20
116.27641884466422
 11
125.59993450444188
 21
115.7879043048558
  0
LINE
  8
_0-1__U_30EC_U_30A4_U_30E4_U_30FC_1_U_306E_U_30B3_U_30D4_U_30FC_2
  6
CONTINUOUS
 62
    7
 10
125.59993450444188
 20
115.7879043048558
 11
124.56537233022141
 21
115.62391775975797
  0
LINE
  8
_0-1__U_30EC_U_30A4_U_30E4_U_30FC_1_U_306E_U_30B3_U_30D4_U_30FC_2
  6
CONTINUOUS
 62
    7
 10
124.56537233022141
 20
115.62391775975797
 11
123.51789104793124
 21
115.56810721289682
  0
LINE
  8
_0-1__U_30EC_U_30A4_U_30E4_U_30FC_1_U_306E_U_30B3_U_30D4_U_30FC_2
  6
CONTINUOUS
 62
    7
 10
45.450649313975759
 20
193.72802201540557
 11
45.608606941974472
 21
195.39303666342673
  0
LINE
  8
_0-1__U_30EC_U_30A4_U_30E4_U_30FC_1_U_306E_U_30B3_U_30D4_U_30FC_2
  6
CONTINUOUS
 62
    7
 10
45.608606941974472
 20
195.39303666342673
 11
46.040277406276346
 21
197.00723615304045
  0
LINE
  8
_0-1__U_30EC_U_30A4_U_30E4_U_30FC_1_U_306E_U_30B3_U_30D4_U_30FC_2
  6
CONTINUOUS
 62
    7
 10
46.040277406276346
 20
197.00723615304045
 11
46.741354337524626
 21
198.52583424293866
  0
LINE
  8
_0-1__U_30EC_U_30A4_U_30E4_U_30FC_1_U_306E_U_30B3_U_30D4_U_30FC_2
  6
CONTINUOUS
 62
    7
 10
46.741354337524626
 20
198.52583424293866
 11
47.68272667886913
 21
199.90593949432977
  0
LINE
  8
_0-1__U_30EC_U_30A4_U_30E4_U_30FC_1_U_306E_U_30B3_U_30D4_U_30FC_2
  6
CONTINUOUS
 62
    7
 10
47.68272667886913
 20
199.90593949432977
 11
48.361927253786234
 21
200.65679805533986
  0
LINE
  8
_0-1__U_30EC_U_30A4_U_30E4_U_30FC_1_U_306E_U_30B3_U_30D4_U_30FC_2
  6
CONTINUOUS
 62
    7
 10
48.361927253786234
 20
200.65679805533986
 11
49.991457418309324
 21
201.97230776638261
  0
LINE
  8
_0-1__U_30EC_U_30A4_U_30E4_U_30FC_1_U_306E_U_30B3_U_30D4_U_30FC_2
  6
CONTINUOUS
 62
    7
 10
49.991457418309324
 20
201.97230776638261
 11
51.468886617158773
 21
202.76002884908505
  0
LINE
  8
_0-1__U_30EC_U_30A4_U_30E4_U_30FC_1_U_306E_U_30B3_U_30D4_U_30FC_2
  6
CONTINUOUS
 62
    7
 10
51.468886617158773
 20
202.76002884908505
 11
53.057420145407491
 21
203.28781747742525
  0
LINE
  8
_0-1__U_30EC_U_30A4_U_30E4_U_30FC_1_U_306E_U_30B3_U_30D4_U_30FC_2
  6
CONTINUOUS
 62
    7
 10
53.057420145407491
 20
203.28781747742525
 11
54.212732916386017
 21
203.49469546131454
  0
LINE
  8
_0-1__U_30EC_U_30A4_U_30E4_U_30FC_1_U_306E_U_30B3_U_30D4_U_30FC_2
  6
CONTINUOUS
 62
    7
 10
54.212732916386017
 20
203.49469546131454
 11
55.383204107499637
 21
203.56583668308494
  0
LINE
  8
_0-1__U_30EC_U_30A4_U_30E4_U_30FC_1_U_306E_U_30B3_U_30D4_U_30FC_2
  6
CONTINUOUS
 62
    7
 10
55.383204107499637
 20
115.56810721289682
 11
55.282090555007585
 21
115.56810721289682
  0
LINE
  8
_0-1__U_30EC_U_30A4_U_30E4_U_30FC_1_U_306E_U_30B3_U_30D4_U_30FC_2
  6
CONTINUOUS
 62
    7
 10
55.282090555007585
 20
115.56810721289682
 11
53.618281690406093
 21
115.7262370956698
  0
LINE
  8
_0-1__U_30EC_U_30A4_U_30E4_U_30FC_1_U_306E_U_30B3_U_30D4_U_30FC_2
  6
CONTINUOUS
 62
    7
 10
53.618281690406093
 20
115.7262370956698
 11
52.000464850532808
 21
116.16135265545685
  0
LINE
  8
_0-1__U_30EC_U_30A4_U_30E4_U_30FC_1_U_306E_U_30B3_U_30D4_U_30FC_2
  6
CONTINUOUS
 62
    7
 10
52.000464850532808
 20
116.16135265545685
 11
50.481349996311906
 21
116.86277409625367
  0
LINE
  8
_0-1__U_30EC_U_30A4_U_30E4_U_30FC_1_U_306E_U_30B3_U_30D4_U_30FC_2
  6
CONTINUOUS
 62
    7
 10
50.481349996311906
 20
116.86277409625367
 11
49.100900235372251
 21
117.80845280695482
  0
LINE
  8
_0-1__U_30EC_U_30A4_U_30E4_U_30FC_1_U_306E_U_30B3_U_30D4_U_30FC_2
  6
CONTINUOUS
 62
    7
 10
49.100900235372251
 20
117.80845280695482
 11
47.898734165794394
 21
118.97323959051786
  0
LINE
  8
_0-1__U_30EC_U_30A4_U_30E4_U_30FC_1_U_306E_U_30B3_U_30D4_U_30FC_2
  6
CONTINUOUS
 62
    7
 10
47.898734165794394
 20
118.97323959051786
 11
46.907235685139426
 21
120.32130545389597
  0
LINE
  8
_0-1__U_30EC_U_30A4_U_30E4_U_30FC_1_U_306E_U_30B3_U_30D4_U_30FC_2
  6
CONTINUOUS
 62
    7
 10
46.907235685139426
 20
120.32130545389597
 11
46.158960945743161
 21
121.81819944223716
  0
LINE
  8
_0-1__U_30EC_U_30A4_U_30E4_U_30FC_1_U_306E_U_30B3_U_30D4_U_30FC_2
  6
CONTINUOUS
 62
    7
 10
46.158960945743161
 20
121.81819944223716
 11
45.669240622514963
 21
123.4177572760386
  0
LINE
  8
_0-1__U_30EC_U_30A4_U_30E4_U_30FC_1_U_306E_U_30B3_U_30D4_U_30FC_2
  6
CONTINUOUS
 62
    7
 10
45.669240622514963
 20
123.4177572760386
 11
45.504048293997243
 21
124.45197494071064
  0
LINE
  8
_0-1__U_30EC_U_30A4_U_30E4_U_30FC_1_U_306E_U_30B3_U_30D4_U_30FC_2
  6
CONTINUOUS
 62
    7
 10
45.504048293997243
 20
124.45197494071064
 11
45.450649313975759
 21
125.498939458678
  0
LINE
  8
_0-1__U_30EC_U_30A4_U_30E4_U_30FC_1_U_306E_U_30B3_U_30D4_U_30FC_2
  6
CONTINUOUS
 62
    7
 10
123.45208972416287
 20
202.84529496234492
 11
123.45036717642029
 21
204.5359755717312
  0
LINE
  8
_0-1__U_30EC_U_30A4_U_30E4_U_30FC_1_U_306E_U_30B3_U_30D4_U_30FC_2
  6
CONTINUOUS
 62
    7
 10
55.383204107499637
 20
203.56583668308494
 11
59.859588926258994
 21
203.56394188056797
  0
LINE
  8
_0-1__U_30EC_U_30A4_U_30E4_U_30FC_1_U_306E_U_30B3_U_30D4_U_30FC_2
  6
CONTINUOUS
 62
    7
 10
59.859588926258994
 20
203.56394188056797
 11
63.964420196934157
 21
203.56394188056797
  0
LINE
  8
_0-1__U_30EC_U_30A4_U_30E4_U_30FC_1_U_306E_U_30B3_U_30D4_U_30FC_2
  6
CONTINUOUS
 62
    7
 10
63.964420196934157
 20
203.56394188056797
 11
72.178389107641124
 21
203.56394188056797
  0
LINE
  8
_0-1__U_30EC_U_30A4_U_30E4_U_30FC_1_U_306E_U_30B3_U_30D4_U_30FC_2
  6
CONTINUOUS
 62
    7
 10
72.178389107641124
 20
203.56394188056797
 11
76.285631945155956
 21
203.56394188056797
  0
LINE
  8
_0-1__U_30EC_U_30A4_U_30E4_U_30FC_1_U_306E_U_30B3_U_30D4_U_30FC_2
  6
CONTINUOUS
 62
    7
 10
76.285631945155956
 20
203.56394188056797
 11
80.394080566090679
 21
203.56394188056797
  0
LINE
  8
_0-1__U_30EC_U_30A4_U_30E4_U_30FC_1_U_306E_U_30B3_U_30D4_U_30FC_2
  6
CONTINUOUS
 62
    7
 10
80.394080566090679
 20
203.56394188056797
 11
84.499600855862923
 21
203.56394188056797
  0
LINE
  8
_0-1__U_30EC_U_30A4_U_30E4_U_30FC_1_U_306E_U_30B3_U_30D4_U_30FC_2
  6
CONTINUOUS
 62
    7
 10
84.499600855862923
 20
203.56394188056797
 11
92.713569766569776
 21
203.56394188056797
  0
LINE
  8
_0-1__U_30EC_U_30A4_U_30E4_U_30FC_1_U_306E_U_30B3_U_30D4_U_30FC_2
  6
CONTINUOUS
 62
    7
 10
92.713569766569776
 20
203.56394188056797
 11
96.821157113633262
 21
203.56394188056797
  0
LINE
  8
_0-1__U_30EC_U_30A4_U_30E4_U_30FC_1_U_306E_U_30B3_U_30D4_U_30FC_2
  6
CONTINUOUS
 62
    7
 10
96.821157113633262
 20
203.56394188056797
 11
100.92908897024518
 21
203.56394188056797
  0
LINE
  8
_0-1__U_30EC_U_30A4_U_30E4_U_30FC_1_U_306E_U_30B3_U_30D4_U_30FC_2
  6
CONTINUOUS
 62
    7
 10
100.92908897024518
 20
203.56394188056797
 11
105.03460926001731
 21
203.56394188056797
  0
LINE
  8
_0-1__U_30EC_U_30A4_U_30E4_U_30FC_1_U_306E_U_30B3_U_30D4_U_30FC_2
  6
CONTINUOUS
 62
    7
 10
105.03460926001731
 20
203.56394188056797
 11
113.25081748278967
 21
203.56394188056797
  0
LINE
  8
_0-1__U_30EC_U_30A4_U_30E4_U_30FC_1_U_306E_U_30B3_U_30D4_U_30FC_2
  6
CONTINUOUS
 62
    7
 10
113.25081748278967
 20
203.56394188056797
 11
117.35651002733618
 21
203.56394188056797
  0
LINE
  8
_0-1__U_30EC_U_30A4_U_30E4_U_30FC_1_U_306E_U_30B3_U_30D4_U_30FC_2
  6
CONTINUOUS
 62
    7
 10
117.35651002733618
 20
203.56394188056797
 11
121.46375286485102
 21
203.56394188056797
  0
LINE
  8
_0-1__U_30EC_U_30A4_U_30E4_U_30FC_1_U_306E_U_30B3_U_30D4_U_30FC_2
  6
CONTINUOUS
 62
    7
 10
121.46375286485102
 20
203.56394188056797
 11
123.51789104793124
 21
203.56583668308494
  0
LINE
  8
_0-1__U_30EC_U_30A4_U_30E4_U_30FC_1_U_306E_U_30B3_U_30D4_U_30FC_2
  6
CONTINUOUS
 62
    7
 10
55.450727979010594
 20
204.45019269414851
 11
55.449005431267892
 21
202.84271114073098
  0
LINE
  8
_0-1__U_30EC_U_30A4_U_30E4_U_30FC_1_U_306E_U_30B3_U_30D4_U_30FC_2
  6
CONTINUOUS
 62
    7
 10
132.73352147097455
 20
125.56474078244636
 11
134.4176563989389
 21
125.56577431109199
  0
LINE
  8
_0-1__U_30EC_U_30A4_U_30E4_U_30FC_1_U_306E_U_30B3_U_30D4_U_30FC_2
  6
CONTINUOUS
 62
    7
 10
133.45061809622928
 20
193.63069806794724
 11
133.45061809622928
 21
189.15741383512452
  0
LINE
  8
_0-1__U_30EC_U_30A4_U_30E4_U_30FC_1_U_306E_U_30B3_U_30D4_U_30FC_2
  6
CONTINUOUS
 62
    7
 10
133.45061809622928
 20
189.15741383512452
 11
133.45061809622928
 21
185.04982648806114
  0
LINE
  8
_0-1__U_30EC_U_30A4_U_30E4_U_30FC_1_U_306E_U_30B3_U_30D4_U_30FC_2
  6
CONTINUOUS
 62
    7
 10
133.45061809622928
 20
185.04982648806114
 11
133.45061809622928
 21
176.83602983212856
  0
LINE
  8
_0-1__U_30EC_U_30A4_U_30E4_U_30FC_1_U_306E_U_30B3_U_30D4_U_30FC_2
  6
CONTINUOUS
 62
    7
 10
133.45061809622928
 20
176.83602983212856
 11
133.45061809622928
 21
172.72913150416215
  0
LINE
  8
_0-1__U_30EC_U_30A4_U_30E4_U_30FC_1_U_306E_U_30B3_U_30D4_U_30FC_2
  6
CONTINUOUS
 62
    7
 10
133.45061809622928
 20
172.72913150416215
 11
133.45061809622928
 21
168.62171641187305
  0
LINE
  8
_0-1__U_30EC_U_30A4_U_30E4_U_30FC_1_U_306E_U_30B3_U_30D4_U_30FC_2
  6
CONTINUOUS
 62
    7
 10
133.45061809622928
 20
168.62171641187305
 11
133.45061809622928
 21
164.51636837687496
  0
LINE
  8
_0-1__U_30EC_U_30A4_U_30E4_U_30FC_1_U_306E_U_30B3_U_30D4_U_30FC_2
  6
CONTINUOUS
 62
    7
 10
133.45061809622928
 20
164.51636837687496
 11
133.45061809622928
 21
156.30119368274833
  0
LINE
  8
_0-1__U_30EC_U_30A4_U_30E4_U_30FC_1_U_306E_U_30B3_U_30D4_U_30FC_2
  6
CONTINUOUS
 62
    7
 10
133.45061809622928
 20
156.30119368274833
 11
133.45061809622928
 21
152.19567339297609
  0
LINE
  8
_0-1__U_30EC_U_30A4_U_30E4_U_30FC_1_U_306E_U_30B3_U_30D4_U_30FC_2
  6
CONTINUOUS
 62
    7
 10
133.45061809622928
 20
152.19567339297609
 11
133.45061809622928
 21
148.08670800771867
  0
LINE
  8
_0-1__U_30EC_U_30A4_U_30E4_U_30FC_1_U_306E_U_30B3_U_30D4_U_30FC_2
  6
CONTINUOUS
 62
    7
 10
133.45061809622928
 20
148.08670800771867
 11
133.45061809622928
 21
143.97980967975226
  0
LINE
  8
_0-1__U_30EC_U_30A4_U_30E4_U_30FC_1_U_306E_U_30B3_U_30D4_U_30FC_2
  6
CONTINUOUS
 62
    7
 10
133.45061809622928
 20
143.97980967975226
 11
133.45061809622928
 21
135.76601302381957
  0
LINE
  8
_0-1__U_30EC_U_30A4_U_30E4_U_30FC_1_U_306E_U_30B3_U_30D4_U_30FC_2
  6
CONTINUOUS
 62
    7
 10
133.45061809622928
 20
135.76601302381957
 11
133.45061809622928
 21
131.66152626269295
  0
LINE
  8
_0-1__U_30EC_U_30A4_U_30E4_U_30FC_1_U_306E_U_30B3_U_30D4_U_30FC_2
  6
CONTINUOUS
 62
    7
 10
133.45061809622928
 20
131.66152626269295
 11
133.45061809622928
 21
127.55290538698395
  0
LINE
  8
_0-1__U_30EC_U_30A4_U_30E4_U_30FC_1_U_306E_U_30B3_U_30D4_U_30FC_2
  6
CONTINUOUS
 62
    7
 10
133.45061809622928
 20
127.55290538698395
 11
133.45061809622928
 21
125.498939458678
  0
LINE
  8
_0-1__U_30EC_U_30A4_U_30E4_U_30FC_1_U_306E_U_30B3_U_30D4_U_30FC_2
  6
CONTINUOUS
 62
    7
 10
132.73093764936061
 20
193.56610252759876
 11
133.63699776198132
 21
193.56610252759876
  0
LINE
  8
_0-1__U_30EC_U_30A4_U_30E4_U_30FC_1_U_306E_U_30B3_U_30D4_U_30FC_2
  6
CONTINUOUS
 62
    7
 10
133.63699776198132
 20
193.56610252759876
 11
134.33307930477611
 21
193.56403547030763
  0
LINE
  8
_0-1__U_30EC_U_30A4_U_30E4_U_30FC_1_U_306E_U_30B3_U_30D4_U_30FC_2
  6
CONTINUOUS
 62
    7
 10
55.450727979010594
 20
114.56730697443172
 11
55.449005431267892
 21
115.31627073292495
  0
LINE
  8
_0-1__U_30EC_U_30A4_U_30E4_U_30FC_1_U_306E_U_30B3_U_30D4_U_30FC_2
  6
CONTINUOUS
 62
    7
 10
55.449005431267892
 20
115.31627073292495
 11
55.449005431267892
 21
116.29605588893011
  0
LINE
  8
_0-1__U_30EC_U_30A4_U_30E4_U_30FC_1_U_306E_U_30B3_U_30D4_U_30FC_2
  6
CONTINUOUS
 62
    7
 10
123.51789104793124
 20
115.56810721289682
 11
119.04253975781751
 21
115.56810721289682
  0
LINE
  8
_0-1__U_30EC_U_30A4_U_30E4_U_30FC_1_U_306E_U_30B3_U_30D4_U_30FC_2
  6
CONTINUOUS
 62
    7
 10
119.04253975781751
 20
115.56810721289682
 11
114.93633044894807
 21
115.56810721289682
  0
LINE
  8
_0-1__U_30EC_U_30A4_U_30E4_U_30FC_1_U_306E_U_30B3_U_30D4_U_30FC_2
  6
CONTINUOUS
 62
    7
 10
114.93633044894807
 20
115.56810721289682
 11
106.72098350004717
 21
115.56810721289682
  0
LINE
  8
_0-1__U_30EC_U_30A4_U_30E4_U_30FC_1_U_306E_U_30B3_U_30D4_U_30FC_2
  6
CONTINUOUS
 62
    7
 10
106.72098350004717
 20
115.56810721289682
 11
102.61477419117784
 21
115.56810721289682
  0
LINE
  8
_0-1__U_30EC_U_30A4_U_30E4_U_30FC_1_U_306E_U_30B3_U_30D4_U_30FC_2
  6
CONTINUOUS
 62
    7
 10
102.61477419117784
 20
115.56810721289682
 11
98.507014589340201
 21
115.56810721289682
  0
LINE
  8
_0-1__U_30EC_U_30A4_U_30E4_U_30FC_1_U_306E_U_30B3_U_30D4_U_30FC_2
  6
CONTINUOUS
 62
    7
 10
98.507014589340201
 20
115.56810721289682
 11
94.400977535245147
 21
115.56810721289682
  0
LINE
  8
_0-1__U_30EC_U_30A4_U_30E4_U_30FC_1_U_306E_U_30B3_U_30D4_U_30FC_2
  6
CONTINUOUS
 62
    7
 10
94.400977535245147
 20
115.56810721289682
 11
86.185630586344132
 21
115.56810721289682
  0
LINE
  8
_0-1__U_30EC_U_30A4_U_30E4_U_30FC_1_U_306E_U_30B3_U_30D4_U_30FC_2
  6
CONTINUOUS
 62
    7
 10
86.185630586344132
 20
115.56810721289682
 11
82.079421277474921
 21
115.56810721289682
  0
LINE
  8
_0-1__U_30EC_U_30A4_U_30E4_U_30FC_1_U_306E_U_30B3_U_30D4_U_30FC_2
  6
CONTINUOUS
 62
    7
 10
82.079421277474921
 20
115.56810721289682
 11
77.971833930411435
 21
115.56810721289682
  0
LINE
  8
_0-1__U_30EC_U_30A4_U_30E4_U_30FC_1_U_306E_U_30B3_U_30D4_U_30FC_2
  6
CONTINUOUS
 62
    7
 10
77.971833930411435
 20
115.56810721289682
 11
73.864246583348063
 21
115.56810721289682
  0
LINE
  8
_0-1__U_30EC_U_30A4_U_30E4_U_30FC_1_U_306E_U_30B3_U_30D4_U_30FC_2
  6
CONTINUOUS
 62
    7
 10
73.864246583348063
 20
115.56810721289682
 11
65.65062218218975
 21
115.56810721289682
  0
LINE
  8
_0-1__U_30EC_U_30A4_U_30E4_U_30FC_1_U_306E_U_30B3_U_30D4_U_30FC_2
  6
CONTINUOUS
 62
    7
 10
65.65062218218975
 20
115.56810721289682
 11
61.544585128094695
 21
115.56810721289682
  0
LINE
  8
_0-1__U_30EC_U_30A4_U_30E4_U_30FC_1_U_306E_U_30B3_U_30D4_U_30FC_2
  6
CONTINUOUS
 62
    7
 10
61.544585128094695
 20
115.56810721289682
 11
57.436997781031323
 21
115.56810721289682
  0
LINE
  8
_0-1__U_30EC_U_30A4_U_30E4_U_30FC_1_U_306E_U_30B3_U_30D4_U_30FC_2
  6
CONTINUOUS
 62
    7
 10
57.436997781031323
 20
115.56810721289682
 11
55.383204107499637
 21
115.56810721289682
  0
LINE
  8
_0-1__U_30EC_U_30A4_U_30E4_U_30FC_1_U_306E_U_30B3_U_30D4_U_30FC_2
  6
CONTINUOUS
 62
    7
 10
123.45208972416287
 20
116.28468707382885
 11
123.45036717642029
 21
115.32970660531757
  0
LINE
  8
_0-1__U_30EC_U_30A4_U_30E4_U_30FC_1_U_306E_U_30B3_U_30D4_U_30FC_2
  6
CONTINUOUS
 62
    7
 10
123.45036717642029
 20
115.32970660531757
 11
123.45036717642029
 21
114.59969087199315
  0
LINE
  8
_0-1__U_30EC_U_30A4_U_30E4_U_30FC_1_U_306E_U_30B3_U_30D4_U_30FC_2
  6
CONTINUOUS
 62
    7
 10
44.548206551614612
 20
125.56577431109199
 11
46.169468486973187
 21
125.56474078244636
  0
LINE
  8
_0-1__U_30EC_U_30A4_U_30E4_U_30FC_1_U_306E_U_30B3_U_30D4_U_30FC_2
  6
CONTINUOUS
 62
    7
 10
44.483783266040405
 20
193.56403547030763
 11
45.214143508913367
 21
193.56610252759876
  0
LINE
  8
_0-1__U_30EC_U_30A4_U_30E4_U_30FC_1_U_306E_U_30B3_U_30D4_U_30FC_2
  6
CONTINUOUS
 62
    7
 10
45.214143508913367
 20
193.56610252759876
 11
46.167401429682059
 21
193.56610252759876
  0
LINE
  8
_0-1__U_30EC_U_30A4_U_30E4_U_30FC_1_U_306E_U_30B3_U_30D4_U_30FC_2
  6
CONTINUOUS
 62
    7
 10
45.450649313975759
 20
125.498939458678
 11
45.450649313975759
 21
129.97687457040567
  0
LINE
  8
_0-1__U_30EC_U_30A4_U_30E4_U_30FC_1_U_306E_U_30B3_U_30D4_U_30FC_2
  6
CONTINUOUS
 62
    7
 10
45.450649313975759
 20
129.97687457040567
 11
45.450649313975759
 21
134.08205035062937
  0
LINE
  8
_0-1__U_30EC_U_30A4_U_30E4_U_30FC_1_U_306E_U_30B3_U_30D4_U_30FC_2
  6
CONTINUOUS
 62
    7
 10
45.450649313975759
 20
134.08205035062937
 11
45.450649313975759
 21
142.29619151611061
  0
LINE
  8
_0-1__U_30EC_U_30A4_U_30E4_U_30FC_1_U_306E_U_30B3_U_30D4_U_30FC_2
  6
CONTINUOUS
 62
    7
 10
45.450649313975759
 20
142.29619151611061
 11
45.450649313975759
 21
146.40274533452848
  0
LINE
  8
_0-1__U_30EC_U_30A4_U_30E4_U_30FC_1_U_306E_U_30B3_U_30D4_U_30FC_2
  6
CONTINUOUS
 62
    7
 10
45.450649313975759
 20
146.40274533452848
 11
45.450649313975759
 21
150.50895464339769
  0
LINE
  8
_0-1__U_30EC_U_30A4_U_30E4_U_30FC_1_U_306E_U_30B3_U_30D4_U_30FC_2
  6
CONTINUOUS
 62
    7
 10
45.450649313975759
 20
150.50895464339769
 11
45.450649313975759
 21
154.6168865000096
  0
LINE
  8
_0-1__U_30EC_U_30A4_U_30E4_U_30FC_1_U_306E_U_30B3_U_30D4_U_30FC_2
  6
CONTINUOUS
 62
    7
 10
45.450649313975759
 20
154.6168865000096
 11
45.450649313975759
 21
162.83033864639387
  0
LINE
  8
_0-1__U_30EC_U_30A4_U_30E4_U_30FC_1_U_306E_U_30B3_U_30D4_U_30FC_2
  6
CONTINUOUS
 62
    7
 10
45.450649313975759
 20
162.83033864639387
 11
45.450649313975759
 21
166.93620344571454
  0
LINE
  8
_0-1__U_30EC_U_30A4_U_30E4_U_30FC_1_U_306E_U_30B3_U_30D4_U_30FC_2
  6
CONTINUOUS
 62
    7
 10
45.450649313975759
 20
166.93620344571454
 11
45.450649313975759
 21
171.0432740284551
  0
LINE
  8
_0-1__U_30EC_U_30A4_U_30E4_U_30FC_1_U_306E_U_30B3_U_30D4_U_30FC_2
  6
CONTINUOUS
 62
    7
 10
45.450649313975759
 20
171.0432740284551
 11
45.450649313975759
 21
175.15103363029286
  0
LINE
  8
_0-1__U_30EC_U_30A4_U_30E4_U_30FC_1_U_306E_U_30B3_U_30D4_U_30FC_2
  6
CONTINUOUS
 62
    7
 10
45.450649313975759
 20
175.15103363029286
 11
45.450649313975759
 21
183.36431352190263
  0
LINE
  8
_0-1__U_30EC_U_30A4_U_30E4_U_30FC_1_U_306E_U_30B3_U_30D4_U_30FC_2
  6
CONTINUOUS
 62
    7
 10
45.450649313975759
 20
183.36431352190263
 11
45.450649313975759
 21
187.47000606644914
  0
LINE
  8
_0-1__U_30EC_U_30A4_U_30E4_U_30FC_1_U_306E_U_30B3_U_30D4_U_30FC_2
  6
CONTINUOUS
 62
    7
 10
45.450649313975759
 20
187.47000606644914
 11
45.450649313975759
 21
191.57707664918971
  0
LINE
  8
_0-1__U_30EC_U_30A4_U_30E4_U_30FC_1_U_306E_U_30B3_U_30D4_U_30FC_2
  6
CONTINUOUS
 62
    7
 10
45.450649313975759
 20
191.57707664918971
 11
45.450649313975759
 21
193.63069806794724
  0
LINE
  8
_0-1__U_30EC_U_30A4_U_30E4_U_30FC_1_U_306E_U_30B3_U_30D4_U_30FC_2
  6
CONTINUOUS
 62
    7
 10
124.29217625824106
 20
204.56698143109847
 11
124.39328981073322
 21
204.56491437380734
  0
LINE
  8
_0-1__U_30EC_U_30A4_U_30E4_U_30FC_1_U_306E_U_30B3_U_30D4_U_30FC_2
  6
CONTINUOUS
 62
    7
 10
124.39328981073322
 20
204.56491437380734
 11
126.09775080206055
 21
204.40196135735502
  0
LINE
  8
_0-1__U_30EC_U_30A4_U_30E4_U_30FC_1_U_306E_U_30B3_U_30D4_U_30FC_2
  6
CONTINUOUS
 62
    7
 10
126.09775080206055
 20
204.40196135735502
 11
127.75053536110909
 21
203.95685502066087
  0
LINE
  8
_0-1__U_30EC_U_30A4_U_30E4_U_30FC_1_U_306E_U_30B3_U_30D4_U_30FC_2
  6
CONTINUOUS
 62
    7
 10
127.75053536110909
 20
203.95685502066087
 11
129.30634048224806
 21
203.2399306501803
  0
LINE
  8
_0-1__U_30EC_U_30A4_U_30E4_U_30FC_1_U_306E_U_30B3_U_30D4_U_30FC_2
  6
CONTINUOUS
 62
    7
 10
129.30634048224806
 20
203.2399306501803
 11
130.7176238477806
 21
202.27375362134191
  0
LINE
  8
_0-1__U_30EC_U_30A4_U_30E4_U_30FC_1_U_306E_U_30B3_U_30D4_U_30FC_2
  6
CONTINUOUS
 62
    7
 10
130.7176238477806
 20
202.27375362134191
 11
131.9464894073692
 21
201.08295636686532
  0
LINE
  8
_0-1__U_30EC_U_30A4_U_30E4_U_30FC_1_U_306E_U_30B3_U_30D4_U_30FC_2
  6
CONTINUOUS
 62
    7
 10
131.9464894073692
 20
201.08295636686532
 11
132.96089777300097
 21
199.70319562502286
  0
LINE
  8
_0-1__U_30EC_U_30A4_U_30E4_U_30FC_1_U_306E_U_30B3_U_30D4_U_30FC_2
  6
CONTINUOUS
 62
    7
 10
132.96089777300097
 20
199.70319562502286
 11
133.72570897072649
 21
198.17357322957182
  0
LINE
  8
_0-1__U_30EC_U_30A4_U_30E4_U_30FC_1_U_306E_U_30B3_U_30D4_U_30FC_2
  6
CONTINUOUS
 62
    7
 10
133.72570897072649
 20
198.17357322957182
 11
134.22438654221639
 21
196.53715287407826
  0
LINE
  8
_0-1__U_30EC_U_30A4_U_30E4_U_30FC_1_U_306E_U_30B3_U_30D4_U_30FC_2
  6
CONTINUOUS
 62
    7
 10
134.22438654221639
 20
196.53715287407826
 11
134.39319622099367
 21
195.47709699326683
  0
LINE
  8
_0-1__U_30EC_U_30A4_U_30E4_U_30FC_1_U_306E_U_30B3_U_30D4_U_30FC_2
  6
CONTINUOUS
 62
    7
 10
134.39319622099367
 20
195.47709699326683
 11
134.45055706082303
 21
194.40567229735413
  0
LINE
  8
_0-1__U_30EC_U_30A4_U_30E4_U_30FC_1_U_306E_U_30B3_U_30D4_U_30FC_2
  6
CONTINUOUS
 62
    7
 10
134.45055706082303
 20
124.72379297449683
 11
134.45055706082303
 21
124.62354069587602
  0
LINE
  8
_0-1__U_30EC_U_30A4_U_30E4_U_30FC_1_U_306E_U_30B3_U_30D4_U_30FC_2
  6
CONTINUOUS
 62
    7
 10
134.45055706082303
 20
124.62354069587602
 11
134.28863757301633
 21
122.91925195932285
  0
LINE
  8
_0-1__U_30EC_U_30A4_U_30E4_U_30FC_1_U_306E_U_30B3_U_30D4_U_30FC_2
  6
CONTINUOUS
 62
    7
 10
134.28863757301633
 20
122.91925195932285
 11
133.84318672677352
 21
121.26560612640296
  0
LINE
  8
_0-1__U_30EC_U_30A4_U_30E4_U_30FC_1_U_306E_U_30B3_U_30D4_U_30FC_2
  6
CONTINUOUS
 62
    7
 10
133.84318672677352
 20
121.26560612640296
 11
133.12677912061588
 21
119.71290159120085
  0
LINE
  8
_0-1__U_30EC_U_30A4_U_30E4_U_30FC_1_U_306E_U_30B3_U_30D4_U_30FC_2
  6
CONTINUOUS
 62
    7
 10
133.12677912061588
 20
119.71290159120085
 11
132.16008532745479
 21
118.29868989450583
  0
LINE
  8
_0-1__U_30EC_U_30A4_U_30E4_U_30FC_1_U_306E_U_30B3_U_30D4_U_30FC_2
  6
CONTINUOUS
 62
    7
 10
132.16008532745479
 20
118.29868989450583
 11
130.96877130865539
 21
117.07154688265982
  0
LINE
  8
_0-1__U_30EC_U_30A4_U_30E4_U_30FC_1_U_306E_U_30B3_U_30D4_U_30FC_2
  6
CONTINUOUS
 62
    7
 10
130.96877130865539
 20
117.07154688265982
 11
129.58952733113551
 21
116.05593273360827
  0
LINE
  8
_0-1__U_30EC_U_30A4_U_30E4_U_30FC_1_U_306E_U_30B3_U_30D4_U_30FC_2
  6
CONTINUOUS
 62
    7
 10
129.58952733113551
 20
116.05593273360827
 11
128.0592159165875
 21
115.29146604543129
  0
LINE
  8
_0-1__U_30EC_U_30A4_U_30E4_U_30FC_1_U_306E_U_30B3_U_30D4_U_30FC_2
  6
CONTINUOUS
 62
    7
 10
128.0592159165875
 20
115.29146604543129
 11
126.42141752289979
 21
114.79192720007003
  0
LINE
  8
_0-1__U_30EC_U_30A4_U_30E4_U_30FC_1_U_306E_U_30B3_U_30D4_U_30FC_2
  6
CONTINUOUS
 62
    7
 10
126.42141752289979
 20
114.79192720007003
 11
125.3634286993796
 21
114.62415104993838
  0
LINE
  8
_0-1__U_30EC_U_30A4_U_30E4_U_30FC_1_U_306E_U_30B3_U_30D4_U_30FC_2
  6
CONTINUOUS
 62
    7
 10
125.3634286993796
 20
114.62415104993838
 11
124.29217625824106
 21
114.56696246488318
  0
LINE
  8
_0-1__U_30EC_U_30A4_U_30E4_U_30FC_1_U_306E_U_30B3_U_30D4_U_30FC_2
  6
CONTINUOUS
 62
    7
 10
44.450710349382121
 20
194.50523555687786
 11
44.612113072866009
 21
196.20814625523676
  0
LINE
  8
_0-1__U_30EC_U_30A4_U_30E4_U_30FC_1_U_306E_U_30B3_U_30D4_U_30FC_2
  6
CONTINUOUS
 62
    7
 10
44.612113072866009
 20
196.20814625523676
 11
45.053602059300829
 21
197.85903601176855
  0
LINE
  8
_0-1__U_30EC_U_30A4_U_30E4_U_30FC_1_U_306E_U_30B3_U_30D4_U_30FC_2
  6
CONTINUOUS
 62
    7
 10
45.053602059300829
 20
197.85903601176855
 11
45.770698684555555
 21
199.41242956606774
  0
LINE
  8
_0-1__U_30EC_U_30A4_U_30E4_U_30FC_1_U_306E_U_30B3_U_30D4_U_30FC_2
  6
CONTINUOUS
 62
    7
 10
45.770698684555555
 20
199.41242956606774
 11
46.733430617908539
 21
200.82388518637444
  0
LINE
  8
_0-1__U_30EC_U_30A4_U_30E4_U_30FC_1_U_306E_U_30B3_U_30D4_U_30FC_2
  6
CONTINUOUS
 62
    7
 10
46.733430617908539
 20
200.82388518637444
 11
47.428134122509277
 21
201.59145246048817
  0
LINE
  8
_0-1__U_30EC_U_30A4_U_30E4_U_30FC_1_U_306E_U_30B3_U_30D4_U_30FC_2
  6
CONTINUOUS
 62
    7
 10
47.428134122509277
 20
201.59145246048817
 11
49.094699063498865
 21
202.93710675702684
  0
LINE
  8
_0-1__U_30EC_U_30A4_U_30E4_U_30FC_1_U_306E_U_30B3_U_30D4_U_30FC_2
  6
CONTINUOUS
 62
    7
 10
49.094699063498865
 20
202.93710675702684
 11
50.60571794332941
 21
203.74274233625246
  0
LINE
  8
_0-1__U_30EC_U_30A4_U_30E4_U_30FC_1_U_306E_U_30B3_U_30D4_U_30FC_2
  6
CONTINUOUS
 62
    7
 10
50.60571794332941
 20
203.74274233625246
 11
52.230424974173275
 21
204.28258879879112
  0
LINE
  8
_0-1__U_30EC_U_30A4_U_30E4_U_30FC_1_U_306E_U_30B3_U_30D4_U_30FC_2
  6
CONTINUOUS
 62
    7
 10
52.230424974173275
 20
204.28258879879112
 11
53.411748216065348
 21
204.49411766158548
  0
LINE
  8
_0-1__U_30EC_U_30A4_U_30E4_U_30FC_1_U_306E_U_30B3_U_30D4_U_30FC_2
  6
CONTINUOUS
 62
    7
 10
53.411748216065348
 20
204.49411766158548
 11
54.60891889718971
 21
204.56698143109847
  0
LINE
  8
_0-1__U_30EC_U_30A4_U_30E4_U_30FC_1_U_306E_U_30B3_U_30D4_U_30FC_2
  6
CONTINUOUS
 62
    7
 10
54.60891889718971
 20
114.56696246488318
 11
54.50556603263226
 21
114.56696246488318
  0
LINE
  8
_0-1__U_30EC_U_30A4_U_30E4_U_30FC_1_U_306E_U_30B3_U_30D4_U_30FC_2
  6
CONTINUOUS
 62
    7
 10
54.50556603263226
 20
114.56696246488318
 11
52.803861117693032
 21
114.72888195268999
  0
LINE
  8
_0-1__U_30EC_U_30A4_U_30E4_U_30FC_1_U_306E_U_30B3_U_30D4_U_30FC_2
  6
CONTINUOUS
 62
    7
 10
52.803861117693032
 20
114.72888195268999
 11
51.149354010901789
 21
115.17398828938425
  0
LINE
  8
_0-1__U_30EC_U_30A4_U_30E4_U_30FC_1_U_306E_U_30B3_U_30D4_U_30FC_2
  6
CONTINUOUS
 62
    7
 10
51.149354010901789
 20
115.17398828938425
 11
49.595615947054171
 21
115.89125716941325
  0
LINE
  8
_0-1__U_30EC_U_30A4_U_30E4_U_30FC_1_U_306E_U_30B3_U_30D4_U_30FC_2
  6
CONTINUOUS
 62
    7
 10
49.595615947054171
 20
115.89125716941325
 11
48.18381581719882
 21
116.85829547212288
  0
LINE
  8
_0-1__U_30EC_U_30A4_U_30E4_U_30FC_1_U_306E_U_30B3_U_30D4_U_30FC_2
  6
CONTINUOUS
 62
    7
 10
48.18381581719882
 20
116.85829547212288
 11
46.954433493287411
 21
118.04960949092228
  0
LINE
  8
_0-1__U_30EC_U_30A4_U_30E4_U_30FC_1_U_306E_U_30B3_U_30D4_U_30FC_2
  6
CONTINUOUS
 62
    7
 10
46.954433493287411
 20
118.04960949092228
 11
45.940197382429801
 21
119.42833670411923
  0
LINE
  8
_0-1__U_30EC_U_30A4_U_30E4_U_30FC_1_U_306E_U_30B3_U_30D4_U_30FC_2
  6
CONTINUOUS
 62
    7
 10
45.940197382429801
 20
119.42833670411923
 11
45.175041675155853
 21
120.95933713776432
  0
LINE
  8
_0-1__U_30EC_U_30A4_U_30E4_U_30FC_1_U_306E_U_30B3_U_30D4_U_30FC_2
  6
CONTINUOUS
 62
    7
 10
45.175041675155853
 20
120.95933713776432
 11
44.674297046374818
 21
122.59506847416091
  0
LINE
  8
_0-1__U_30EC_U_30A4_U_30E4_U_30FC_1_U_306E_U_30B3_U_30D4_U_30FC_2
  6
CONTINUOUS
 62
    7
 10
44.674297046374818
 20
122.59506847416091
 11
44.505315112823268
 21
123.65271278813256
  0
LINE
  8
_0-1__U_30EC_U_30A4_U_30E4_U_30FC_1_U_306E_U_30B3_U_30D4_U_30FC_2
  6
CONTINUOUS
 62
    7
 10
44.505315112823268
 20
123.65271278813256
 11
44.450710349382121
 21
124.72379297449683
  0
LINE
  8
_0-1__U_30EC_U_30A4_U_30E4_U_30FC_1_U_306E_U_30B3_U_30D4_U_30FC_2
  6
CONTINUOUS
 62
    7
 10
54.60891889718971
 20
204.56698143109847
 11
59.186934032763929
 21
204.56491437380734
  0
LINE
  8
_0-1__U_30EC_U_30A4_U_30E4_U_30FC_1_U_306E_U_30B3_U_30D4_U_30FC_2
  6
CONTINUOUS
 62
    7
 10
59.186934032763929
 20
204.56491437380734
 11
63.385127391089441
 21
204.56491437380734
  0
LINE
  8
_0-1__U_30EC_U_30A4_U_30E4_U_30FC_1_U_306E_U_30B3_U_30D4_U_30FC_2
  6
CONTINUOUS
 62
    7
 10
63.385127391089441
 20
204.56491437380734
 11
71.785820477096877
 21
204.56491437380734
  0
LINE
  8
_0-1__U_30EC_U_30A4_U_30E4_U_30FC_1_U_306E_U_30B3_U_30D4_U_30FC_2
  6
CONTINUOUS
 62
    7
 10
71.785820477096877
 20
204.56491437380734
 11
75.986425402262057
 21
204.56491437380734
  0
LINE
  8
_0-1__U_30EC_U_30A4_U_30E4_U_30FC_1_U_306E_U_30B3_U_30D4_U_30FC_2
  6
CONTINUOUS
 62
    7
 10
75.986425402262057
 20
204.56491437380734
 11
80.188236110847015
 21
204.56491437380734
  0
LINE
  8
_0-1__U_30EC_U_30A4_U_30E4_U_30FC_1_U_306E_U_30B3_U_30D4_U_30FC_2
  6
CONTINUOUS
 62
    7
 10
80.188236110847015
 20
204.56491437380734
 11
84.387118488269493
 21
204.56491437380734
  0
LINE
  8
_0-1__U_30EC_U_30A4_U_30E4_U_30FC_1_U_306E_U_30B3_U_30D4_U_30FC_2
  6
CONTINUOUS
 62
    7
 10
84.387118488269493
 20
204.56491437380734
 11
92.787639319502659
 21
204.56491437380734
  0
LINE
  8
_0-1__U_30EC_U_30A4_U_30E4_U_30FC_1_U_306E_U_30B3_U_30D4_U_30FC_2
  6
CONTINUOUS
 62
    7
 10
92.787639319502659
 20
204.56491437380734
 11
96.988588754216266
 21
204.56491437380734
  0
LINE
  8
_0-1__U_30EC_U_30A4_U_30E4_U_30FC_1_U_306E_U_30B3_U_30D4_U_30FC_2
  6
CONTINUOUS
 62
    7
 10
96.988588754216266
 20
204.56491437380734
 11
101.18988269847853
 21
204.56491437380734
  0
LINE
  8
_0-1__U_30EC_U_30A4_U_30E4_U_30FC_1_U_306E_U_30B3_U_30D4_U_30FC_2
  6
CONTINUOUS
 62
    7
 10
101.18988269847853
 20
204.56491437380734
 11
105.38876507590101
 21
204.56491437380734
  0
LINE
  8
_0-1__U_30EC_U_30A4_U_30E4_U_30FC_1_U_306E_U_30B3_U_30D4_U_30FC_2
  6
CONTINUOUS
 62
    7
 10
105.38876507590101
 20
204.56491437380734
 11
113.79169747397395
 21
204.56491437380734
  0
LINE
  8
_0-1__U_30EC_U_30A4_U_30E4_U_30FC_1_U_306E_U_30B3_U_30D4_U_30FC_2
  6
CONTINUOUS
 62
    7
 10
113.79169747397395
 20
204.56491437380734
 11
117.99075210617059
 21
204.56491437380734
  0
LINE
  8
_0-1__U_30EC_U_30A4_U_30E4_U_30FC_1_U_306E_U_30B3_U_30D4_U_30FC_2
  6
CONTINUOUS
 62
    7
 10
117.99075210617059
 20
204.56491437380734
 11
122.19135703133577
 21
204.56491437380734
  0
LINE
  8
_0-1__U_30EC_U_30A4_U_30E4_U_30FC_1_U_306E_U_30B3_U_30D4_U_30FC_2
  6
CONTINUOUS
 62
    7
 10
122.19135703133577
 20
204.56491437380734
 11
124.29217625824106
 21
204.56698143109847
  0
LINE
  8
_0-1__U_30EC_U_30A4_U_30E4_U_30FC_1_U_306E_U_30B3_U_30D4_U_30FC_2
  6
CONTINUOUS
 62
    7
 10
134.45055706082303
 20
194.40567229735413
 11
134.45055706082303
 21
189.83075774771655
  0
LINE
  8
_0-1__U_30EC_U_30A4_U_30E4_U_30FC_1_U_306E_U_30B3_U_30D4_U_30FC_2
  6
CONTINUOUS
 62
    7
 10
134.45055706082303
 20
189.83075774771655
 11
134.45055706082303
 21
185.62980831300294
  0
LINE
  8
_0-1__U_30EC_U_30A4_U_30E4_U_30FC_1_U_306E_U_30B3_U_30D4_U_30FC_2
  6
CONTINUOUS
 62
    7
 10
134.45055706082303
 20
185.62980831300294
 11
134.45055706082303
 21
177.22894297222123
  0
LINE
  8
_0-1__U_30EC_U_30A4_U_30E4_U_30FC_1_U_306E_U_30B3_U_30D4_U_30FC_2
  6
CONTINUOUS
 62
    7
 10
134.45055706082303
 20
177.22894297222123
 11
134.45055706082303
 21
173.02868255660459
  0
LINE
  8
_0-1__U_30EC_U_30A4_U_30E4_U_30FC_1_U_306E_U_30B3_U_30D4_U_30FC_2
  6
CONTINUOUS
 62
    7
 10
134.45055706082303
 20
173.02868255660459
 11
134.45055706082303
 21
168.82773312189087
  0
LINE
  8
_0-1__U_30EC_U_30A4_U_30E4_U_30FC_1_U_306E_U_30B3_U_30D4_U_30FC_2
  6
CONTINUOUS
 62
    7
 10
134.45055706082303
 20
168.82773312189087
 11
134.45055706082303
 21
164.62902299924266
  0
LINE
  8
_0-1__U_30EC_U_30A4_U_30E4_U_30FC_1_U_306E_U_30B3_U_30D4_U_30FC_2
  6
CONTINUOUS
 62
    7
 10
134.45055706082303
 20
164.62902299924266
 11
134.45055706082303
 21
156.22712412981545
  0
LINE
  8
_0-1__U_30EC_U_30A4_U_30E4_U_30FC_1_U_306E_U_30B3_U_30D4_U_30FC_2
  6
CONTINUOUS
 62
    7
 10
134.45055706082303
 20
156.22712412981545
 11
134.45055706082303
 21
152.02755273329578
  0
LINE
  8
_0-1__U_30EC_U_30A4_U_30E4_U_30FC_1_U_306E_U_30B3_U_30D4_U_30FC_2
  6
CONTINUOUS
 62
    7
 10
134.45055706082303
 20
152.02755273329578
 11
134.45055706082303
 21
147.82556976993655
  0
LINE
  8
_0-1__U_30EC_U_30A4_U_30E4_U_30FC_1_U_306E_U_30B3_U_30D4_U_30FC_2
  6
CONTINUOUS
 62
    7
 10
134.45055706082303
 20
147.82556976993655
 11
134.45055706082303
 21
143.62530935432002
  0
LINE
  8
_0-1__U_30EC_U_30A4_U_30E4_U_30FC_1_U_306E_U_30B3_U_30D4_U_30FC_2
  6
CONTINUOUS
 62
    7
 10
134.45055706082303
 20
143.62530935432002
 11
134.45055706082303
 21
135.22444401353832
  0
LINE
  8
_0-1__U_30EC_U_30A4_U_30E4_U_30FC_1_U_306E_U_30B3_U_30D4_U_30FC_2
  6
CONTINUOUS
 62
    7
 10
134.45055706082303
 20
135.22444401353832
 11
134.45055706082303
 21
131.02625065521281
  0
LINE
  8
_0-1__U_30EC_U_30A4_U_30E4_U_30FC_1_U_306E_U_30B3_U_30D4_U_30FC_2
  6
CONTINUOUS
 62
    7
 10
134.45055706082303
 20
131.02625065521281
 11
134.45055706082303
 21
126.82461220140212
  0
LINE
  8
_0-1__U_30EC_U_30A4_U_30E4_U_30FC_1_U_306E_U_30B3_U_30D4_U_30FC_2
  6
CONTINUOUS
 62
    7
 10
134.45055706082303
 20
126.82461220140212
 11
134.45055706082303
 21
124.72379297449683
  0
LINE
  8
_0-1__U_30EC_U_30A4_U_30E4_U_30FC_1_U_306E_U_30B3_U_30D4_U_30FC_2
  6
CONTINUOUS
 62
    7
 10
124.29217625824106
 20
114.56696246488318
 11
119.71519465131246
 21
114.56696246488318
  0
LINE
  8
_0-1__U_30EC_U_30A4_U_30E4_U_30FC_1_U_306E_U_30B3_U_30D4_U_30FC_2
  6
CONTINUOUS
 62
    7
 10
119.71519465131246
 20
114.56696246488318
 11
115.5156232547929
 21
114.56696246488318
  0
LINE
  8
_0-1__U_30EC_U_30A4_U_30E4_U_30FC_1_U_306E_U_30B3_U_30D4_U_30FC_2
  6
CONTINUOUS
 62
    7
 10
115.5156232547929
 20
114.56696246488318
 11
107.11337987581715
 21
114.56696246488318
  0
LINE
  8
_0-1__U_30EC_U_30A4_U_30E4_U_30FC_1_U_306E_U_30B3_U_30D4_U_30FC_2
  6
CONTINUOUS
 62
    7
 10
107.11337987581715
 20
114.56696246488318
 11
102.91398073407186
 21
114.56696246488318
  0
LINE
  8
_0-1__U_30EC_U_30A4_U_30E4_U_30FC_1_U_306E_U_30B3_U_30D4_U_30FC_2
  6
CONTINUOUS
 62
    7
 10
102.91398073407186
 20
114.56696246488318
 11
98.712859044583979
 21
114.56696246488318
  0
LINE
  8
_0-1__U_30EC_U_30A4_U_30E4_U_30FC_1_U_306E_U_30B3_U_30D4_U_30FC_2
  6
CONTINUOUS
 62
    7
 10
98.712859044583979
 20
114.56696246488318
 11
94.51345990283869
 21
114.56696246488318
  0
LINE
  8
_0-1__U_30EC_U_30A4_U_30E4_U_30FC_1_U_306E_U_30B3_U_30D4_U_30FC_2
  6
CONTINUOUS
 62
    7
 10
94.51345990283869
 20
114.56696246488318
 11
86.111561033411249
 21
114.56696246488318
  0
LINE
  8
_0-1__U_30EC_U_30A4_U_30E4_U_30FC_1_U_306E_U_30B3_U_30D4_U_30FC_2
  6
CONTINUOUS
 62
    7
 10
86.111561033411249
 20
114.56696246488318
 11
81.91198963689169
 21
114.56696246488318
  0
LINE
  8
_0-1__U_30EC_U_30A4_U_30E4_U_30FC_1_U_306E_U_30B3_U_30D4_U_30FC_2
  6
CONTINUOUS
 62
    7
 10
81.91198963689169
 20
114.56696246488318
 11
77.710867947403813
 21
114.56696246488318
  0
LINE
  8
_0-1__U_30EC_U_30A4_U_30E4_U_30FC_1_U_306E_U_30B3_U_30D4_U_30FC_2
  6
CONTINUOUS
 62
    7
 10
77.710867947403813
 20
114.56696246488318
 11
73.509918512690206
 21
114.56696246488318
  0
LINE
  8
_0-1__U_30EC_U_30A4_U_30E4_U_30FC_1_U_306E_U_30B3_U_30D4_U_30FC_2
  6
CONTINUOUS
 62
    7
 10
73.509918512690206
 20
114.56696246488318
 11
65.109742191005466
 21
114.56696246488318
  0
LINE
  8
_0-1__U_30EC_U_30A4_U_30E4_U_30FC_1_U_306E_U_30B3_U_30D4_U_30FC_2
  6
CONTINUOUS
 62
    7
 10
65.109742191005466
 20
114.56696246488318
 11
60.910343049260177
 21
114.56696246488318
  0
LINE
  8
_0-1__U_30EC_U_30A4_U_30E4_U_30FC_1_U_306E_U_30B3_U_30D4_U_30FC_2
  6
CONTINUOUS
 62
    7
 10
60.910343049260177
 20
114.56696246488318
 11
56.70939361454657
 21
114.56696246488318
  0
LINE
  8
_0-1__U_30EC_U_30A4_U_30E4_U_30FC_1_U_306E_U_30B3_U_30D4_U_30FC_2
  6
CONTINUOUS
 62
    7
 10
56.70939361454657
 20
114.56696246488318
 11
54.60891889718971
 21
114.56696246488318
  0
LINE
  8
_0-1__U_30EC_U_30A4_U_30E4_U_30FC_1_U_306E_U_30B3_U_30D4_U_30FC_2
  6
CONTINUOUS
 62
    7
 10
44.450710349382121
 20
124.72379297449683
 11
44.450710349382121
 21
129.30370291258791
  0
LINE
  8
_0-1__U_30EC_U_30A4_U_30E4_U_30FC_1_U_306E_U_30B3_U_30D4_U_30FC_2
  6
CONTINUOUS
 62
    7
 10
44.450710349382121
 20
129.30370291258791
 11
44.450710349382121
 21
133.50224078046185
  0
LINE
  8
_0-1__U_30EC_U_30A4_U_30E4_U_30FC_1_U_306E_U_30B3_U_30D4_U_30FC_2
  6
CONTINUOUS
 62
    7
 10
44.450710349382121
 20
133.50224078046185
 11
44.450710349382121
 21
141.90310612124367
  0
LINE
  8
_0-1__U_30EC_U_30A4_U_30E4_U_30FC_1_U_306E_U_30B3_U_30D4_U_30FC_2
  6
CONTINUOUS
 62
    7
 10
44.450710349382121
 20
141.90310612124367
 11
44.450710349382121
 21
146.10336653686031
  0
LINE
  8
_0-1__U_30EC_U_30A4_U_30E4_U_30FC_1_U_306E_U_30B3_U_30D4_U_30FC_2
  6
CONTINUOUS
 62
    7
 10
44.450710349382121
 20
146.10336653686031
 11
44.450710349382121
 21
150.30259342383133
  0
LINE
  8
_0-1__U_30EC_U_30A4_U_30E4_U_30FC_1_U_306E_U_30B3_U_30D4_U_30FC_2
  6
CONTINUOUS
 62
    7
 10
44.450710349382121
 20
150.30259342383133
 11
44.450710349382121
 21
154.50423187764201
  0
LINE
  8
_0-1__U_30EC_U_30A4_U_30E4_U_30FC_1_U_306E_U_30B3_U_30D4_U_30FC_2
  6
CONTINUOUS
 62
    7
 10
44.450710349382121
 20
154.50423187764201
 11
44.450710349382121
 21
162.90440819932664
  0
LINE
  8
_0-1__U_30EC_U_30A4_U_30E4_U_30FC_1_U_306E_U_30B3_U_30D4_U_30FC_2
  6
CONTINUOUS
 62
    7
 10
44.450710349382121
 20
162.90440819932664
 11
44.450710349382121
 21
167.10380734107193
  0
LINE
  8
_0-1__U_30EC_U_30A4_U_30E4_U_30FC_1_U_306E_U_30B3_U_30D4_U_30FC_2
  6
CONTINUOUS
 62
    7
 10
44.450710349382121
 20
167.10380734107193
 11
44.450710349382121
 21
171.30441226623711
  0
LINE
  8
_0-1__U_30EC_U_30A4_U_30E4_U_30FC_1_U_306E_U_30B3_U_30D4_U_30FC_2
  6
CONTINUOUS
 62
    7
 10
44.450710349382121
 20
171.30441226623711
 11
44.450710349382121
 21
175.50570621049926
  0
LINE
  8
_0-1__U_30EC_U_30A4_U_30E4_U_30FC_1_U_306E_U_30B3_U_30D4_U_30FC_2
  6
CONTINUOUS
 62
    7
 10
44.450710349382121
 20
175.50570621049926
 11
44.450710349382121
 21
183.90588253218388
  0
LINE
  8
_0-1__U_30EC_U_30A4_U_30E4_U_30FC_1_U_306E_U_30B3_U_30D4_U_30FC_2
  6
CONTINUOUS
 62
    7
 10
44.450710349382121
 20
183.90588253218388
 11
44.450710349382121
 21
188.10493716438074
  0
LINE
  8
_0-1__U_30EC_U_30A4_U_30E4_U_30FC_1_U_306E_U_30B3_U_30D4_U_30FC_2
  6
CONTINUOUS
 62
    7
 10
44.450710349382121
 20
188.10493716438074
 11
44.450710349382121
 21
192.30554208954581
  0
LINE
  8
_0-1__U_30EC_U_30A4_U_30E4_U_30FC_1_U_306E_U_30B3_U_30D4_U_30FC_2
  6
CONTINUOUS
 62
    7
 10
44.450710349382121
 20
192.30554208954581
 11
44.450710349382121
 21
194.40567229735413
  0
LINE
  8
_0-1__U_30EC_U_30A4_U_30E4_U_30FC_1_U_306E_U_30B3_U_30D4_U_30FC_2
  6
CONTINUOUS
 62
    7
 10
374.29224808159177
 20
204.56474211903307
 11
374.39318937930955
 21
204.56267506174194
  0
LINE
  8
_0-1__U_30EC_U_30A4_U_30E4_U_30FC_1_U_306E_U_30B3_U_30D4_U_30FC_2
  6
CONTINUOUS
 62
    7
 10
374.39318937930955
 20
204.56267506174194
 11
376.09782262541125
 21
204.39972204528962
  0
LINE
  8
_0-1__U_30EC_U_30A4_U_30E4_U_30FC_1_U_306E_U_30B3_U_30D4_U_30FC_2
  6
CONTINUOUS
 62
    7
 10
376.09782262541125
 20
204.39972204528962
 11
377.75043492968564
 21
203.95461570859536
  0
LINE
  8
_0-1__U_30EC_U_30A4_U_30E4_U_30FC_1_U_306E_U_30B3_U_30D4_U_30FC_2
  6
CONTINUOUS
 62
    7
 10
377.75043492968564
 20
203.95461570859536
 11
379.30624005082439
 21
203.23769133811479
  0
LINE
  8
_0-1__U_30EC_U_30A4_U_30E4_U_30FC_1_U_306E_U_30B3_U_30D4_U_30FC_2
  6
CONTINUOUS
 62
    7
 10
379.30624005082439
 20
203.23769133811479
 11
380.71769567113131
 21
202.27151430927651
  0
LINE
  8
_0-1__U_30EC_U_30A4_U_30E4_U_30FC_1_U_306E_U_30B3_U_30D4_U_30FC_2
  6
CONTINUOUS
 62
    7
 10
380.71769567113131
 20
202.27151430927651
 11
381.94656123071991
 21
201.08071705479992
  0
LINE
  8
_0-1__U_30EC_U_30A4_U_30E4_U_30FC_1_U_306E_U_30B3_U_30D4_U_30FC_2
  6
CONTINUOUS
 62
    7
 10
381.94656123071991
 20
201.08071705479992
 11
382.9607973415774
 21
199.70095631295746
  0
LINE
  8
_0-1__U_30EC_U_30A4_U_30E4_U_30FC_1_U_306E_U_30B3_U_30D4_U_30FC_2
  6
CONTINUOUS
 62
    7
 10
382.9607973415774
 20
199.70095631295746
 11
383.72560853930293
 21
198.17133391750642
  0
LINE
  8
_0-1__U_30EC_U_30A4_U_30E4_U_30FC_1_U_306E_U_30B3_U_30D4_U_30FC_2
  6
CONTINUOUS
 62
    7
 10
383.72560853930293
 20
198.17133391750642
 11
384.2244583655671
 21
196.53491356201286
  0
LINE
  8
_0-1__U_30EC_U_30A4_U_30E4_U_30FC_1_U_306E_U_30B3_U_30D4_U_30FC_2
  6
CONTINUOUS
 62
    7
 10
384.2244583655671
 20
196.53491356201286
 11
384.39326804434438
 21
195.4750299359757
  0
LINE
  8
_0-1__U_30EC_U_30A4_U_30E4_U_30FC_1_U_306E_U_30B3_U_30D4_U_30FC_2
  6
CONTINUOUS
 62
    7
 10
384.39326804434438
 20
195.4750299359757
 11
384.45045662939947
 21
194.40343298528873
  0
LINE
  8
_0-1__U_30EC_U_30A4_U_30E4_U_30FC_1_U_306E_U_30B3_U_30D4_U_30FC_2
  6
CONTINUOUS
 62
    7
 10
384.45045662939947
 20
124.72172591720559
 11
384.45045662939947
 21
124.62147363858489
  0
LINE
  8
_0-1__U_30EC_U_30A4_U_30E4_U_30FC_1_U_306E_U_30B3_U_30D4_U_30FC_2
  6
CONTINUOUS
 62
    7
 10
384.45045662939947
 20
124.62147363858489
 11
384.28853714159266
 21
122.91718490203183
  0
LINE
  8
_0-1__U_30EC_U_30A4_U_30E4_U_30FC_1_U_306E_U_30B3_U_30D4_U_30FC_2
  6
CONTINUOUS
 62
    7
 10
384.28853714159266
 20
122.91718490203183
 11
383.84308629534996
 21
121.26353906911183
  0
LINE
  8
_0-1__U_30EC_U_30A4_U_30E4_U_30FC_1_U_306E_U_30B3_U_30D4_U_30FC_2
  6
CONTINUOUS
 62
    7
 10
383.84308629534996
 20
121.26353906911183
 11
383.12685094396659
 21
119.71049002436118
  0
LINE
  8
_0-1__U_30EC_U_30A4_U_30E4_U_30FC_1_U_306E_U_30B3_U_30D4_U_30FC_2
  6
CONTINUOUS
 62
    7
 10
383.12685094396659
 20
119.71049002436118
 11
382.1601571508055
 21
118.29627832766616
  0
LINE
  8
_0-1__U_30EC_U_30A4_U_30E4_U_30FC_1_U_306E_U_30B3_U_30D4_U_30FC_2
  6
CONTINUOUS
 62
    7
 10
382.1601571508055
 20
118.29627832766616
 11
380.9688431320061
 21
117.06913531582015
  0
LINE
  8
_0-1__U_30EC_U_30A4_U_30E4_U_30FC_1_U_306E_U_30B3_U_30D4_U_30FC_2
  6
CONTINUOUS
 62
    7
 10
380.9688431320061
 20
117.06913531582015
 11
379.58942689971207
 21
116.05352116676849
  0
LINE
  8
_0-1__U_30EC_U_30A4_U_30E4_U_30FC_1_U_306E_U_30B3_U_30D4_U_30FC_2
  6
CONTINUOUS
 62
    7
 10
379.58942689971207
 20
116.05352116676849
 11
378.05911548516394
 21
115.28905447859162
  0
LINE
  8
_0-1__U_30EC_U_30A4_U_30E4_U_30FC_1_U_306E_U_30B3_U_30D4_U_30FC_2
  6
CONTINUOUS
 62
    7
 10
378.05911548516394
 20
115.28905447859162
 11
376.42131709147623
 21
114.78951563323048
  0
LINE
  8
_0-1__U_30EC_U_30A4_U_30E4_U_30FC_1_U_306E_U_30B3_U_30D4_U_30FC_2
  6
CONTINUOUS
 62
    7
 10
376.42131709147623
 20
114.78951563323048
 11
375.36332826795604
 21
114.62208399264725
  0
LINE
  8
_0-1__U_30EC_U_30A4_U_30E4_U_30FC_1_U_306E_U_30B3_U_30D4_U_30FC_2
  6
CONTINUOUS
 62
    7
 10
375.36332826795604
 20
114.62208399264725
 11
374.29224808159177
 21
114.56489540759216
  0
LINE
  8
_0-1__U_30EC_U_30A4_U_30E4_U_30FC_1_U_306E_U_30B3_U_30D4_U_30FC_2
  6
CONTINUOUS
 62
    7
 10
294.45078217273272
 20
194.50299624481246
 11
294.61201264144245
 21
196.20590694317147
  0
LINE
  8
_0-1__U_30EC_U_30A4_U_30E4_U_30FC_1_U_306E_U_30B3_U_30D4_U_30FC_2
  6
CONTINUOUS
 62
    7
 10
294.61201264144245
 20
196.20590694317147
 11
295.05367388265154
 21
197.85679669970315
  0
LINE
  8
_0-1__U_30EC_U_30A4_U_30E4_U_30FC_1_U_306E_U_30B3_U_30D4_U_30FC_2
  6
CONTINUOUS
 62
    7
 10
295.05367388265154
 20
197.85679669970315
 11
295.77059825313188
 21
199.41019025400234
  0
LINE
  8
_0-1__U_30EC_U_30A4_U_30E4_U_30FC_1_U_306E_U_30B3_U_30D4_U_30FC_2
  6
CONTINUOUS
 62
    7
 10
295.77059825313188
 20
199.41019025400234
 11
296.73350244125925
 21
200.82164587430916
  0
LINE
  8
_0-1__U_30EC_U_30A4_U_30E4_U_30FC_1_U_306E_U_30B3_U_30D4_U_30FC_2
  6
CONTINUOUS
 62
    7
 10
296.73350244125925
 20
200.82164587430916
 11
297.4280336910856
 21
201.58938540319704
  0
LINE
  8
_0-1__U_30EC_U_30A4_U_30E4_U_30FC_1_U_306E_U_30B3_U_30D4_U_30FC_2
  6
CONTINUOUS
 62
    7
 10
297.4280336910856
 20
201.58938540319704
 11
299.09477088684946
 21
202.93486744496144
  0
LINE
  8
_0-1__U_30EC_U_30A4_U_30E4_U_30FC_1_U_306E_U_30B3_U_30D4_U_30FC_2
  6
CONTINUOUS
 62
    7
 10
299.09477088684946
 20
202.93486744496144
 11
300.60578976668012
 21
203.74050302418718
  0
LINE
  8
_0-1__U_30EC_U_30A4_U_30E4_U_30FC_1_U_306E_U_30B3_U_30D4_U_30FC_2
  6
CONTINUOUS
 62
    7
 10
300.60578976668012
 20
203.74050302418718
 11
302.23049679752387
 21
204.28034948672573
  0
LINE
  8
_0-1__U_30EC_U_30A4_U_30E4_U_30FC_1_U_306E_U_30B3_U_30D4_U_30FC_2
  6
CONTINUOUS
 62
    7
 10
302.23049679752387
 20
204.28034948672573
 11
303.41182003941606
 21
204.49187834952008
  0
LINE
  8
_0-1__U_30EC_U_30A4_U_30E4_U_30FC_1_U_306E_U_30B3_U_30D4_U_30FC_2
  6
CONTINUOUS
 62
    7
 10
303.41182003941606
 20
204.49187834952008
 11
304.60899072054042
 21
204.56474211903307
  0
LINE
  8
_0-1__U_30EC_U_30A4_U_30E4_U_30FC_1_U_306E_U_30B3_U_30D4_U_30FC_2
  6
CONTINUOUS
 62
    7
 10
304.60899072054042
 20
114.56489540759216
 11
304.50563785598285
 21
114.56489540759216
  0
LINE
  8
_0-1__U_30EC_U_30A4_U_30E4_U_30FC_1_U_306E_U_30B3_U_30D4_U_30FC_2
  6
CONTINUOUS
 62
    7
 10
304.50563785598285
 20
114.56489540759216
 11
302.80376068626947
 21
114.72681489539886
  0
LINE
  8
_0-1__U_30EC_U_30A4_U_30E4_U_30FC_1_U_306E_U_30B3_U_30D4_U_30FC_2
  6
CONTINUOUS
 62
    7
 10
302.80376068626947
 20
114.72681489539886
 11
301.1494258342525
 21
115.17192123209313
  0
LINE
  8
_0-1__U_30EC_U_30A4_U_30E4_U_30FC_1_U_306E_U_30B3_U_30D4_U_30FC_2
  6
CONTINUOUS
 62
    7
 10
301.1494258342525
 20
115.17192123209313
 11
299.59568777040477
 21
115.88884560257358
  0
LINE
  8
_0-1__U_30EC_U_30A4_U_30E4_U_30FC_1_U_306E_U_30B3_U_30D4_U_30FC_2
  6
CONTINUOUS
 62
    7
 10
299.59568777040477
 20
115.88884560257358
 11
298.18388764054941
 21
116.85588390528321
  0
LINE
  8
_0-1__U_30EC_U_30A4_U_30E4_U_30FC_1_U_306E_U_30B3_U_30D4_U_30FC_2
  6
CONTINUOUS
 62
    7
 10
298.18388764054941
 20
116.85588390528321
 11
296.95433306186385
 21
118.04719792408261
  0
LINE
  8
_0-1__U_30EC_U_30A4_U_30E4_U_30FC_1_U_306E_U_30B3_U_30D4_U_30FC_2
  6
CONTINUOUS
 62
    7
 10
296.95433306186385
 20
118.04719792408261
 11
295.94009695100624
 21
119.42592513727956
  0
LINE
  8
_0-1__U_30EC_U_30A4_U_30E4_U_30FC_1_U_306E_U_30B3_U_30D4_U_30FC_2
  6
CONTINUOUS
 62
    7
 10
295.94009695100624
 20
119.42592513727956
 11
295.17494124373218
 21
120.95692557092465
  0
LINE
  8
_0-1__U_30EC_U_30A4_U_30E4_U_30FC_1_U_306E_U_30B3_U_30D4_U_30FC_2
  6
CONTINUOUS
 62
    7
 10
295.17494124373218
 20
120.95692557092465
 11
294.67436886972541
 21
122.5930014168699
  0
LINE
  8
_0-1__U_30EC_U_30A4_U_30E4_U_30FC_1_U_306E_U_30B3_U_30D4_U_30FC_2
  6
CONTINUOUS
 62
    7
 10
294.67436886972541
 20
122.5930014168699
 11
294.50521468139971
 21
123.65064573084155
  0
LINE
  8
_0-1__U_30EC_U_30A4_U_30E4_U_30FC_1_U_306E_U_30B3_U_30D4_U_30FC_2
  6
CONTINUOUS
 62
    7
 10
294.50521468139971
 20
123.65064573084155
 11
294.45078217273272
 21
124.72172591720559
  0
LINE
  8
_0-1__U_30EC_U_30A4_U_30E4_U_30FC_1_U_306E_U_30B3_U_30D4_U_30FC_2
  6
CONTINUOUS
 62
    7
 10
304.60899072054042
 20
204.56474211903307
 11
309.18683360134048
 21
204.56267506174194
  0
LINE
  8
_0-1__U_30EC_U_30A4_U_30E4_U_30FC_1_U_306E_U_30B3_U_30D4_U_30FC_2
  6
CONTINUOUS
 62
    7
 10
309.18683360134048
 20
204.56267506174194
 11
313.38502695966588
 21
204.56267506174194
  0
LINE
  8
_0-1__U_30EC_U_30A4_U_30E4_U_30FC_1_U_306E_U_30B3_U_30D4_U_30FC_2
  6
CONTINUOUS
 62
    7
 10
313.38502695966588
 20
204.56267506174194
 11
321.7858923004477
 21
204.56267506174194
  0
LINE
  8
_0-1__U_30EC_U_30A4_U_30E4_U_30FC_1_U_306E_U_30B3_U_30D4_U_30FC_2
  6
CONTINUOUS
 62
    7
 10
321.7858923004477
 20
204.56267506174194
 11
325.98649722561265
 21
204.56267506174194
  0
LINE
  8
_0-1__U_30EC_U_30A4_U_30E4_U_30FC_1_U_306E_U_30B3_U_30D4_U_30FC_2
  6
CONTINUOUS
 62
    7
 10
325.98649722561265
 20
204.56267506174194
 11
330.18813567942345
 21
204.56267506174194
  0
LINE
  8
_0-1__U_30EC_U_30A4_U_30E4_U_30FC_1_U_306E_U_30B3_U_30D4_U_30FC_2
  6
CONTINUOUS
 62
    7
 10
330.18813567942345
 20
204.56267506174194
 11
334.38701805684593
 21
204.56267506174194
  0
LINE
  8
_0-1__U_30EC_U_30A4_U_30E4_U_30FC_1_U_306E_U_30B3_U_30D4_U_30FC_2
  6
CONTINUOUS
 62
    7
 10
334.38701805684593
 20
204.56267506174194
 11
342.78753888807921
 21
204.56267506174194
  0
LINE
  8
_0-1__U_30EC_U_30A4_U_30E4_U_30FC_1_U_306E_U_30B3_U_30D4_U_30FC_2
  6
CONTINUOUS
 62
    7
 10
342.78753888807921
 20
204.56267506174194
 11
346.9884883227927
 21
204.56267506174194
  0
LINE
  8
_0-1__U_30EC_U_30A4_U_30E4_U_30FC_1_U_306E_U_30B3_U_30D4_U_30FC_2
  6
CONTINUOUS
 62
    7
 10
346.9884883227927
 20
204.56267506174194
 11
351.18978226705497
 21
204.56267506174194
  0
LINE
  8
_0-1__U_30EC_U_30A4_U_30E4_U_30FC_1_U_306E_U_30B3_U_30D4_U_30FC_2
  6
CONTINUOUS
 62
    7
 10
351.18978226705497
 20
204.56267506174194
 11
355.38866464447744
 21
204.56267506174194
  0
LINE
  8
_0-1__U_30EC_U_30A4_U_30E4_U_30FC_1_U_306E_U_30B3_U_30D4_U_30FC_2
  6
CONTINUOUS
 62
    7
 10
355.38866464447744
 20
204.56267506174194
 11
363.79159704255039
 21
204.56267506174194
  0
LINE
  8
_0-1__U_30EC_U_30A4_U_30E4_U_30FC_1_U_306E_U_30B3_U_30D4_U_30FC_2
  6
CONTINUOUS
 62
    7
 10
363.79159704255039
 20
204.56267506174194
 11
367.9908239295213
 21
204.56267506174194
  0
LINE
  8
_0-1__U_30EC_U_30A4_U_30E4_U_30FC_1_U_306E_U_30B3_U_30D4_U_30FC_2
  6
CONTINUOUS
 62
    7
 10
367.9908239295213
 20
204.56267506174194
 11
372.19142885468648
 21
204.56267506174194
  0
LINE
  8
_0-1__U_30EC_U_30A4_U_30E4_U_30FC_1_U_306E_U_30B3_U_30D4_U_30FC_2
  6
CONTINUOUS
 62
    7
 10
372.19142885468648
 20
204.56267506174194
 11
374.29224808159177
 21
204.56474211903307
  0
LINE
  8
_0-1__U_30EC_U_30A4_U_30E4_U_30FC_1_U_306E_U_30B3_U_30D4_U_30FC_2
  6
CONTINUOUS
 62
    7
 10
384.45045662939947
 20
194.40343298528873
 11
384.45045662939947
 21
189.82851843565126
  0
LINE
  8
_0-1__U_30EC_U_30A4_U_30E4_U_30FC_1_U_306E_U_30B3_U_30D4_U_30FC_2
  6
CONTINUOUS
 62
    7
 10
384.45045662939947
 20
189.82851843565126
 11
384.45045662939947
 21
185.62756900093754
  0
LINE
  8
_0-1__U_30EC_U_30A4_U_30E4_U_30FC_1_U_306E_U_30B3_U_30D4_U_30FC_2
  6
CONTINUOUS
 62
    7
 10
384.45045662939947
 20
185.62756900093754
 11
384.45045662939947
 21
177.22687591492999
  0
LINE
  8
_0-1__U_30EC_U_30A4_U_30E4_U_30FC_1_U_306E_U_30B3_U_30D4_U_30FC_2
  6
CONTINUOUS
 62
    7
 10
384.45045662939947
 20
177.22687591492999
 11
384.45045662939947
 21
173.02644324453919
  0
LINE
  8
_0-1__U_30EC_U_30A4_U_30E4_U_30FC_1_U_306E_U_30B3_U_30D4_U_30FC_2
  6
CONTINUOUS
 62
    7
 10
384.45045662939947
 20
173.02644324453919
 11
384.45045662939947
 21
168.82549380982547
  0
LINE
  8
_0-1__U_30EC_U_30A4_U_30E4_U_30FC_1_U_306E_U_30B3_U_30D4_U_30FC_2
  6
CONTINUOUS
 62
    7
 10
384.45045662939947
 20
168.82549380982547
 11
384.45045662939947
 21
164.62695594195165
  0
LINE
  8
_0-1__U_30EC_U_30A4_U_30E4_U_30FC_1_U_306E_U_30B3_U_30D4_U_30FC_2
  6
CONTINUOUS
 62
    7
 10
384.45045662939947
 20
164.62695594195165
 11
384.45045662939947
 21
156.22488481775005
  0
LINE
  8
_0-1__U_30EC_U_30A4_U_30E4_U_30FC_1_U_306E_U_30B3_U_30D4_U_30FC_2
  6
CONTINUOUS
 62
    7
 10
384.45045662939947
 20
156.22488481775005
 11
384.45045662939947
 21
152.02514116645622
  0
LINE
  8
_0-1__U_30EC_U_30A4_U_30E4_U_30FC_1_U_306E_U_30B3_U_30D4_U_30FC_2
  6
CONTINUOUS
 62
    7
 10
384.45045662939947
 20
152.02514116645622
 11
384.45045662939947
 21
147.82350271264553
  0
LINE
  8
_0-1__U_30EC_U_30A4_U_30E4_U_30FC_1_U_306E_U_30B3_U_30D4_U_30FC_2
  6
CONTINUOUS
 62
    7
 10
384.45045662939947
 20
147.82350271264553
 11
384.45045662939947
 21
143.62289778748035
  0
LINE
  8
_0-1__U_30EC_U_30A4_U_30E4_U_30FC_1_U_306E_U_30B3_U_30D4_U_30FC_2
  6
CONTINUOUS
 62
    7
 10
384.45045662939947
 20
143.62289778748035
 11
384.45045662939947
 21
135.22237695624707
  0
LINE
  8
_0-1__U_30EC_U_30A4_U_30E4_U_30FC_1_U_306E_U_30B3_U_30D4_U_30FC_2
  6
CONTINUOUS
 62
    7
 10
384.45045662939947
 20
135.22237695624707
 11
384.45045662939947
 21
131.02383908837325
  0
LINE
  8
_0-1__U_30EC_U_30A4_U_30E4_U_30FC_1_U_306E_U_30B3_U_30D4_U_30FC_2
  6
CONTINUOUS
 62
    7
 10
384.45045662939947
 20
131.02383908837325
 11
384.45045662939947
 21
126.82254514411099
  0
LINE
  8
_0-1__U_30EC_U_30A4_U_30E4_U_30FC_1_U_306E_U_30B3_U_30D4_U_30FC_2
  6
CONTINUOUS
 62
    7
 10
384.45045662939947
 20
126.82254514411099
 11
384.45045662939947
 21
124.72172591720559
  0
LINE
  8
_0-1__U_30EC_U_30A4_U_30E4_U_30FC_1_U_306E_U_30B3_U_30D4_U_30FC_2
  6
CONTINUOUS
 62
    7
 10
374.29224808159177
 20
114.56489540759216
 11
369.71509421988901
 21
114.56489540759216
  0
LINE
  8
_0-1__U_30EC_U_30A4_U_30E4_U_30FC_1_U_306E_U_30B3_U_30D4_U_30FC_2
  6
CONTINUOUS
 62
    7
 10
369.71509421988901
 20
114.56489540759216
 11
365.51552282336934
 21
114.56489540759216
  0
LINE
  8
_0-1__U_30EC_U_30A4_U_30E4_U_30FC_1_U_306E_U_30B3_U_30D4_U_30FC_2
  6
CONTINUOUS
 62
    7
 10
365.51552282336934
 20
114.56489540759216
 11
357.11327944439347
 21
114.56489540759216
  0
LINE
  8
_0-1__U_30EC_U_30A4_U_30E4_U_30FC_1_U_306E_U_30B3_U_30D4_U_30FC_2
  6
CONTINUOUS
 62
    7
 10
357.11327944439347
 20
114.56489540759216
 11
352.91405255742256
 21
114.56489540759216
  0
LINE
  8
_0-1__U_30EC_U_30A4_U_30E4_U_30FC_1_U_306E_U_30B3_U_30D4_U_30FC_2
  6
CONTINUOUS
 62
    7
 10
352.91405255742256
 20
114.56489540759216
 11
348.7127586131603
 21
114.56489540759216
  0
LINE
  8
_0-1__U_30EC_U_30A4_U_30E4_U_30FC_1_U_306E_U_30B3_U_30D4_U_30FC_2
  6
CONTINUOUS
 62
    7
 10
348.7127586131603
 20
114.56489540759216
 11
344.5135317261894
 21
114.56489540759216
  0
LINE
  8
_0-1__U_30EC_U_30A4_U_30E4_U_30FC_1_U_306E_U_30B3_U_30D4_U_30FC_2
  6
CONTINUOUS
 62
    7
 10
344.5135317261894
 20
114.56489540759216
 11
336.11163285676196
 21
114.56489540759216
  0
LINE
  8
_0-1__U_30EC_U_30A4_U_30E4_U_30FC_1_U_306E_U_30B3_U_30D4_U_30FC_2
  6
CONTINUOUS
 62
    7
 10
336.11163285676196
 20
114.56489540759216
 11
331.9120614602424
 21
114.56489540759216
  0
LINE
  8
_0-1__U_30EC_U_30A4_U_30E4_U_30FC_1_U_306E_U_30B3_U_30D4_U_30FC_2
  6
CONTINUOUS
 62
    7
 10
331.9120614602424
 20
114.56489540759216
 11
327.71076751598025
 21
114.56489540759216
  0
LINE
  8
_0-1__U_30EC_U_30A4_U_30E4_U_30FC_1_U_306E_U_30B3_U_30D4_U_30FC_2
  6
CONTINUOUS
 62
    7
 10
327.71076751598025
 20
114.56489540759216
 11
323.50981808126664
 21
114.56489540759216
  0
LINE
  8
_0-1__U_30EC_U_30A4_U_30E4_U_30FC_1_U_306E_U_30B3_U_30D4_U_30FC_2
  6
CONTINUOUS
 62
    7
 10
323.50981808126664
 20
114.56489540759216
 11
315.1096417595819
 21
114.56489540759216
  0
LINE
  8
_0-1__U_30EC_U_30A4_U_30E4_U_30FC_1_U_306E_U_30B3_U_30D4_U_30FC_2
  6
CONTINUOUS
 62
    7
 10
315.1096417595819
 20
114.56489540759216
 11
310.91041487261089
 21
114.56489540759216
  0
LINE
  8
_0-1__U_30EC_U_30A4_U_30E4_U_30FC_1_U_306E_U_30B3_U_30D4_U_30FC_2
  6
CONTINUOUS
 62
    7
 10
310.91041487261089
 20
114.56489540759216
 11
306.70946543789717
 21
114.56489540759216
  0
LINE
  8
_0-1__U_30EC_U_30A4_U_30E4_U_30FC_1_U_306E_U_30B3_U_30D4_U_30FC_2
  6
CONTINUOUS
 62
    7
 10
306.70946543789717
 20
114.56489540759216
 11
304.60899072054042
 21
114.56489540759216
  0
LINE
  8
_0-1__U_30EC_U_30A4_U_30E4_U_30FC_1_U_306E_U_30B3_U_30D4_U_30FC_2
  6
CONTINUOUS
 62
    7
 10
294.45078217273272
 20
124.72172591720559
 11
294.45078217273272
 21
129.30129134574835
  0
LINE
  8
_0-1__U_30EC_U_30A4_U_30E4_U_30FC_1_U_306E_U_30B3_U_30D4_U_30FC_2
  6
CONTINUOUS
 62
    7
 10
294.45078217273272
 20
133.49982921362218
 11
294.45078217273272
 21
141.900694554404
  0
LINE
  8
_0-1__U_30EC_U_30A4_U_30E4_U_30FC_1_U_306E_U_30B3_U_30D4_U_30FC_2
  6
CONTINUOUS
 62
    7
 10
294.45078217273272
 20
141.900694554404
 11
294.45078217273272
 21
146.10095497002064
  0
LINE
  8
_0-1__U_30EC_U_30A4_U_30E4_U_30FC_1_U_306E_U_30B3_U_30D4_U_30FC_2
  6
CONTINUOUS
 62
    7
 10
294.45078217273272
 20
146.10095497002064
 11
294.45078217273272
 21
150.30052636654008
  0
LINE
  8
_0-1__U_30EC_U_30A4_U_30E4_U_30FC_1_U_306E_U_30B3_U_30D4_U_30FC_2
  6
CONTINUOUS
 62
    7
 10
294.45078217273272
 20
150.30052636654008
 11
294.45078217273272
 21
154.50182031080234
  0
LINE
  8
_0-1__U_30EC_U_30A4_U_30E4_U_30FC_1_U_306E_U_30B3_U_30D4_U_30FC_2
  6
CONTINUOUS
 62
    7
 10
294.45078217273272
 20
154.50182031080234
 11
294.45078217273272
 21
162.90234114203551
  0
LINE
  8
_0-1__U_30EC_U_30A4_U_30E4_U_30FC_1_U_306E_U_30B3_U_30D4_U_30FC_2
  6
CONTINUOUS
 62
    7
 10
294.45078217273272
 20
162.90234114203551
 11
294.45078217273272
 21
167.10156802900653
  0
LINE
  8
_0-1__U_30EC_U_30A4_U_30E4_U_30FC_1_U_306E_U_30B3_U_30D4_U_30FC_2
  6
CONTINUOUS
 62
    7
 10
294.45078217273272
 20
167.10156802900653
 11
294.45078217273272
 21
171.30234520894587
  0
LINE
  8
_0-1__U_30EC_U_30A4_U_30E4_U_30FC_1_U_306E_U_30B3_U_30D4_U_30FC_2
  6
CONTINUOUS
 62
    7
 10
294.45078217273272
 20
171.30234520894587
 11
294.45078217273272
 21
175.50346689843386
  0
LINE
  8
_0-1__U_30EC_U_30A4_U_30E4_U_30FC_1_U_306E_U_30B3_U_30D4_U_30FC_2
  6
CONTINUOUS
 62
    7
 10
294.45078217273272
 20
175.50346689843386
 11
294.45078217273272
 21
183.90364322011848
  0
LINE
  8
_0-1__U_30EC_U_30A4_U_30E4_U_30FC_1_U_306E_U_30B3_U_30D4_U_30FC_2
  6
CONTINUOUS
 62
    7
 10
294.45078217273272
 20
183.90364322011848
 11
294.45078217273272
 21
188.10269785231534
  0
LINE
  8
_0-1__U_30EC_U_30A4_U_30E4_U_30FC_1_U_306E_U_30B3_U_30D4_U_30FC_2
  6
CONTINUOUS
 62
    7
 10
294.45078217273272
 20
188.10269785231534
 11
294.45078217273272
 21
192.30330277748041
  0
LINE
  8
_0-1__U_30EC_U_30A4_U_30E4_U_30FC_1_U_306E_U_30B3_U_30D4_U_30FC_2
  6
CONTINUOUS
 62
    7
 10
294.45078217273272
 20
192.30330277748041
 11
294.45078217273272
 21
194.40343298528873
  0
LINE
  8
_0-1__U_30EC_U_30A4_U_30E4_U_30FC_1_U_306E_U_30B3_U_30D4_U_30FC_2
  6
CONTINUOUS
 62
    7
 10
89.450547577715383
 20
186.0632013250474
 11
86.479324976461726
 21
185.8950806653672
  0
LINE
  8
_0-1__U_30EC_U_30A4_U_30E4_U_30FC_1_U_306E_U_30B3_U_30D4_U_30FC_2
  6
CONTINUOUS
 62
    7
 10
86.479324976461726
 20
185.8950806653672
 11
83.538763725026683
 21
185.39554182000595
  0
LINE
  8
_0-1__U_30EC_U_30A4_U_30E4_U_30FC_1_U_306E_U_30B3_U_30D4_U_30FC_2
  6
CONTINUOUS
 62
    7
 10
83.538763725026683
 20
185.39554182000595
 11
80.678817707946564
 21
184.57147497993421
  0
LINE
  8
_0-1__U_30EC_U_30A4_U_30E4_U_30FC_1_U_306E_U_30B3_U_30D4_U_30FC_2
  6
CONTINUOUS
 62
    7
 10
80.678817707946564
 20
184.57147497993421
 11
77.932904351428192
 21
183.42908131702538
  0
LINE
  8
_0-1__U_30EC_U_30A4_U_30E4_U_30FC_1_U_306E_U_30B3_U_30D4_U_30FC_2
  6
CONTINUOUS
 62
    7
 10
77.932904351428192
 20
183.42908131702538
 11
75.322900011802858
 21
181.98300248709174
  0
LINE
  8
_0-1__U_30EC_U_30A4_U_30E4_U_30FC_1_U_306E_U_30B3_U_30D4_U_30FC_2
  6
CONTINUOUS
 62
    7
 10
75.322900011802858
 20
181.98300248709174
 11
72.898069554509789
 21
180.25976572536965
  0
LINE
  8
_0-1__U_30EC_U_30A4_U_30E4_U_30FC_1_U_306E_U_30B3_U_30D4_U_30FC_2
  6
CONTINUOUS
 62
    7
 10
72.898069554509789
 20
180.25976572536965
 11
70.68270090271983
 21
178.2719456303806
  0
LINE
  8
_0-1__U_30EC_U_30A4_U_30E4_U_30FC_1_U_306E_U_30B3_U_30D4_U_30FC_2
  6
CONTINUOUS
 62
    7
 10
70.68270090271983
 20
178.2719456303806
 11
68.697981393667419
 21
176.04365787052106
  0
LINE
  8
_0-1__U_30EC_U_30A4_U_30E4_U_30FC_1_U_306E_U_30B3_U_30D4_U_30FC_2
  6
CONTINUOUS
 62
    7
 10
68.697981393667419
 20
176.04365787052106
 11
66.981290313367481
 21
173.61469329864562
  0
LINE
  8
_0-1__U_30EC_U_30A4_U_30E4_U_30FC_1_U_306E_U_30B3_U_30D4_U_30FC_2
  6
CONTINUOUS
 62
    7
 10
66.981290313367481
 20
173.61469329864562
 11
65.549336374923428
 21
171.00606699721445
  0
LINE
  8
_0-1__U_30EC_U_30A4_U_30E4_U_30FC_1_U_306E_U_30B3_U_30D4_U_30FC_2
  6
CONTINUOUS
 62
    7
 10
65.549336374923428
 20
171.00606699721445
 11
64.415038686404841
 21
168.24775129694908
  0
LINE
  8
_0-1__U_30EC_U_30A4_U_30E4_U_30FC_1_U_306E_U_30B3_U_30D4_U_30FC_2
  6
CONTINUOUS
 62
    7
 10
64.415038686404841
 20
168.24775129694908
 11
63.598034292077841
 21
165.38866655374031
  0
LINE
  8
_0-1__U_30EC_U_30A4_U_30E4_U_30FC_1_U_306E_U_30B3_U_30D4_U_30FC_2
  6
CONTINUOUS
 62
    7
 10
63.598034292077841
 20
165.38866655374031
 11
63.111242300012123
 21
162.45327294553326
  0
LINE
  8
_0-1__U_30EC_U_30A4_U_30E4_U_30FC_1_U_306E_U_30B3_U_30D4_U_30FC_2
  6
CONTINUOUS
 62
    7
 10
63.111242300012123
 20
162.45327294553326
 11
62.95345692678768
 21
159.47292084124351
  0
LINE
  8
_0-1__U_30EC_U_30A4_U_30E4_U_30FC_1_U_306E_U_30B3_U_30D4_U_30FC_2
  6
CONTINUOUS
 62
    7
 10
62.95345692678768
 20
159.47292084124351
 11
63.128123267889805
 21
156.50445431637795
  0
LINE
  8
_0-1__U_30EC_U_30A4_U_30E4_U_30FC_1_U_306E_U_30B3_U_30D4_U_30FC_2
  6
CONTINUOUS
 62
    7
 10
63.128123267889805
 20
156.50445431637795
 11
63.638686418803786
 21
153.57164452978483
  0
LINE
  8
_0-1__U_30EC_U_30A4_U_30E4_U_30FC_1_U_306E_U_30B3_U_30D4_U_30FC_2
  6
CONTINUOUS
 62
    7
 10
63.638686418803786
 20
153.57164452978483
 11
64.475844621719489
 21
150.70911469109078
  0
LINE
  8
_0-1__U_30EC_U_30A4_U_30E4_U_30FC_1_U_306E_U_30B3_U_30D4_U_30FC_2
  6
CONTINUOUS
 62
    7
 10
64.475844621719489
 20
150.70911469109078
 11
65.625128475598899
 21
147.96440711799218
  0
LINE
  8
_0-1__U_30EC_U_30A4_U_30E4_U_30FC_1_U_306E_U_30B3_U_30D4_U_30FC_2
  6
CONTINUOUS
 62
    7
 10
65.625128475598899
 20
147.96440711799218
 11
67.077408477405925
 21
145.36921668895351
  0
LINE
  8
_0-1__U_30EC_U_30A4_U_30E4_U_30FC_1_U_306E_U_30B3_U_30D4_U_30FC_2
  6
CONTINUOUS
 62
    7
 10
67.077408477405925
 20
145.36921668895351
 11
68.815803659262997
 21
142.94421397688606
  0
LINE
  8
_0-1__U_30EC_U_30A4_U_30E4_U_30FC_1_U_306E_U_30B3_U_30D4_U_30FC_2
  6
CONTINUOUS
 62
    7
 10
68.815803659262997
 20
142.94421397688606
 11
70.807068849737448
 21
140.7328071849042
  0
LINE
  8
_0-1__U_30EC_U_30A4_U_30E4_U_30FC_1_U_306E_U_30B3_U_30D4_U_30FC_2
  6
CONTINUOUS
 62
    7
 10
70.807068849737448
 20
140.7328071849042
 11
73.035528864371258
 21
138.76496864372947
  0
LINE
  8
_0-1__U_30EC_U_30A4_U_30E4_U_30FC_1_U_306E_U_30B3_U_30D4_U_30FC_2
  6
CONTINUOUS
 62
    7
 10
73.035528864371258
 20
138.76496864372947
 11
75.478446072961901
 21
137.05137814936629
  0
LINE
  8
_0-1__U_30EC_U_30A4_U_30E4_U_30FC_1_U_306E_U_30B3_U_30D4_U_30FC_2
  6
CONTINUOUS
 62
    7
 10
75.478446072961901
 20
137.05137814936629
 11
78.088967176909932
 21
135.62579763756989
  0
LINE
  8
_0-1__U_30EC_U_30A4_U_30E4_U_30FC_1_U_306E_U_30B3_U_30D4_U_30FC_2
  6
CONTINUOUS
 62
    7
 10
78.088967176909932
 20
135.62579763756989
 11
80.844871310335634
 21
134.50373003802403
  0
LINE
  8
_0-1__U_30EC_U_30A4_U_30E4_U_30FC_1_U_306E_U_30B3_U_30D4_U_30FC_2
  6
CONTINUOUS
 62
    7
 10
80.844871310335634
 20
134.50373003802403
 11
83.717047416388368
 21
133.69688867537852
  0
LINE
  8
_0-1__U_30EC_U_30A4_U_30E4_U_30FC_1_U_306E_U_30B3_U_30D4_U_30FC_2
  6
CONTINUOUS
 62
    7
 10
83.717047416388368
 20
133.69688867537852
 11
86.652785534144073
 21
133.21595334563764
  0
LINE
  8
_0-1__U_30EC_U_30A4_U_30E4_U_30FC_1_U_306E_U_30B3_U_30D4_U_30FC_2
  6
CONTINUOUS
 62
    7
 10
86.652785534144073
 20
133.21595334563764
 11
89.622457842429412
 21
133.06988129706301
  0
LINE
  8
_0-1__U_30EC_U_30A4_U_30E4_U_30FC_1_U_306E_U_30B3_U_30D4_U_30FC_2
  6
CONTINUOUS
 62
    7
 10
89.622457842429412
 20
133.06988129706301
 11
92.601259653750617
 21
133.25694998191213
  0
LINE
  8
_0-1__U_30EC_U_30A4_U_30E4_U_30FC_1_U_306E_U_30B3_U_30D4_U_30FC_2
  6
CONTINUOUS
 62
    7
 10
92.601259653750617
 20
133.25694998191213
 11
95.530968854407092
 21
133.77578136199074
  0
LINE
  8
_0-1__U_30EC_U_30A4_U_30E4_U_30FC_1_U_306E_U_30B3_U_30D4_U_30FC_2
  6
CONTINUOUS
 62
    7
 10
95.530968854407092
 20
133.77578136199074
 11
98.382818897096854
 21
134.6187962272314
  0
LINE
  8
_0-1__U_30EC_U_30A4_U_30E4_U_30FC_1_U_306E_U_30B3_U_30D4_U_30FC_2
  6
CONTINUOUS
 62
    7
 10
98.382818897096854
 20
134.6187962272314
 11
101.13114382045501
 21
135.78186046305174
  0
LINE
  8
_0-1__U_30EC_U_30A4_U_30E4_U_30FC_1_U_306E_U_30B3_U_30D4_U_30FC_2
  6
CONTINUOUS
 62
    7
 10
101.13114382045501
 20
135.78186046305174
 11
103.72254464445996
 21
137.23913585331238
  0
LINE
  8
_0-1__U_30EC_U_30A4_U_30E4_U_30FC_1_U_306E_U_30B3_U_30D4_U_30FC_2
  6
CONTINUOUS
 62
    7
 10
103.72254464445996
 20
137.23913585331238
 11
106.13393922936052
 21
138.98304318794598
  0
LINE
  8
_0-1__U_30EC_U_30A4_U_30E4_U_30FC_1_U_306E_U_30B3_U_30D4_U_30FC_2
  6
CONTINUOUS
 62
    7
 10
106.13393922936052
 20
138.98304318794598
 11
108.34396798314833
 21
140.98843326990979
  0
LINE
  8
_0-1__U_30EC_U_30A4_U_30E4_U_30FC_1_U_306E_U_30B3_U_30D4_U_30FC_2
  6
CONTINUOUS
 62
    7
 10
108.34396798314833
 20
140.98843326990979
 11
110.30991172180609
 21
143.22395573028845
  0
LINE
  8
_0-1__U_30EC_U_30A4_U_30E4_U_30FC_1_U_306E_U_30B3_U_30D4_U_30FC_2
  6
CONTINUOUS
 62
    7
 10
110.30991172180609
 20
143.22395573028845
 11
112.00731026738879
 21
145.66342784339381
  0
LINE
  8
_0-1__U_30EC_U_30A4_U_30E4_U_30FC_1_U_306E_U_30B3_U_30D4_U_30FC_2
  6
CONTINUOUS
 62
    7
 10
112.00731026738879
 20
145.66342784339381
 11
113.42806764550585
 21
148.28859060315423
  0
LINE
  8
_0-1__U_30EC_U_30A4_U_30E4_U_30FC_1_U_306E_U_30B3_U_30D4_U_30FC_2
  6
CONTINUOUS
 62
    7
 10
113.42806764550585
 20
148.28859060315423
 11
114.5422115254355
 21
151.04535601045106
  0
LINE
  8
_0-1__U_30EC_U_30A4_U_30E4_U_30FC_1_U_306E_U_30B3_U_30D4_U_30FC_2
  6
CONTINUOUS
 62
    7
 10
114.5422115254355
 20
151.04535601045106
 11
115.33785632775403
 21
153.91236447327603
  0
LINE
  8
_0-1__U_30EC_U_30A4_U_30E4_U_30FC_1_U_306E_U_30B3_U_30D4_U_30FC_2
  6
CONTINUOUS
 62
    7
 10
115.33785632775403
 20
153.91236447327603
 11
115.81069568310454
 21
156.85843787748749
  0
LINE
  8
_0-1__U_30EC_U_30A4_U_30E4_U_30FC_1_U_306E_U_30B3_U_30D4_U_30FC_2
  6
CONTINUOUS
 62
    7
 10
115.81069568310454
 20
156.85843787748749
 11
115.94953303116017
 21
159.83086626216104
  0
LINE
  8
_0-1__U_30EC_U_30A4_U_30E4_U_30FC_1_U_306E_U_30B3_U_30D4_U_30FC_2
  6
CONTINUOUS
 62
    7
 10
115.94953303116017
 20
159.83086626216104
 11
115.7509232764354
 21
162.79847151315525
  0
LINE
  8
_0-1__U_30EC_U_30A4_U_30E4_U_30FC_1_U_306E_U_30B3_U_30D4_U_30FC_2
  6
CONTINUOUS
 62
    7
 10
115.7509232764354
 20
162.79847151315525
 11
115.2191727882871
 21
165.73420963091095
  0
LINE
  8
_0-1__U_30EC_U_30A4_U_30E4_U_30FC_1_U_306E_U_30B3_U_30D4_U_30FC_2
  6
CONTINUOUS
 62
    7
 10
115.2191727882871
 20
165.73420963091095
 11
114.36754518433338
 21
168.58502614495509
  0
LINE
  8
_0-1__U_30EC_U_30A4_U_30E4_U_30FC_1_U_306E_U_30B3_U_30D4_U_30FC_2
  6
CONTINUOUS
 62
    7
 10
114.36754518433338
 20
168.58502614495509
 11
113.19793526709111
 21
171.31819264817815
  0
LINE
  8
_0-1__U_30EC_U_30A4_U_30E4_U_30FC_1_U_306E_U_30B3_U_30D4_U_30FC_2
  6
CONTINUOUS
 62
    7
 10
113.19793526709111
 20
171.31819264817815
 11
111.72739625921224
 21
173.91338307721671
  0
LINE
  8
_0-1__U_30EC_U_30A4_U_30E4_U_30FC_1_U_306E_U_30B3_U_30D4_U_30FC_2
  6
CONTINUOUS
 62
    7
 10
111.72739625921224
 20
173.91338307721671
 11
109.98021608386773
 21
176.32133256663209
  0
LINE
  8
_0-1__U_30EC_U_30A4_U_30E4_U_30FC_1_U_306E_U_30B3_U_30D4_U_30FC_2
  6
CONTINUOUS
 62
    7
 10
109.98021608386773
 20
176.32133256663209
 11
107.97103639686998
 21
178.51689191938189
  0
LINE
  8
_0-1__U_30EC_U_30A4_U_30E4_U_30FC_1_U_306E_U_30B3_U_30D4_U_30FC_2
  6
CONTINUOUS
 62
    7
 10
107.97103639686998
 20
178.51689191938189
 11
105.722767083196
 21
180.47956281732874
  0
LINE
  8
_0-1__U_30EC_U_30A4_U_30E4_U_30FC_1_U_306E_U_30B3_U_30D4_U_30FC_2
  6
CONTINUOUS
 62
    7
 10
105.722767083196
 20
180.47956281732874
 11
103.27502674092602
 21
182.17282724832907
  0
LINE
  8
_0-1__U_30EC_U_30A4_U_30E4_U_30FC_1_U_306E_U_30B3_U_30D4_U_30FC_2
  6
CONTINUOUS
 62
    7
 10
103.27502674092602
 20
182.17282724832907
 11
100.65606515303909
 21
183.57756493243969
  0
LINE
  8
_0-1__U_30EC_U_30A4_U_30E4_U_30FC_1_U_306E_U_30B3_U_30D4_U_30FC_2
  6
CONTINUOUS
 62
    7
 10
100.65606515303909
 20
183.57756493243969
 11
97.885347109026839
 21
184.68481862139888
  0
LINE
  8
_0-1__U_30EC_U_30A4_U_30E4_U_30FC_1_U_306E_U_30B3_U_30D4_U_30FC_2
  6
CONTINUOUS
 62
    7
 10
97.885347109026839
 20
184.68481862139888
 11
95.016788353233665
 21
185.47340097797266
  0
LINE
  8
_0-1__U_30EC_U_30A4_U_30E4_U_30FC_1_U_306E_U_30B3_U_30D4_U_30FC_2
  6
CONTINUOUS
 62
    7
 10
95.016788353233665
 20
185.47340097797266
 11
92.248309621286808
 21
185.91781829556984
  0
LINE
  8
_0-1__U_30EC_U_30A4_U_30E4_U_30FC_1_U_306E_U_30B3_U_30D4_U_30FC_2
  6
CONTINUOUS
 62
    7
 10
92.248309621286808
 20
185.91781829556984
 11
89.450547577715383
 21
186.0632013250474
  0
LINE
  8
_0-1__U_30EC_U_30A4_U_30E4_U_30FC_1_U_306E_U_30B3_U_30D4_U_30FC_2
  6
CONTINUOUS
 62
    7
 10
132.70062080909042
 20
193.56610252759876
 11
132.51785849359794
 21
195.36185854928519
  0
LINE
  8
_0-1__U_30EC_U_30A4_U_30E4_U_30FC_1_U_306E_U_30B3_U_30D4_U_30FC_2
  6
CONTINUOUS
 62
    7
 10
132.51785849359794
 20
195.36185854928519
 11
131.98645251499818
 21
197.09336354017179
  0
LINE
  8
_0-1__U_30EC_U_30A4_U_30E4_U_30FC_1_U_306E_U_30B3_U_30D4_U_30FC_2
  6
CONTINUOUS
 62
    7
 10
131.98645251499818
 20
197.09336354017179
 11
131.13379138239884
 21
198.68534216390569
  0
LINE
  8
_0-1__U_30EC_U_30A4_U_30E4_U_30FC_1_U_306E_U_30B3_U_30D4_U_30FC_2
  6
CONTINUOUS
 62
    7
 10
131.13379138239884
 20
198.68534216390569
 11
129.98037341393717
 21
200.09076886711338
  0
LINE
  8
_0-1__U_30EC_U_30A4_U_30E4_U_30FC_1_U_306E_U_30B3_U_30D4_U_30FC_2
  6
CONTINUOUS
 62
    7
 10
129.98037341393717
 20
200.09076886711338
 11
128.58424846853961
 21
201.23867468279863
  0
LINE
  8
_0-1__U_30EC_U_30A4_U_30E4_U_30FC_1_U_306E_U_30B3_U_30D4_U_30FC_2
  6
CONTINUOUS
 62
    7
 10
128.58424846853961
 20
201.23867468279863
 11
126.98865249454627
 21
202.09788149681989
  0
LINE
  8
_0-1__U_30EC_U_30A4_U_30E4_U_30FC_1_U_306E_U_30B3_U_30D4_U_30FC_2
  6
CONTINUOUS
 62
    7
 10
126.98865249454627
 20
202.09788149681989
 11
125.25921456095068
 21
202.63101002316236
  0
LINE
  8
_0-1__U_30EC_U_30A4_U_30E4_U_30FC_1_U_306E_U_30B3_U_30D4_U_30FC_2
  6
CONTINUOUS
 62
    7
 10
125.25921456095068
 20
202.63101002316236
 11
123.45208972416287
 21
202.81428910297754
  0
LINE
  8
_0-1__U_30EC_U_30A4_U_30E4_U_30FC_1_U_306E_U_30B3_U_30D4_U_30FC_2
  6
CONTINUOUS
 62
    7
 10
123.45208972416287
 20
202.81428910297754
 11
89.450547577715383
 21
202.87044415938723
  0
LINE
  8
_0-1__U_30EC_U_30A4_U_30E4_U_30FC_1_U_306E_U_30B3_U_30D4_U_30FC_2
  6
CONTINUOUS
 62
    7
 10
89.450547577715383
 20
202.87044415938723
 11
55.449005431267892
 21
202.81428910297754
  0
LINE
  8
_0-1__U_30EC_U_30A4_U_30E4_U_30FC_1_U_306E_U_30B3_U_30D4_U_30FC_2
  6
CONTINUOUS
 62
    7
 10
55.449005431267892
 20
202.81428910297754
 11
53.653421664355733
 21
202.63273257090506
  0
LINE
  8
_0-1__U_30EC_U_30A4_U_30E4_U_30FC_1_U_306E_U_30B3_U_30D4_U_30FC_2
  6
CONTINUOUS
 62
    7
 10
53.653421664355733
 20
202.63273257090506
 11
51.919332851855188
 21
202.10149884707957
  0
LINE
  8
_0-1__U_30EC_U_30A4_U_30E4_U_30FC_1_U_306E_U_30B3_U_30D4_U_30FC_2
  6
CONTINUOUS
 62
    7
 10
51.919332851855188
 20
202.10149884707957
 11
50.329765794960963
 21
201.2472874215118
  0
LINE
  8
_0-1__U_30EC_U_30A4_U_30E4_U_30FC_1_U_306E_U_30B3_U_30D4_U_30FC_2
  6
CONTINUOUS
 62
    7
 10
50.329765794960963
 20
201.2472874215118
 11
48.925372620398775
 21
200.09421396259867
  0
LINE
  8
_0-1__U_30EC_U_30A4_U_30E4_U_30FC_1_U_306E_U_30B3_U_30D4_U_30FC_2
  6
CONTINUOUS
 62
    7
 10
48.925372620398775
 20
200.09421396259867
 11
47.77695004039083
 21
198.69808901720111
  0
LINE
  8
_0-1__U_30EC_U_30A4_U_30E4_U_30FC_1_U_306E_U_30B3_U_30D4_U_30FC_2
  6
CONTINUOUS
 62
    7
 10
47.77695004039083
 20
198.69808901720111
 11
46.916709697723832
 21
197.10369882662755
  0
LINE
  8
_0-1__U_30EC_U_30A4_U_30E4_U_30FC_1_U_306E_U_30B3_U_30D4_U_30FC_2
  6
CONTINUOUS
 62
    7
 10
46.916709697723832
 20
197.10369882662755
 11
46.38427019047856
 21
195.37288285483802
  0
LINE
  8
_0-1__U_30EC_U_30A4_U_30E4_U_30FC_1_U_306E_U_30B3_U_30D4_U_30FC_2
  6
CONTINUOUS
 62
    7
 10
46.38427019047856
 20
195.37288285483802
 11
46.200474346340457
 21
193.56610252759876
  0
LINE
  8
_0-1__U_30EC_U_30A4_U_30E4_U_30FC_1_U_306E_U_30B3_U_30D4_U_30FC_2
  6
CONTINUOUS
 62
    7
 10
46.200474346340457
 20
193.56610252759876
 11
46.144319289930877
 21
159.56559390979677
  0
LINE
  8
_0-1__U_30EC_U_30A4_U_30E4_U_30FC_1_U_306E_U_30B3_U_30D4_U_30FC_2
  6
CONTINUOUS
 62
    7
 10
46.144319289930877
 20
159.56559390979677
 11
46.200474346340457
 21
125.56474078244636
  0
LINE
  8
_0-1__U_30EC_U_30A4_U_30E4_U_30FC_1_U_306E_U_30B3_U_30D4_U_30FC_2
  6
CONTINUOUS
 62
    7
 10
46.200474346340457
 20
125.56474078244636
 11
46.382719897510128
 21
123.7701905441796
  0
LINE
  8
_0-1__U_30EC_U_30A4_U_30E4_U_30FC_1_U_306E_U_30B3_U_30D4_U_30FC_2
  6
CONTINUOUS
 62
    7
 10
46.382719897510128
 20
123.7701905441796
 11
46.913264602238655
 21
122.03765202464749
  0
LINE
  8
_0-1__U_30EC_U_30A4_U_30E4_U_30FC_1_U_306E_U_30B3_U_30D4_U_30FC_2
  6
CONTINUOUS
 62
    7
 10
46.913264602238655
 20
122.03765202464749
 11
47.76713151825777
 21
120.44636242001056
  0
LINE
  8
_0-1__U_30EC_U_30A4_U_30E4_U_30FC_1_U_306E_U_30B3_U_30D4_U_30FC_2
  6
CONTINUOUS
 62
    7
 10
47.76713151825777
 20
120.44636242001056
 11
48.920204977170897
 21
119.04317502886838
  0
LINE
  8
_0-1__U_30EC_U_30A4_U_30E4_U_30FC_1_U_306E_U_30B3_U_30D4_U_30FC_2
  6
CONTINUOUS
 62
    7
 10
48.920204977170897
 20
119.04317502886838
 11
50.316329922568457
 21
117.89320215589188
  0
LINE
  8
_0-1__U_30EC_U_30A4_U_30E4_U_30FC_1_U_306E_U_30B3_U_30D4_U_30FC_2
  6
CONTINUOUS
 62
    7
 10
50.316329922568457
 20
117.89320215589188
 11
51.912098151336181
 21
117.0346843609677
  0
LINE
  8
_0-1__U_30EC_U_30A4_U_30E4_U_30FC_1_U_306E_U_30B3_U_30D4_U_30FC_2
  6
CONTINUOUS
 62
    7
 10
51.912098151336181
 20
117.0346843609677
 11
53.641880594480085
 21
116.50172808939951
  0
LINE
  8
_0-1__U_30EC_U_30A4_U_30E4_U_30FC_1_U_306E_U_30B3_U_30D4_U_30FC_2
  6
CONTINUOUS
 62
    7
 10
53.641880594480085
 20
116.50172808939951
 11
55.449005431267892
 21
116.31741548093871
  0
LINE
  8
_0-1__U_30EC_U_30A4_U_30E4_U_30FC_1_U_306E_U_30B3_U_30D4_U_30FC_2
  6
CONTINUOUS
 62
    7
 10
55.449005431267892
 20
116.31741548093871
 11
89.450547577715383
 21
116.26263846272317
  0
LINE
  8
_0-1__U_30EC_U_30A4_U_30E4_U_30FC_1_U_306E_U_30B3_U_30D4_U_30FC_2
  6
CONTINUOUS
 62
    7
 10
89.450547577715383
 20
116.26263846272317
 11
123.45208972416287
 21
116.31741548093871
  0
LINE
  8
_0-1__U_30EC_U_30A4_U_30E4_U_30FC_1_U_306E_U_30B3_U_30D4_U_30FC_2
  6
CONTINUOUS
 62
    7
 10
123.45208972416287
 20
116.31741548093871
 11
125.24784574584942
 21
116.49862750346287
  0
LINE
  8
_0-1__U_30EC_U_30A4_U_30E4_U_30FC_1_U_306E_U_30B3_U_30D4_U_30FC_2
  6
CONTINUOUS
 62
    7
 10
125.24784574584942
 20
116.49862750346287
 11
126.97986750105883
 21
117.03227279412803
  0
LINE
  8
_0-1__U_30EC_U_30A4_U_30E4_U_30FC_1_U_306E_U_30B3_U_30D4_U_30FC_2
  6
CONTINUOUS
 62
    7
 10
126.97986750105883
 20
117.03227279412803
 11
128.57098485092149
 21
117.88527843627591
  0
LINE
  8
_0-1__U_30EC_U_30A4_U_30E4_U_30FC_1_U_306E_U_30B3_U_30D4_U_30FC_2
  6
CONTINUOUS
 62
    7
 10
128.57098485092149
 20
117.88527843627591
 11
129.97503351593502
 21
119.0362848378978
  0
LINE
  8
_0-1__U_30EC_U_30A4_U_30E4_U_30FC_1_U_306E_U_30B3_U_30D4_U_30FC_2
  6
CONTINUOUS
 62
    7
 10
129.97503351593502
 20
119.0362848378978
 11
131.12345609594297
 21
120.43361556671525
  0
LINE
  8
_0-1__U_30EC_U_30A4_U_30E4_U_30FC_1_U_306E_U_30B3_U_30D4_U_30FC_2
  6
CONTINUOUS
 62
    7
 10
131.12345609594297
 20
120.43361556671525
 11
131.98421320293266
 21
122.03041732412848
  0
LINE
  8
_0-1__U_30EC_U_30A4_U_30E4_U_30FC_1_U_306E_U_30B3_U_30D4_U_30FC_2
  6
CONTINUOUS
 62
    7
 10
131.98421320293266
 20
122.03041732412848
 11
132.51424114333838
 21
123.75882172907833
  0
LINE
  8
_0-1__U_30EC_U_30A4_U_30E4_U_30FC_1_U_306E_U_30B3_U_30D4_U_30FC_2
  6
CONTINUOUS
 62
    7
 10
132.51424114333838
 20
123.75882172907833
 11
132.70062080909042
 21
125.56474078244636
  0
LINE
  8
_0-1__U_30EC_U_30A4_U_30E4_U_30FC_1_U_306E_U_30B3_U_30D4_U_30FC_2
  6
CONTINUOUS
 62
    7
 10
132.70062080909042
 20
125.56474078244636
 11
132.75660361072573
 21
159.56559390979677
  0
LINE
  8
_0-1__U_30EC_U_30A4_U_30E4_U_30FC_1_U_306E_U_30B3_U_30D4_U_30FC_2
  6
CONTINUOUS
 62
    7
 10
132.75660361072573
 20
159.56559390979677
 11
132.70062080909042
 21
193.56610252759876
  0
LINE
  8
_0-0_
  6
CONTINUOUS
 62
   18
 10
27.680254777070104
 20
204.56474211903307
 11
27.680254777070104
 21
114.56455089804351
  0
POINT
  8
_0-0_
 62
   18
 10
27.680254777070104
 20
204.56474211903307
  0
POINT
  8
_0-0_
 62
   18
 10
27.680254777070104
 20
114.56455089804351
  0
LINE
  8
_0-0_
  6
CONTINUOUS
 62
   18
 10
27.680254777070104
 20
204.56474211903307
 11
47.718471337579672
 21
204.56474211903307
  0
LINE
  8
_0-0_
  6
CONTINUOUS
 62
   18
 10
27.680254777070104
 20
114.56455089804351
 11
47.718471337579672
 21
114.56455089804351
  0
TEXT
  8
_0-0_
 62
    3
 10
24.681528662420419
 20
156.73248407643311
 40
6
 41
1
 50
90
  1
90
  0
LINE
  8
_0-0_
  6
CONTINUOUS
 62
   18
 10
44.450882604156277
 20
99.168152866242053
 11
134.45090157037168
 21
99.168152866242053
  0
POINT
  8
_0-0_
 62
   18
 10
44.450882604156277
 20
99.168152866242053
  0
POINT
  8
_0-0_
 62
   18
 10
134.45090157037168
 20
99.168152866242053
  0
LINE
  8
_0-0_
  6
CONTINUOUS
 62
   18
 10
44.450882604156277
 20
99.168152866242053
 11
44.450882604156277
 21
117.94522292993631
  0
LINE
  8
_0-0_
  6
CONTINUOUS
 62
   18
 10
134.45090157037168
 20
99.168152866242053
 11
134.45090157037168
 21
117.94522292993631
  0
TEXT
  8
_0-0_
 62
    3
 10
86.337579617834422
 20
100.68152866242039
 40
6
 41
1
 50
0
  1
90
  0
LINE
  8
_0-0_
  6
CONTINUOUS
 62
   18
 10
174.45087172096191
 20
72.382283557442804
 11
232.45077676288551
 21
72.382283557442804
  0
POINT
  8
_0-0_
 62
   18
 10
174.45087172096191
 20
72.382283557442804
  0
POINT
  8
_0-0_
 62
   18
 10
232.45077676288551
 20
72.382283557442804
  0
LINE
  8
_0-0_
  6
CONTINUOUS
 62
   18
 10
174.45087172096191
 20
72.382283557442818
 11
174.45087172096191
 21
112.38519304867508
  0
TEXT
  8
_0-0_
 62
    3
 10
201.64987811590788
 20
74.063812219863209
 40
6
 41
1
 50
0
  1
58
  0
LINE
  8
_0-0_
  6
CONTINUOUS
 62
   18
 10
221.45093138803131
 20
95.237644491625417
 11
232.45077676288551
 21
95.237644491625417
  0
POINT
  8
_0-0_
 62
   18
 10
221.45093138803131
 20
95.237644491625417
  0
POINT
  8
_0-0_
 62
   18
 10
232.45077676288551
 20
95.237644491625417
  0
LINE
  8
_0-0_
  6
CONTINUOUS
 62
   18
 10
221.45093138803131
 20
95.237644491625417
 11
221.45093138803131
 21
112.68350436423688
  0
LINE
  8
_0-0_
  6
CONTINUOUS
 62
   18
 10
232.45077676288551
 20
72.382283557442818
 11
232.45077676288551
 21
132.37237556027367
  0
LINE
  8
_0-0_
  6
CONTINUOUS
 62
   18
 10
232.45077676288551
 20
72.467916961547559
 11
232.45077676288551
 21
93.678186679248284
  0
TEXT
  8
_0-0_
 62
    3
 10
223.97684202248959
 20
96.896791696154779
 40
6
 41
1
 50
0
  1
11
  0
LINE
  8
_0-0_
  6
CONTINUOUS
 62
   18
 10
305.15090424037021
 20
88.11547534795946
 11
339.45096391061463
 21
88.11547534795946
  0
POINT
  8
_0-0_
 62
   18
 10
305.15090424037021
 20
88.11547534795946
  0
POINT
  8
_0-0_
 62
   18
 10
339.45096391061463
 20
88.11547534795946
  0
LINE
  8
_0-0_
  6
CONTINUOUS
 62
   18
 10
339.45096391061463
 20
88.11547534795946
 11
339.45096391061463
 21
125.94987025241807
  0
TEXT
  8
_0-0_
 62
    3
 10
316.54849807344499
 20
89.656876621844816
 40
6
 41
1
 50
0
  1
34.3
  0
LINE
  8
_0-1__U_30EC_U_30A4_U_30E4_U_30FC_1_U_306E_U_30B3_U_30D4_U_30FC_2
  6
CONTINUOUS
 62
    7
 10
294.45078217273272
 20
123.14732248171742
 11
294.45078217273272
 21
133.49982921362218
  0
LINE
  8
_0-0_
  6
CONTINUOUS
 62
   18
 10
305.15090424037021
 20
88.11547534795946
 11
305.15090424037021
 21
130.01356451993399
  0
LINE
  8
_0-0_
  6
CONTINUOUS
 62
   18
 10
286.86614374459384
 20
180.36466888289564
 11
286.86614374459384
 21
159.56473263592542
  0
POINT
  8
_0-0_
 62
   18
 10
286.86614374459384
 20
180.36466888289564
  0
POINT
  8
_0-0_
 62
   18
 10
286.86614374459384
 20
159.56473263592542
  0
LINE
  8
_0-0_
  6
CONTINUOUS
 62
   18
 10
286.86614374459384
 20
159.56473263592542
 11
305.8300503263348
 21
159.56473263592542
  0
TEXT
  8
_0-0_
 62
    3
 10
285.55828811826689
 20
163.53904222694032
 40
6
 41
1
 50
90
  1
20.8
  0
LINE
  8
_0-0_
  6
CONTINUOUS
 62
   18
 10
273.49755838641187
 20
140.86475434198937
 11
273.49755838641187
 21
136.8646539740657
  0
POINT
  8
_0-0_
 62
   18
 10
273.49755838641187
 20
140.86475434198937
  0
POINT
  8
_0-0_
 62
   18
 10
273.49755838641187
 20
136.8646539740657
  0
LINE
  8
_0-0_
  6
CONTINUOUS
 62
   18
 10
273.5058622316584
 20
180.36466888289564
 11
273.5058622316584
 21
140.86475434198937
  0
POINT
  8
_0-0_
 62
   18
 10
273.5058622316584
 20
180.36466888289564
  0
POINT
  8
_0-0_
 62
   18
 10
273.5058622316584
 20
140.86475434198937
  0
LINE
  8
_0-0_
  6
CONTINUOUS
 62
   18
 10
273.48095069591886
 20
140.86475434198937
 11
298.34828575921995
 21
140.86475434198937
  0
LINE
  8
_0-0_
  6
CONTINUOUS
 62
   18
 10
273.48095069591886
 20
136.8646539740657
 11
298.34828575921995
 21
136.8646539740657
  0
LINE
  8
_0-0_
  6
CONTINUOUS
 62
   18
 10
273.43597153416687
 20
140.86475434198937
 11
285.65170637729022
 21
140.86475434198937
  0
LINE
  8
_0-0_
  6
CONTINUOUS
 62
   18
 10
273.6228080522136
 20
180.36466888289564
 11
296.30138790595265
 21
180.36466888289564
  0
LINE
  8
_0-0_
  6
CONTINUOUS
 62
   18
 10
273.6228080522136
 20
180.36466888289564
 11
285.65170637729022
 21
180.36466888289564
  0
TEXT
  8
_0-0_
 62
    3
 10
272.16271526303376
 20
153.29763308956515
 40
6
 41
1
 50
90
  1
39.5
  0
TEXT
  8
_0-0_
 62
    3
 10
272.22153416686325
 20
137.33522057088936
 40
6
 41
1
 50
90
  1
4
  0
LINE
  8
_0-0_
  6
CONTINUOUS
 62
   18
 10
303.15068180163405
 20
228.58237005583078
 11
307.15078216955771
 21
228.58237005583078
  0
POINT
  8
_0-0_
 62
   18
 10
303.15068180163405
 20
228.58237005583078
  0
POINT
  8
_0-0_
 62
   18
 10
307.15078216955771
 20
228.58237005583078
  0
LINE
  8
_0-0_
  6
CONTINUOUS
 62
   18
 10
373.75102358085917
 20
228.58237005583078
 11
307.15078216955771
 21
228.58237005583078
  0
POINT
  8
_0-0_
 62
   18
 10
373.75102358085917
 20
228.58237005583078
  0
LINE
  8
_0-0_
  6
CONTINUOUS
 62
   18
 10
307.15078216955771
 20
210.50593693481164
 11
339.45096391061463
 21
210.50593693481164
  0
POINT
  8
_0-0_
 62
   18
 10
307.15078216955771
 20
210.50593693481164
  0
POINT
  8
_0-0_
 62
   18
 10
339.45096391061463
 20
210.50593693481164
  0
TEXT
  8
_0-0_
 62
    3
 10
317.26037980655815
 20
212.39765668003457
 40
6
 41
1
 50
0
  1
32.3
  0
LINE
  8
_0-0_
  6
CONTINUOUS
 62
   18
 10
303.15068180163405
 20
188.2256821577416
 11
303.15068180163405
 21
228.72249744436579
  0
LINE
  8
_0-0_
  6
CONTINUOUS
 62
   18
 10
307.15078216955771
 20
188.43587324054414
 11
307.15078216955771
 21
228.58237005583078
  0
LINE
  8
_0-0_
  6
CONTINUOUS
 62
   18
 10
373.75102358085917
 20
188.2256821577416
 11
373.75102358085917
 21
228.58237005583078
  0
TEXT
  8
_0-0_
 62
    3
 10
303.73808681292758
 20
231.24479043799636
 40
6
 41
1
 50
0
  1
4
  0
TEXT
  8
_0-0_
 62
    3
 10
332.74445623967915
 20
231.24479043799636
 40
6
 41
1
 50
0
  1
66.6
  0
LINE
  8
_0-0_
  6
CENTER1
 62
   18
 10
339.45096391061463
 20
130.5646078601894
 11
339.45096391061463
 21
188.56468515688729
  0
LINE
  8
_0-0_
  6
CENTER1
 62
   18
 10
368.45108868635077
 20
159.56473263592542
 11
310.45083913487849
 21
159.56473263592542
  0
LINE
  8
_0-0_
  6
CENTER1
 62
   18
 10
381.75053529760919
 20
180.36466888289564
 11
365.75082284501184
 21
180.36466888289564
  0
LINE
  8
_0-0_
  6
CENTER1
 62
   18
 10
373.75102358085917
 20
132.5644857893769
 11
373.75102358085917
 21
186.56463497292552
  0
LINE
  8
_0-0_
  6
CENTER1
 62
   18
 10
305.15090424037021
 20
131.40402610678618
 11
305.15090424037021
 21
145.9442031254417
  0
LINE
  8
_0-0_
  6
CENTER1
 62
   18
 10
299.69774711016748
 20
136.8646539740657
 11
310.57279551505644
 21
136.8646539740657
  0
LINE
  8
_0-0_
  6
CENTER1
 62
   18
 10
299.69774711016748
 20
140.86475434198937
 11
310.57279551505644
 21
140.86475434198937
  0
LINE
  8
_0-0_
  6
CENTER1
 62
   18
 10
371.75080114212312
 20
175.03035307069277
 11
371.75080114212312
 21
185.83375796572975
  0
LINE
  8
_0-0_
  6
CENTER1
 62
   18
 10
375.75090151004667
 20
175.03035307069277
 11
375.75090151004667
 21
185.83375796572975
  0
LINE
  8
_0-0_
  6
CENTER1
 62
   18
 10
303.15068180163405
 20
175.12377132971611
 11
303.15068180163405
 21
185.83375796572975
  0
LINE
  8
_0-0_
  6
CENTER1
 62
   18
 10
307.15078216955771
 20
175.03035307069277
 11
307.15078216955771
 21
185.83375796572975
  0
LINE
  8
_0-0_
  6
CENTER1
 62
   18
 10
297.64254541165371
 20
180.36466888289564
 11
312.19646901725457
 21
180.36466888289564
  0
TEXT
  8
_0-0_
 62
    3
 10
234.59105921207836
 20
48.862939372493528
 40
6
 41
1
 50
0
  1
Touchless Switch_CleanSwitch_Surface-Mount-Box
  0
ENDSEC
  0
EOF
