  0
SECTION
  2
HEADER
  9
$ACADVER
  1
AC1012
  9
$DWGCODEPAGE
  3
dos932
  9
$INSBASE
 10
0.0
 20
0.0
 30
0.0
  9
$EXTMIN
 10
11.199144
 20
46.354449
 30
1.000000E+20
  9
$EXTMAX
 10
203.110428
 20
286.009588
 30
-1.000000E+20
  9
$LIMMIN
 10
11.199144
 20
46.354449
  9
$LIMMAX
 10
203.110428
 20
286.009588
  9
$ORTHOMODE
 70
     0
  9
$REGENMODE
 70
     1
  9
$FILLMODE
 70
     1
  9
$QTEXTMODE
 70
     0
  9
$MIRRTEXT
 70
     1
  9
$DRAGMODE
 70
     2
  9
$LTSCALE
 40
1.0
  9
$OSMODE
 70
     0
  9
$ATTMODE
 70
     1
  9
$TEXTSIZE
 40
0.2
  9
$TRACEWID
 40
0.05
  9
$TEXTSTYLE
  7
STANDARD
  9
$CLAYER
  8
0
  9
$CELTYPE
  6
CONTINUOUS
  9
$CECOLOR
 62
   256
  9
$CELTSCALE
 40
1.0
  9
$DELOBJ
 70
     1
  9
$DISPSILH
 70
     0
  9
$DIMSCALE
 40
1.0
  9
$DIMASZ
 40
0.18
  9
$DIMEXO
 40
0.0625
  9
$DIMDLI
 40
0.38
  9
$DIMRND
 40
0.0
  9
$DIMDLE
 40
0.0
  9
$DIMEXE
 40
0.18
  9
$DIMTP
 40
0.0
  9
$DIMTM
 40
0.0
  9
$DIMTXT
 40
0.18
  9
$DIMCEN
 40
0.09
  9
$DIMTSZ
 40
0.0
  9
$DIMTOL
 70
     0
  9
$DIMLIM
 70
     0
  9
$DIMTIH
 70
     1
  9
$DIMTOH
 70
     1
  9
$DIMSE1
 70
     0
  9
$DIMSE2
 70
     0
  9
$DIMTAD
 70
     0
  9
$DIMZIN
 70
     0
  9
$DIMBLK
  1

  9
$DIMASO
 70
     1
  9
$DIMSHO
 70
     1
  9
$DIMPOST
  1

  9
$DIMAPOST
  1

  9
$DIMALT
 70
     0
  9
$DIMALTD
 70
     2
  9
$DIMALTF
 40
25.4
  9
$DIMLFAC
 40
1.0
  9
$DIMTOFL
 70
     0
  9
$DIMTVP
 40
0.0
  9
$DIMTIX
 70
     0
  9
$DIMSOXD
 70
     0
  9
$DIMSAH
 70
     0
  9
$DIMBLK1
  1

  9
$DIMBLK2
  1

  9
$DIMSTYLE
  2
STANDARD
  9
$DIMCLRD
 70
     0
  9
$DIMCLRE
 70
     0
  9
$DIMCLRT
 70
     0
  9
$DIMTFAC
 40
1.0
  9
$DIMGAP
 40
0.09
  9
$DIMJUST
 70
     0
  9
$DIMSD1
 70
     0
  9
$DIMSD2
 70
     0
  9
$DIMTOLJ
 70
     1
  9
$DIMTZIN
 70
     0
  9
$DIMALTZ
 70
     0
  9
$DIMALTTZ
 70
     0
  9
$DIMFIT
 70
     3
  9
$DIMUPT
 70
     0
  9
$DIMUNIT
 70
     2
  9
$DIMDEC
 70
     4
  9
$DIMTDEC
 70
     4
  9
$DIMALTU
 70
     2
  9
$DIMALTTD
 70
     2
  9
$DIMTXSTY
  7
STANDARD
  9
$DIMAUNIT
 70
     0
  9
$LUNITS
 70
     2
  9
$LUPREC
 70
     4
  9
$SKETCHINC
 40
0.1
  9
$FILLETRAD
 40
0.0
  9
$AUNITS
 70
     0
  9
$AUPREC
 70
     0
  9
$MENU
  1
acad
  9
$ELEVATION
 40
0.0
  9
$PELEVATION
 40
0.0
  9
$THICKNESS
 40
0.0
  9
$LIMCHECK
 70
     0
  9
$BLIPMODE
 70
     1
  9
$CHAMFERA
 40
0.0
  9
$CHAMFERB
 40
0.0
  9
$CHAMFERC
 40
0.0
  9
$CHAMFERD
 40
0.0
  9
$SKPOLY
 70
     0
  9
$TDCREATE
 40
0.000000000
  9
$TDUPDATE
 40
0.000000000
  9
$TDINDWG
 40
0.0000000000
  9
$TDUSRTIMER
 40
0.0000000000
  9
$USRTIMER
 70
     1
  9
$ANGBASE
 50
0.0
  9
$ANGDIR
 70
     0
  9
$PDMODE
 70
     0
  9
$PDSIZE
 40
0.0
  9
$PLINEWID
 40
0.0
  9
$COORDS
 70
     0
  9
$SPLFRAME
 70
     0
  9
$SPLINETYPE
 70
     6
  9
$SPLINESEGS
 70
     8
  9
$ATTDIA
 70
     0
  9
$ATTREQ
 70
     1
  9
$HANDLING
 70
     1
  9
$HANDSEED
  5
143
  9
$SURFTAB1
 70
     6
  9
$SURFTAB2
 70
     6
  9
$SURFTYPE
 70
     6
  9
$SURFU
 70
     6
  9
$SURFV
 70
     6
  9
$UCSNAME
  2

  9
$UCSORG
 10
0.0
 20
0.0
 30
0.0
  9
$UCSXDIR
 10
1.0
 20
0.0
 30
0.0
  9
$UCSYDIR
 10
0.0
 20
1.0
 30
0.0
  9
$PUCSNAME
  2

  9
$PUCSORG
 10
0.0
 20
0.0
 30
0.0
  9
$PUCSXDIR
 10
1.0
 20
0.0
 30
0.0
  9
$PUCSYDIR
 10
0.0
 20
1.0
 30
0.0
  9
$USERI1
 70
     0
  9
$USERI2
 70
     0
  9
$USERI3
 70
     0
  9
$USERI4
 70
     0
  9
$USERI5
 70
     0
  9
$USERR1
 40
0.0
  9
$USERR2
 40
0.0
  9
$USERR3
 40
0.0
  9
$USERR4
 40
0.0
  9
$USERR5
 40
0.0
  9
$WORLDVIEW
 70
     1
  9
$SHADEDGE
 70
     3
  9
$SHADEDIF
 70
    70
  9
$TILEMODE
 70
     1
  9
$MAXACTVP
 70
    16
  9
$PINSBASE
 10
0.0
 20
0.0
 30
0.0
  9
$PLIMCHECK
 70
     0
  9
$PEXTMIN
 10
1.000000E+20
 20
1.000000E+20
 30
1.000000E+20
  9
$PEXTMAX
 10
-1.000000E+20
 20
-1.000000E+20
 30
-1.000000E+20
  9
$PLIMMIN
 10
0.0
 20
0.0
  9
$PLIMMAX
 10
12.0
 20
9.0
  9
$UNITMODE
 70
     0
  9
$VISRETAIN
 70
     0
  9
$PLINEGEN
 70
     1
  9
$PSLTSCALE
 70
     0
  9
$TREEDEPTH
 70
  3020
  9
$PICKSTYLE
 70
     1
  9
$CMLSTYLE
  2
STANDARD
  9
$CMLJUST
 70
     0
  9
$CMLSCALE
 40
1.0
  9
$SAVEIMAGES
 70
     0
  0
ENDSEC
  0
SECTION
  2
CLASSES
  0
CLASS
  1
LWPOLYLINE
  2
AcDbPolyline
  3
"AutoCAD"
 90
        0
280
     0
281
     1
  0
CLASS
  1
IMAGE
  2
AcDbRasterImage
  3
ISM
 90
      127
280
     0
281
     1
  0
CLASS
  1
OLE2FRAME
  2
AcDbOle2Frame
  3
""
 90
        0
280
     0
281
     1
  0
CLASS
  1
HATCH
  2
AcDbHatch
  3
"ACAD_SEDONA"
 90
        0
280
     0
281
     1
  0
CLASS
  1
DICTIONARYVAR
  2
AcDbDictionaryVar
  3
"AutoCAD"
 90
        0
280
     0
281
     0
  0
CLASS
  1
RASTERVARIABLES
  2
AcDbRasterVariables
  3
ISM
 90
        0
280
     0
281
     0
  0
CLASS
  1
IMAGEDEF
  2
AcDbRasterImageDef
  3
ISM
 90
        0
280
     0
281
     0
  0
CLASS
  1
IMAGEDEF_REACTOR
  2
AcDbRasterImageDefReactor
  3
ISM
 90
        1
280
     0
281
     0
  0
CLASS
  1
IDBUFFER
  2
AcDbIdBuffer
  3
"Acad"
 90
        0
280
     0
281
     0
  0
CLASS
  1
SPATIAL_FILTER
  2
AcDbSpatialFilter
  3
"Acad"
 90
        0
280
     0
281
     0
  0
CLASS
  1
XRECORD
  2
AcDbXrecord
  3
"<Built In>"
 90
        0
280
     0
281
     0
  0
CLASS
  1
SORTENTSTABLE
  2
AcDbSortentsTable
  3
"AutoCAD"
 90
        0
280
     0
281
     0
  0
CLASS
  1
LAYER_INDEX
  2
AcDbLayerIndex
  3
"Acad"
 90
        0
280
     0
281
     0
  0
CLASS
  1
SPATIAL_INDEX
  2
AcDbSpatialIndex
  3
"Acad"
 90
        0
280
     0
281
     0
  0
CLASS
  1
OBJECT_PTR
  2
CAseDLPNTableRecord
  3
"ASE-LPNTableRecord"
 90
        1
280
     0
281
     0
  0
CLASS
  1
LAYOUT
  2
AcDbLayout
  3
"AutoCAD 2000"
 90
        1
280
     0
281
     0
  0
CLASS
  1
PLOTSETTINGS
  2
AcDbPlotSettings
  3
"AutoCAD 2000"
 90
        1
280
     0
281
     0
  0
CLASS
  1
ACDBDICTIONARYWDFLT
  2
AcDbDictionaryWithDefault
  3
"AutoCAD 2000"
 90
        1
280
     0
281
     0
  0
CLASS
  1
ACDBPLACEHOLDER
  2
AcDbPlaceHolder
  3
"AutoCAD 2000"
 90
        1
280
     0
281
     0
  0
CLASS
  1
VBA_PROJECT
  2
AcDbVbaProject
  3
"acadvba"
 90
        1
280
     0
281
     0
  0
CLASS
  1
WIPEOUT
  2
AcDbWipeout
  3
WipeOut|AutoCAD Express Tool|expresstools@autodesk.com
 90
      127
280
     0
281
     1
  0
CLASS
  1
WIPEOUTVARIABLES
  2
AcDbWipeoutVariables
  3
WipeOut|AutoCAD Express Tool|expresstools@autodesk.com
 90
        0
280
     0
281
     0
  0
CLASS
  1
RTEXT
  2
RText
  3
RText|AutoCAD Express Tool|expresstools@autodesk.com
 90
        0
280
     0
281
     1
  0
CLASS
  1
ARCALIGNEDTEXT
  2
AcDbArcAlignedText
  3
ATEXT|AutoCAD Express Tool|expresstools@autodesk.com
 90
        0
280
     0
281
     1
  0
ENDSEC
  0
SECTION
  2
TABLES
  0
TABLE
  2
VPORT
  5
7
100
AcDbSymbolTable
 70
     1
  0
VPORT
  5
15
100
AcDbSymbolTableRecord
100
AcDbViewportTableRecord
  2
*ACTIVE
 70
     0
 10
0.0
 20
0.0
 11
1.0
 21
1.0
 12
6.591288
 22
4.579184
 13
0.0
 23
0.0
 14
1.0
 24
1.0
 15
0.0
 25
0.0
 16
0.0
 26
0.0
 36
1.0
 17
0.0
 27
0.0
 37
0.0
 40
9.158369
 41
0.688564
 42
50.0
 43
0.0
 44
0.0
 50
0.0
 51
0.0
 71
     0
 72
   100
 73
     1
 74
     1
 75
     0
 76
     0
 77
     0
 78
     0
  0
ENDTAB
  0
TABLE
  2
LTYPE
  5
4
100
AcDbSymbolTable
 70
     4
  0
LTYPE
  5
11
100
AcDbSymbolTableRecord
100
AcDbLinetypeTableRecord
  2
BYBLOCK
 70
    64
  3

 72
    65
 73
     0
 40
0.0
  0
LTYPE
  5
12
100
AcDbSymbolTableRecord
100
AcDbLinetypeTableRecord
  2
BYLAYER
 70
    64
  3

 72
    65
 73
     0
 40
0.0
  0
LTYPE
  5
13
100
AcDbSymbolTableRecord
100
AcDbLinetypeTableRecord
  2
CONTINUOUS
 70
    64
  3
Solid line
 72
    65
 73
     0
 40
0.0
  0
LTYPE
  5
F1
100
AcDbSymbolTableRecord
100
AcDbLinetypeTableRecord
  2
AI9-LTYPE1
 70
    64
  3
Illustrator Dash Style No.1
 72
    65
 73
     1
 40
2.116667
 49
2.116667
 74
     0
  0
ENDTAB
  0
TABLE
  2
LAYER
  5
2
100
AcDbSymbolTable
 70
     2
  0
LAYER
  5
14
100
AcDbSymbolTableRecord
100
AcDbLayerTableRecord
  2
0
 70
     0
 62
     7
  6
CONTINUOUS
  0
LAYER
  5
21
100
AcDbSymbolTableRecord
100
AcDbLayerTableRecord
  2
レイヤー_1
 70
     0
 62
   160
  6
CONTINUOUS
  0
ENDTAB
  0
TABLE
  2
STYLE
  5
3
100
AcDbSymbolTable
 70
     5
  0
STYLE
  5
17
100
AcDbSymbolTableRecord
100
AcDbTextStyleTableRecord
  2
STANDARD
 70
     0
 40
0.0
 41
1.0
 50
0.0
 71
     0
 42
0.0
  3
txt
  4

  0
STYLE
  5
1D
100
AcDbSymbolTableRecord
100
AcDbTextStyleTableRecord
  2
STD
 70
     0
 40
0.0
 41
1.0
 50
0.0
 71
     0
 42
0.0
  3
txt
  4

  0
STYLE
  5
1E
100
AcDbSymbolTableRecord
100
AcDbTextStyleTableRecord
  2
TATESTD
 70
     4
 40
0.0
 41
1.0
 50
0.0
 71
     0
 42
0.0
  3
txt
  4

  0
STYLE
  5
1F
100
AcDbSymbolTableRecord
100
AcDbTextStyleTableRecord
  2
KANJISTD
 70
     0
 40
0.0
 41
1.0
 50
0.0
 71
     0
 42
0.0
  3
txt
  4
extfont
  0
STYLE
  5
20
100
AcDbSymbolTableRecord
100
AcDbTextStyleTableRecord
  2
KANJITATE
 70
     4
 40
0.0
 41
1.0
 50
0.0
 71
     0
 42
0.0
  3
txt
  4
extfont
  0
ENDTAB
  0
TABLE
  2
VIEW
  5
5
100
AcDbSymbolTable
 70
     0
  0
ENDTAB
  0
TABLE
  2
UCS
  5
6
100
AcDbSymbolTable
 70
     0
  0
ENDTAB
  0
TABLE
  2
APPID
  5
8
100
AcDbSymbolTable
 70
     1
  0
APPID
  5
16
100
AcDbSymbolTableRecord
100
AcDbRegAppTableRecord
  2
ACAD
 70
     0
  0
ENDTAB
  0
TABLE
  2
DIMSTYLE
  5
9
100
AcDbSymbolTable
 70
     1
  0
DIMSTYLE
105
18
100
AcDbSymbolTableRecord
100
AcDbDimStyleTableRecord
  2
STANDARD
 70
     0
  3

  4

  5

  6

  7

 40
1.0
 41
0.18
 42
0.0625
 43
0.38
 44
0.18
 45
0.0
 46
0.0
 47
0.0
 48
0.0
 71
     0
 72
     0
 73
     1
 74
     1
 75
     0
 76
     0
 77
     0
 78
     0
140
0.18
141
0.09
142
0.0
143
25.4
144
1.0
145
0.0
146
1.0
147
0.09
170
     0
171
     2
172
     0
173
     0
174
     0
175
     0
176
     0
177
     0
178
     0
270
     2
271
     4
272
     4
273
     2
274
     2
275
     0
280
     0
281
     0
282
     0
283
     1
284
     0
285
     0
286
     0
287
     0
288
     0
340
17
  0
ENDTAB
  0
TABLE
  2
BLOCK_RECORD
  5
1
100
AcDbSymbolTable
 70
     6
  0
BLOCK_RECORD
  5
A
100
AcDbSymbolTableRecord
100
AcDbBlockTableRecord
  2
*MODEL_SPACE
  0
BLOCK_RECORD
  5
B
100
AcDbSymbolTableRecord
100
AcDbBlockTableRecord
  2
*PAPER_SPACE
  0
BLOCK_RECORD
  5
103
100
AcDbSymbolTableRecord
100
AcDbBlockTableRecord
  2
AI9-BLK1
  0
BLOCK_RECORD
  5
106
100
AcDbSymbolTableRecord
100
AcDbBlockTableRecord
  2
AI9-BLK2
  0
BLOCK_RECORD
  5
11D
100
AcDbSymbolTableRecord
100
AcDbBlockTableRecord
  2
AI9-BLK3
  0
BLOCK_RECORD
  5
125
100
AcDbSymbolTableRecord
100
AcDbBlockTableRecord
  2
AI9-BLK4
  0
BLOCK_RECORD
  5
12B
100
AcDbSymbolTableRecord
100
AcDbBlockTableRecord
  2
AI9-BLK5
  0
BLOCK_RECORD
  5
139
100
AcDbSymbolTableRecord
100
AcDbBlockTableRecord
  2
AI9-BLK6
  0
ENDTAB
  0
ENDSEC
  0
SECTION
  2
BLOCKS
  0
BLOCK
  5
D
100
AcDbEntity
  8
0
100
AcDbBlockBegin
  2
*MODEL_SPACE
 70
     0
 10
0.0
 20
0.0
 30
0.0
  3
*MODEL_SPACE
  1

  0
ENDBLK
  5
E
100
AcDbEntity
  8
0
100
AcDbBlockEnd
  0
BLOCK
  5
F
100
AcDbEntity
 67
     1
  8
0
100
AcDbBlockBegin
  2
*PAPER_SPACE
 70
     0
 10
0.0
 20
0.0
 30
0.0
  3
*PAPER_SPACE
  1

  0
ENDBLK
  5
10
100
AcDbEntity
 67
     1
  8
0
100
AcDbBlockEnd
  0
BLOCK
  5
105
100
AcDbEntity
  8
レイヤー_1
 62
     7
100
AcDbBlockBegin
  2
AI9-BLK1
 70
     0
 10
0.0
 20
0.0
 30
0.0
  3
AI9-BLK1
  1

  0
INSERT
  5
13A
100
AcDbEntity
  8
レイヤー_1
 62
     7
100
AcDbBlockReference
  2
AI9-BLK6
 10
-16.751432
 20
0.033073
 30
0.0
  0
INSERT
  5
12C
100
AcDbEntity
  8
レイヤー_1
 62
     7
100
AcDbBlockReference
  2
AI9-BLK5
 10
-8.16901
 20
-0.115755
 30
0.0
  0
INSERT
  5
126
100
AcDbEntity
  8
レイヤー_1
 62
     7
100
AcDbBlockReference
  2
AI9-BLK4
 10
0.198437
 20
0.082682
 30
0.0
  0
INSERT
  5
11E
100
AcDbEntity
  8
レイヤー_1
 62
     7
100
AcDbBlockReference
  2
AI9-BLK3
 10
8.632031
 20
0.0
 30
0.0
  0
INSERT
  5
107
100
AcDbEntity
  8
レイヤー_1
 62
     7
100
AcDbBlockReference
  2
AI9-BLK2
 10
17.148307
 20
-0.082682
 30
0.0
  0
ENDBLK
  5
140
100
AcDbEntity
  8
レイヤー_1
100
AcDbBlockEnd
  0
BLOCK
  5
108
100
AcDbEntity
  8
レイヤー_1
 62
     7
100
AcDbBlockBegin
  2
AI9-BLK2
 70
     0
 10
0.0
 20
0.0
 30
0.0
  3
AI9-BLK2
  1

  0
POLYLINE
  5
112
100
AcDbEntity
  8
レイヤー_1
 62
     7
100
AcDb2dPolyline
 66
     1
 10
0.0
 20
0.0
 30
0.0
 70
     1
  0
VERTEX
  5
113
100
AcDbEntity
  8
レイヤー_1
 62
     7
100
AcDbVertex
100
AcDb2dVertex
 10
2.711979
 20
-3.489193
 30
0.0
  0
VERTEX
  5
114
100
AcDbEntity
  8
レイヤー_1
 62
     7
100
AcDbVertex
100
AcDb2dVertex
 10
2.711979
 20
-3.158464
 30
0.0
  0
VERTEX
  5
115
100
AcDbEntity
  8
レイヤー_1
 62
     7
100
AcDbVertex
100
AcDb2dVertex
 10
-2.711979
 20
-3.158464
 30
0.0
  0
VERTEX
  5
116
100
AcDbEntity
  8
レイヤー_1
 62
     7
100
AcDbVertex
100
AcDb2dVertex
 10
-2.711979
 20
-3.555339
 30
0.0
  0
VERTEX
  5
117
100
AcDbEntity
  8
レイヤー_1
 62
     7
100
AcDbVertex
100
AcDb2dVertex
 10
-3.373437
 20
-3.555339
 30
0.0
  0
VERTEX
  5
118
100
AcDbEntity
  8
レイヤー_1
 62
     7
100
AcDbVertex
100
AcDb2dVertex
 10
-3.373437
 20
3.555339
 30
0.0
  0
VERTEX
  5
119
100
AcDbEntity
  8
レイヤー_1
 62
     7
100
AcDbVertex
100
AcDb2dVertex
 10
3.373437
 20
3.555339
 30
0.0
  0
VERTEX
  5
11A
100
AcDbEntity
  8
レイヤー_1
 62
     7
100
AcDbVertex
100
AcDb2dVertex
 10
3.373437
 20
-3.489193
 30
0.0
  0
SEQEND
  5
11B
100
AcDbEntity
  8
レイヤー_1
 62
     7
  0
POLYLINE
  5
10C
100
AcDbEntity
  8
レイヤー_1
 62
     7
100
AcDb2dPolyline
 66
     1
 10
0.0
 20
0.0
 30
0.0
 70
     1
  0
VERTEX
  5
10D
100
AcDbEntity
  8
レイヤー_1
 62
     7
100
AcDbVertex
100
AcDb2dVertex
 10
2.711979
 20
2.926953
 30
0.0
  0
VERTEX
  5
10E
100
AcDbEntity
  8
レイヤー_1
 62
     7
100
AcDbVertex
100
AcDb2dVertex
 10
-2.711979
 20
2.926953
 30
0.0
  0
VERTEX
  5
10F
100
AcDbEntity
  8
レイヤー_1
 62
     7
100
AcDbVertex
100
AcDb2dVertex
 10
-2.711979
 20
-2.530078
 30
0.0
  0
VERTEX
  5
110
100
AcDbEntity
  8
レイヤー_1
 62
     7
100
AcDbVertex
100
AcDb2dVertex
 10
2.711979
 20
-2.530078
 30
0.0
  0
SEQEND
  5
111
100
AcDbEntity
  8
レイヤー_1
 62
     7
  0
SPLINE
  5
10B
100
AcDbEntity
  8
レイヤー_1
 62
     7
100
AcDbSpline
210
0.0
220
0.0
230
1.0
 70
     8
 71
     3
 72
    44
 73
    40
 74
     0
 42
0.00000001
 43
0.00000001
 40
0.0
 40
0.0
 40
0.0
 40
0.0
 40
1.0
 40
1.0
 40
1.0
 40
2.0
 40
2.0
 40
2.0
 40
3.0
 40
3.0
 40
3.0
 40
4.0
 40
4.0
 40
4.0
 40
5.0
 40
5.0
 40
5.0
 40
6.0
 40
6.0
 40
6.0
 40
7.0
 40
7.0
 40
7.0
 40
8.0
 40
8.0
 40
8.0
 40
9.0
 40
9.0
 40
9.0
 40
10.0
 40
10.0
 40
10.0
 40
11.0
 40
11.0
 40
11.0
 40
12.0
 40
12.0
 40
12.0
 40
13.0
 40
13.0
 40
13.0
 40
13.0
 10
2.2820312499999997
 20
-1.4717447916666666
 30
0.0
 10
2.2820312499999997
 20
-1.4717447916666666
 30
0.0
 10
1.7528645833333332
 20
-2.1001302083333333
 30
0.0
 10
1.7528645833333332
 20
-2.1001302083333333
 30
0.0
 10
1.2677951388888888
 20
-1.6812065972222221
 30
0.0
 10
0.7386284722222222
 20
-1.3284288194444442
 30
0.0
 10
0.1653645833333333
 20
-1.041796875
 30
0.0
 10
-0.3417534722222222
 20
-1.5489149305555554
 30
0.0
 10
-1.0583333333333331
 20
-1.9788628472222221
 30
0.0
 10
-1.9843749999999998
 20
-2.3316406249999999
 30
0.0
 10
-1.9843749999999998
 20
-2.3316406249999999
 30
0.0
 10
-2.4143229166666664
 20
-1.7363281249999998
 30
0.0
 10
-2.4143229166666664
 20
-1.7363281249999998
 30
0.0
 10
-1.532378472222222
 20
-1.3835503472222221
 30
0.0
 10
-0.8819444444444444
 20
-1.0307725694444443
 30
0.0
 10
-0.4630208333333333
 20
-0.6779947916666667
 30
0.0
 10
-0.9701388888888888
 20
-0.4134114583333333
 30
0.0
 10
-1.5434027777777777
 20
-0.148828125
 30
0.0
 10
-2.1828124999999998
 20
0.1157552083333333
 30
0.0
 10
-2.1828124999999998
 20
0.1157552083333333
 30
0.0
 10
-1.7528645833333332
 20
0.644921875
 30
0.0
 10
-1.7528645833333332
 20
0.644921875
 30
0.0
 10
-1.2236979166666666
 20
0.4464843749999999
 30
0.0
 10
-0.6283854166666666
 20
0.1929253472222222
 30
0.0
 10
0.0330729166666667
 20
-0.1157552083333333
 30
0.0
 10
0.5401909722222221
 20
0.4795572916666666
 30
0.0
 10
0.9921874999999999
 20
1.3504774305555554
 30
0.0
 10
1.3890624999999999
 20
2.4970052083333329
 30
0.0
 10
1.3890624999999999
 20
2.4970052083333329
 30
0.0
 10
2.1166666666666663
 20
2.1993489583333332
 30
0.0
 10
2.1166666666666663
 20
2.1993489583333332
 30
0.0
 10
2.2930555555555552
 20
2.155251736111111
 30
0.0
 10
2.2599826388888888
 20
2.078081597222222
 30
0.0
 10
2.0174479166666663
 20
1.9678385416666664
 30
0.0
 10
1.5985243055555554
 20
0.9095052083333333
 30
0.0
 10
1.1465277777777776
 20
0.1047309027777778
 30
0.0
 10
0.6614583333333333
 20
-0.4464843749999999
 30
0.0
 10
1.2347222222222221
 20
-0.7331163194444443
 30
0.0
 10
1.7749131944444443
 20
-1.0748697916666665
 30
0.0
 10
2.2820312499999997
 20
-1.4717447916666666
 30
0.0
  0
SPLINE
  5
10A
100
AcDbEntity
  8
レイヤー_1
 62
     7
100
AcDbSpline
210
0.0
220
0.0
230
1.0
 70
     8
 71
     3
 72
    17
 73
    13
 74
     0
 42
0.00000001
 43
0.00000001
 40
0.0
 40
0.0
 40
0.0
 40
0.0
 40
1.0
 40
1.0
 40
1.0
 40
2.0
 40
2.0
 40
2.0
 40
3.0
 40
3.0
 40
3.0
 40
4.0
 40
4.0
 40
4.0
 40
4.0
 10
-1.4221354166666664
 20
2.2654947916666663
 30
0.0
 10
-1.1355034722222221
 20
1.9347656249999998
 30
0.0
 10
-0.8929687499999999
 20
1.5489149305555554
 30
0.0
 10
-0.6945312499999999
 20
1.1079427083333333
 30
0.0
 10
-0.6945312499999999
 20
1.1079427083333333
 30
0.0
 10
-1.28984375
 20
0.7441406249999999
 30
0.0
 10
-1.28984375
 20
0.7441406249999999
 30
0.0
 10
-1.4662326388888887
 20
1.1851128472222221
 30
0.0
 10
-1.6977430555555555
 20
1.5819878472222222
 30
0.0
 10
-1.9843749999999998
 20
1.9347656249999998
 30
0.0
 10
-1.9843749999999998
 20
1.9347656249999998
 30
0.0
 10
-1.4221354166666664
 20
2.2654947916666663
 30
0.0
 10
-1.4221354166666664
 20
2.2654947916666663
 30
0.0
  0
SPLINE
  5
109
100
AcDbEntity
  8
レイヤー_1
 62
     7
100
AcDbSpline
210
0.0
220
0.0
230
1.0
 70
     8
 71
     3
 72
    17
 73
    13
 74
     0
 42
0.00000001
 43
0.00000001
 40
0.0
 40
0.0
 40
0.0
 40
0.0
 40
1.0
 40
1.0
 40
1.0
 40
2.0
 40
2.0
 40
2.0
 40
3.0
 40
3.0
 40
3.0
 40
4.0
 40
4.0
 40
4.0
 40
4.0
 10
0.0330729166666667
 20
1.1079427083333333
 30
0.0
 10
-0.1433159722222222
 20
1.5489149305555554
 30
0.0
 10
-0.3748263888888889
 20
1.9457899305555553
 30
0.0
 10
-0.6614583333333333
 20
2.2985677083333331
 30
0.0
 10
-0.6614583333333333
 20
2.2985677083333331
 30
0.0
 10
-0.09921875
 20
2.6292968749999996
 30
0.0
 10
-0.09921875
 20
2.6292968749999996
 30
0.0
 10
0.2535590277777778
 20
2.232421875
 30
0.0
 10
0.4960937499999999
 20
1.8465711805555554
 30
0.0
 10
0.6283854166666666
 20
1.4717447916666666
 30
0.0
 10
0.6283854166666666
 20
1.4717447916666666
 30
0.0
 10
0.0330729166666667
 20
1.1079427083333333
 30
0.0
 10
0.0330729166666667
 20
1.1079427083333333
 30
0.0
  0
ENDBLK
  5
11C
100
AcDbEntity
  8
レイヤー_1
100
AcDbBlockEnd
  0
BLOCK
  5
11F
100
AcDbEntity
  8
レイヤー_1
 62
     7
100
AcDbBlockBegin
  2
AI9-BLK3
 70
     0
 10
0.0
 20
0.0
 30
0.0
  3
AI9-BLK3
  1

  0
SPLINE
  5
123
100
AcDbEntity
  8
レイヤー_1
 62
     7
100
AcDbSpline
210
0.0
220
0.0
230
1.0
 70
     8
 71
     3
 72
    20
 73
    16
 74
     0
 42
0.00000001
 43
0.00000001
 40
0.0
 40
0.0
 40
0.0
 40
0.0
 40
1.0
 40
1.0
 40
1.0
 40
2.0
 40
2.0
 40
2.0
 40
3.0
 40
3.0
 40
3.0
 40
4.0
 40
4.0
 40
4.0
 40
5.0
 40
5.0
 40
5.0
 40
5.0
 10
-1.7694010416666666
 20
-1.0583333333333331
 30
0.0
 10
-2.2103732638888887
 20
-2.0725694444444445
 30
0.0
 10
-2.5962239583333333
 20
-2.899392361111111
 30
0.0
 10
-2.9269531249999998
 20
-3.5388020833333331
 30
0.0
 10
-2.9049045138888885
 20
-3.7151909722222221
 30
0.0
 10
-2.9600260416666666
 20
-3.7592881944444443
 30
0.0
 10
-3.0923177083333329
 20
-3.6710937499999998
 30
0.0
 10
-3.0923177083333329
 20
-3.6710937499999998
 30
0.0
 10
-3.7537760416666663
 20
-3.1749999999999998
 30
0.0
 10
-3.7537760416666663
 20
-3.1749999999999998
 30
0.0
 10
-3.3348524305555554
 20
-2.645833333333333
 30
0.0
 10
-2.8718315972222221
 20
-1.830034722222222
 30
0.0
 10
-2.3647135416666663
 20
-0.7276041666666666
 30
0.0
 10
-2.3647135416666663
 20
-0.7276041666666666
 30
0.0
 10
-1.7694010416666666
 20
-1.0583333333333331
 30
0.0
 10
-1.7694010416666666
 20
-1.0583333333333331
 30
0.0
  0
SPLINE
  5
122
100
AcDbEntity
  8
レイヤー_1
 62
     7
100
AcDbSpline
210
0.0
220
0.0
230
1.0
 70
     8
 71
     3
 72
    17
 73
    13
 74
     0
 42
0.00000001
 43
0.00000001
 40
0.0
 40
0.0
 40
0.0
 40
0.0
 40
1.0
 40
1.0
 40
1.0
 40
2.0
 40
2.0
 40
2.0
 40
3.0
 40
3.0
 40
3.0
 40
4.0
 40
4.0
 40
4.0
 40
4.0
 10
-2.4639322916666666
 20
-0.09921875
 30
0.0
 10
-2.7946614583333331
 20
0.2535590277777778
 30
0.0
 10
-3.1805121527777773
 20
0.5953124999999999
 30
0.0
 10
-3.6214843749999996
 20
0.9260416666666665
 30
0.0
 10
-3.6214843749999996
 20
0.9260416666666665
 30
0.0
 10
-3.1584635416666664
 20
1.4882812499999998
 30
0.0
 10
-3.1584635416666664
 20
1.4882812499999998
 30
0.0
 10
-2.6072482638888888
 20
1.1355034722222221
 30
0.0
 10
-2.2103732638888887
 20
0.8047743055555555
 30
0.0
 10
-1.9678385416666664
 20
0.4960937499999999
 30
0.0
 10
-1.9678385416666664
 20
0.4960937499999999
 30
0.0
 10
-2.4639322916666666
 20
-0.09921875
 30
0.0
 10
-2.4639322916666666
 20
-0.09921875
 30
0.0
  0
SPLINE
  5
121
100
AcDbEntity
  8
レイヤー_1
 62
     7
100
AcDbSpline
210
0.0
220
0.0
230
1.0
 70
     8
 71
     3
 72
    17
 73
    13
 74
     0
 42
0.00000001
 43
0.00000001
 40
0.0
 40
0.0
 40
0.0
 40
0.0
 40
1.0
 40
1.0
 40
1.0
 40
2.0
 40
2.0
 40
2.0
 40
3.0
 40
3.0
 40
3.0
 40
4.0
 40
4.0
 40
4.0
 40
4.0
 10
-2.1001302083333333
 20
1.7197916666666666
 30
0.0
 10
-2.4970052083333329
 20
2.0725694444444445
 30
0.0
 10
-2.8828559027777776
 20
2.3812499999999996
 30
0.0
 10
-3.2576822916666663
 20
2.645833333333333
 30
0.0
 10
-3.2576822916666663
 20
2.645833333333333
 30
0.0
 10
-2.7946614583333331
 20
3.2080729166666662
 30
0.0
 10
-2.7946614583333331
 20
3.2080729166666662
 30
0.0
 10
-2.3316406249999999
 20
2.9214409722222219
 30
0.0
 10
-1.9347656249999998
 20
2.6127604166666663
 30
0.0
 10
-1.6040364583333331
 20
2.2820312499999997
 30
0.0
 10
-1.6040364583333331
 20
2.2820312499999997
 30
0.0
 10
-2.1001302083333333
 20
1.7197916666666666
 30
0.0
 10
-2.1001302083333333
 20
1.7197916666666666
 30
0.0
  0
SPLINE
  5
120
100
AcDbEntity
  8
レイヤー_1
 62
     7
100
AcDbSpline
210
0.0
220
0.0
230
1.0
 70
     8
 71
     3
 72
    95
 73
    91
 74
     0
 42
0.00000001
 43
0.00000001
 40
0.0
 40
0.0
 40
0.0
 40
0.0
 40
1.0
 40
1.0
 40
1.0
 40
2.0
 40
2.0
 40
2.0
 40
3.0
 40
3.0
 40
3.0
 40
4.0
 40
4.0
 40
4.0
 40
5.0
 40
5.0
 40
5.0
 40
6.0
 40
6.0
 40
6.0
 40
7.0
 40
7.0
 40
7.0
 40
8.0
 40
8.0
 40
8.0
 40
9.0
 40
9.0
 40
9.0
 40
10.0
 40
10.0
 40
10.0
 40
11.0
 40
11.0
 40
11.0
 40
12.0
 40
12.0
 40
12.0
 40
13.0
 40
13.0
 40
13.0
 40
14.0
 40
14.0
 40
14.0
 40
15.0
 40
15.0
 40
15.0
 40
16.0
 40
16.0
 40
16.0
 40
17.0
 40
17.0
 40
17.0
 40
18.0
 40
18.0
 40
18.0
 40
19.0
 40
19.0
 40
19.0
 40
20.0
 40
20.0
 40
20.0
 40
21.0
 40
21.0
 40
21.0
 40
22.0
 40
22.0
 40
22.0
 40
23.0
 40
23.0
 40
23.0
 40
24.0
 40
24.0
 40
24.0
 40
25.0
 40
25.0
 40
25.0
 40
26.0
 40
26.0
 40
26.0
 40
27.0
 40
27.0
 40
27.0
 40
28.0
 40
28.0
 40
28.0
 40
29.0
 40
29.0
 40
29.0
 40
30.0
 40
30.0
 40
30.0
 40
30.0
 10
2.232421875
 20
-2.2820312499999997
 30
0.0
 10
2.232421875
 20
-2.2820312499999997
 30
0.0
 10
1.4717447916666666
 20
-1.3229166666666665
 30
0.0
 10
1.4717447916666666
 20
-1.3229166666666665
 30
0.0
 10
1.4717447916666666
 20
-1.3229166666666665
 30
0.0
 10
2.0339843749999997
 20
-0.8929687499999999
 30
0.0
 10
2.0339843749999997
 20
-0.8929687499999999
 30
0.0
 10
2.7836371527777777
 20
-1.7087673611111109
 30
0.0
 10
3.3569010416666663
 20
-2.4914930555555554
 30
0.0
 10
3.7537760416666663
 20
-3.2411458333333329
 30
0.0
 10
3.7537760416666663
 20
-3.2411458333333329
 30
0.0
 10
3.0592447916666665
 20
-3.7041666666666662
 30
0.0
 10
3.0592447916666665
 20
-3.7041666666666662
 30
0.0
 10
2.9049045138888885
 20
-3.395486111111111
 30
0.0
 10
2.7505642361111109
 20
-3.1309027777777776
 30
0.0
 10
2.5962239583333333
 20
-2.9104166666666664
 30
0.0
 10
2.5962239583333333
 20
-2.9104166666666664
 30
0.0
 10
-1.4386718749999998
 20
-3.3072916666666665
 30
0.0
 10
-1.4386718749999998
 20
-3.3072916666666665
 30
0.0
 10
-1.4607204861111109
 20
-3.4836805555555554
 30
0.0
 10
-1.5158420138888888
 20
-3.5277777777777777
 30
0.0
 10
-1.6040364583333331
 20
-3.4395833333333332
 30
0.0
 10
-1.6040364583333331
 20
-3.4395833333333332
 30
0.0
 10
-1.8686197916666665
 20
-2.5466145833333331
 30
0.0
 10
-1.8686197916666665
 20
-2.5466145833333331
 30
0.0
 10
-1.8686197916666665
 20
-2.5466145833333331
 30
0.0
 10
-0.8433593749999999
 20
-2.5135416666666663
 30
0.0
 10
-0.8433593749999999
 20
-2.5135416666666663
 30
0.0
 10
-0.4244357638888889
 20
-1.7859374999999997
 30
0.0
 10
-0.0606336805555555
 20
-1.0252604166666666
 30
0.0
 10
0.248046875
 20
-0.2315104166666666
 30
0.0
 10
0.248046875
 20
-0.2315104166666666
 30
0.0
 10
-1.6371093749999999
 20
-0.2315104166666666
 30
0.0
 10
-1.6371093749999999
 20
-0.2315104166666666
 30
0.0
 10
-1.6371093749999999
 20
-0.2315104166666666
 30
0.0
 10
-1.6371093749999999
 20
0.396875
 30
0.0
 10
-1.6371093749999999
 20
0.396875
 30
0.0
 10
-1.6371093749999999
 20
0.396875
 30
0.0
 10
0.545703125
 20
0.396875
 30
0.0
 10
0.545703125
 20
0.396875
 30
0.0
 10
0.545703125
 20
0.396875
 30
0.0
 10
0.545703125
 20
1.7528645833333332
 30
0.0
 10
0.545703125
 20
1.7528645833333332
 30
0.0
 10
0.545703125
 20
1.7528645833333332
 30
0.0
 10
-1.0748697916666665
 20
1.7528645833333332
 30
0.0
 10
-1.0748697916666665
 20
1.7528645833333332
 30
0.0
 10
-1.0748697916666665
 20
1.7528645833333332
 30
0.0
 10
-1.0748697916666665
 20
2.3812499999999996
 30
0.0
 10
-1.0748697916666665
 20
2.3812499999999996
 30
0.0
 10
-1.0748697916666665
 20
2.3812499999999996
 30
0.0
 10
0.545703125
 20
2.3812499999999996
 30
0.0
 10
0.545703125
 20
2.3812499999999996
 30
0.0
 10
0.545703125
 20
2.3812499999999996
 30
0.0
 10
0.545703125
 20
3.7041666666666662
 30
0.0
 10
0.545703125
 20
3.7041666666666662
 30
0.0
 10
0.545703125
 20
3.7041666666666662
 30
0.0
 10
1.2733072916666666
 20
3.7041666666666662
 30
0.0
 10
1.2733072916666666
 20
3.7041666666666662
 30
0.0
 10
1.4937934027777777
 20
3.6600694444444439
 30
0.0
 10
1.5048177083333332
 20
3.5718749999999995
 30
0.0
 10
1.3063802083333331
 20
3.4395833333333332
 30
0.0
 10
1.3063802083333331
 20
3.4395833333333332
 30
0.0
 10
1.3063802083333331
 20
2.3812499999999996
 30
0.0
 10
1.3063802083333331
 20
2.3812499999999996
 30
0.0
 10
1.3063802083333331
 20
2.3812499999999996
 30
0.0
 10
3.0923177083333329
 20
2.3812499999999996
 30
0.0
 10
3.0923177083333329
 20
2.3812499999999996
 30
0.0
 10
3.0923177083333329
 20
2.3812499999999996
 30
0.0
 10
3.0923177083333329
 20
1.7528645833333332
 30
0.0
 10
3.0923177083333329
 20
1.7528645833333332
 30
0.0
 10
3.0923177083333329
 20
1.7528645833333332
 30
0.0
 10
1.3063802083333331
 20
1.7528645833333332
 30
0.0
 10
1.3063802083333331
 20
1.7528645833333332
 30
0.0
 10
1.3063802083333331
 20
1.7528645833333332
 30
0.0
 10
1.3063802083333331
 20
0.396875
 30
0.0
 10
1.3063802083333331
 20
0.396875
 30
0.0
 10
1.3063802083333331
 20
0.396875
 30
0.0
 10
3.7207031249999996
 20
0.396875
 30
0.0
 10
3.7207031249999996
 20
0.396875
 30
0.0
 10
3.7207031249999996
 20
0.396875
 30
0.0
 10
3.7207031249999996
 20
-0.2315104166666666
 30
0.0
 10
3.7207031249999996
 20
-0.2315104166666666
 30
0.0
 10
3.7207031249999996
 20
-0.2315104166666666
 30
0.0
 10
1.1410156249999999
 20
-0.2315104166666666
 30
0.0
 10
1.1410156249999999
 20
-0.2315104166666666
 30
0.0
 10
0.7882378472222221
 20
-1.0032118055555554
 30
0.0
 10
0.3803385416666666
 20
-1.7528645833333332
 30
0.0
 10
-0.0826822916666667
 20
-2.4804687499999996
 30
0.0
 10
-0.0826822916666667
 20
-2.4804687499999996
 30
0.0
 10
2.232421875
 20
-2.2820312499999997
 30
0.0
 10
2.232421875
 20
-2.2820312499999997
 30
0.0
  0
ENDBLK
  5
124
100
AcDbEntity
  8
レイヤー_1
100
AcDbBlockEnd
  0
BLOCK
  5
127
100
AcDbEntity
  8
レイヤー_1
 62
     7
100
AcDbBlockBegin
  2
AI9-BLK4
 70
     0
 10
0.0
 20
0.0
 30
0.0
  3
AI9-BLK4
  1

  0
SPLINE
  5
129
100
AcDbEntity
  8
レイヤー_1
 62
     7
100
AcDbSpline
210
0.0
220
0.0
230
1.0
 70
     8
 71
     3
 72
    56
 73
    52
 74
     0
 42
0.00000001
 43
0.00000001
 40
0.0
 40
0.0
 40
0.0
 40
0.0
 40
1.0
 40
1.0
 40
1.0
 40
2.0
 40
2.0
 40
2.0
 40
3.0
 40
3.0
 40
3.0
 40
4.0
 40
4.0
 40
4.0
 40
5.0
 40
5.0
 40
5.0
 40
6.0
 40
6.0
 40
6.0
 40
7.0
 40
7.0
 40
7.0
 40
8.0
 40
8.0
 40
8.0
 40
9.0
 40
9.0
 40
9.0
 40
10.0
 40
10.0
 40
10.0
 40
11.0
 40
11.0
 40
11.0
 40
12.0
 40
12.0
 40
12.0
 40
13.0
 40
13.0
 40
13.0
 40
14.0
 40
14.0
 40
14.0
 40
15.0
 40
15.0
 40
15.0
 40
16.0
 40
16.0
 40
16.0
 40
17.0
 40
17.0
 40
17.0
 40
17.0
 10
0.049609375
 20
-3.4891927083333329
 30
0.0
 10
0.049609375
 20
-3.4891927083333329
 30
0.0
 10
-0.1157552083333333
 20
-2.8608072916666663
 30
0.0
 10
-0.1157552083333333
 20
-2.8608072916666663
 30
0.0
 10
-0.1157552083333333
 20
-2.8608072916666663
 30
0.0
 10
0.7441406249999999
 20
-2.8608072916666663
 30
0.0
 10
0.7441406249999999
 20
-2.8608072916666663
 30
0.0
 10
0.8323350694444444
 20
-2.8608072916666663
 30
0.0
 10
0.8764322916666666
 20
-2.816710069444444
 30
0.0
 10
0.8764322916666666
 20
-2.7285156249999996
 30
0.0
 10
0.8764322916666666
 20
-2.7285156249999996
 30
0.0
 10
0.8764322916666666
 20
1.2071614583333332
 30
0.0
 10
0.8764322916666666
 20
1.2071614583333332
 30
0.0
 10
0.8764322916666666
 20
1.2071614583333332
 30
0.0
 10
-3.4891927083333329
 20
1.2071614583333332
 30
0.0
 10
-3.4891927083333329
 20
1.2071614583333332
 30
0.0
 10
-3.4891927083333329
 20
1.2071614583333332
 30
0.0
 10
-3.4891927083333329
 20
1.8355468749999999
 30
0.0
 10
-3.4891927083333329
 20
1.8355468749999999
 30
0.0
 10
-3.4891927083333329
 20
1.8355468749999999
 30
0.0
 10
0.8764322916666666
 20
1.8355468749999999
 30
0.0
 10
0.8764322916666666
 20
1.8355468749999999
 30
0.0
 10
0.8764322916666666
 20
1.8355468749999999
 30
0.0
 10
0.8764322916666666
 20
3.4891927083333329
 30
0.0
 10
0.8764322916666666
 20
3.4891927083333329
 30
0.0
 10
0.8764322916666666
 20
3.4891927083333329
 30
0.0
 10
1.5048177083333332
 20
3.4891927083333329
 30
0.0
 10
1.5048177083333332
 20
3.4891927083333329
 30
0.0
 10
1.6812065972222221
 20
3.4671440972222221
 30
0.0
 10
1.6922309027777775
 20
3.4009982638888885
 30
0.0
 10
1.537890625
 20
3.2907552083333331
 30
0.0
 10
1.537890625
 20
3.2907552083333331
 30
0.0
 10
1.537890625
 20
1.8355468749999999
 30
0.0
 10
1.537890625
 20
1.8355468749999999
 30
0.0
 10
1.537890625
 20
1.8355468749999999
 30
0.0
 10
3.4891927083333329
 20
1.8355468749999999
 30
0.0
 10
3.4891927083333329
 20
1.8355468749999999
 30
0.0
 10
3.4891927083333329
 20
1.8355468749999999
 30
0.0
 10
3.4891927083333329
 20
1.2071614583333332
 30
0.0
 10
3.4891927083333329
 20
1.2071614583333332
 30
0.0
 10
3.4891927083333329
 20
1.2071614583333332
 30
0.0
 10
1.537890625
 20
1.2071614583333332
 30
0.0
 10
1.537890625
 20
1.2071614583333332
 30
0.0
 10
1.537890625
 20
1.2071614583333332
 30
0.0
 10
1.537890625
 20
-3.0592447916666665
 30
0.0
 10
1.537890625
 20
-3.0592447916666665
 30
0.0
 10
1.537890625
 20
-3.3458767361111108
 30
0.0
 10
1.3835503472222221
 20
-3.4891927083333329
 30
0.0
 10
1.0748697916666665
 20
-3.4891927083333329
 30
0.0
 10
1.0748697916666665
 20
-3.4891927083333329
 30
0.0
 10
0.049609375
 20
-3.4891927083333329
 30
0.0
 10
0.049609375
 20
-3.4891927083333329
 30
0.0
  0
SPLINE
  5
128
100
AcDbEntity
  8
レイヤー_1
 62
     7
100
AcDbSpline
210
0.0
220
0.0
230
1.0
 70
     8
 71
     3
 72
    17
 73
    13
 74
     0
 42
0.00000001
 43
0.00000001
 40
0.0
 40
0.0
 40
0.0
 40
0.0
 40
1.0
 40
1.0
 40
1.0
 40
2.0
 40
2.0
 40
2.0
 40
3.0
 40
3.0
 40
3.0
 40
4.0
 40
4.0
 40
4.0
 40
4.0
 10
-0.6779947916666667
 20
-1.3063802083333331
 30
0.0
 10
-0.6779947916666667
 20
-1.3063802083333331
 30
0.0
 10
-1.3063802083333331
 20
-1.8024739583333331
 30
0.0
 10
-1.3063802083333331
 20
-1.8024739583333331
 30
0.0
 10
-1.6371093749999999
 20
-1.1851128472222221
 30
0.0
 10
-2.0229600694444443
 20
-0.6559461805555555
 30
0.0
 10
-2.4639322916666666
 20
-0.2149739583333333
 30
0.0
 10
-2.4639322916666666
 20
-0.2149739583333333
 30
0.0
 10
-1.8686197916666665
 20
0.2811197916666666
 30
0.0
 10
-1.8686197916666665
 20
0.2811197916666666
 30
0.0
 10
-1.4055989583333333
 20
-0.1378038194444444
 30
0.0
 10
-1.0087239583333332
 20
-0.6669704861111111
 30
0.0
 10
-0.6779947916666667
 20
-1.3063802083333331
 30
0.0
  0
ENDBLK
  5
12A
100
AcDbEntity
  8
レイヤー_1
100
AcDbBlockEnd
  0
BLOCK
  5
12D
100
AcDbEntity
  8
レイヤー_1
 62
     7
100
AcDbBlockBegin
  2
AI9-BLK5
 70
     0
 10
0.0
 20
0.0
 30
0.0
  3
AI9-BLK5
  1

  0
SPLINE
  5
137
100
AcDbEntity
  8
レイヤー_1
 62
     7
100
AcDbSpline
210
0.0
220
0.0
230
1.0
 70
     8
 71
     3
 72
    71
 73
    67
 74
     0
 42
0.00000001
 43
0.00000001
 40
0.0
 40
0.0
 40
0.0
 40
0.0
 40
1.0
 40
1.0
 40
1.0
 40
2.0
 40
2.0
 40
2.0
 40
3.0
 40
3.0
 40
3.0
 40
4.0
 40
4.0
 40
4.0
 40
5.0
 40
5.0
 40
5.0
 40
6.0
 40
6.0
 40
6.0
 40
7.0
 40
7.0
 40
7.0
 40
8.0
 40
8.0
 40
8.0
 40
9.0
 40
9.0
 40
9.0
 40
10.0
 40
10.0
 40
10.0
 40
11.0
 40
11.0
 40
11.0
 40
12.0
 40
12.0
 40
12.0
 40
13.0
 40
13.0
 40
13.0
 40
14.0
 40
14.0
 40
14.0
 40
15.0
 40
15.0
 40
15.0
 40
16.0
 40
16.0
 40
16.0
 40
17.0
 40
17.0
 40
17.0
 40
18.0
 40
18.0
 40
18.0
 40
19.0
 40
19.0
 40
19.0
 40
20.0
 40
20.0
 40
20.0
 40
21.0
 40
21.0
 40
21.0
 40
22.0
 40
22.0
 40
22.0
 40
22.0
 10
-2.7615885416666663
 20
0.2811197916666666
 30
0.0
 10
-2.7615885416666663
 20
0.2811197916666666
 30
0.0
 10
-3.7207031249999996
 20
0.2811197916666666
 30
0.0
 10
-3.7207031249999996
 20
0.2811197916666666
 30
0.0
 10
-3.7207031249999996
 20
0.2811197916666666
 30
0.0
 10
-3.7207031249999996
 20
0.9095052083333333
 30
0.0
 10
-3.7207031249999996
 20
0.9095052083333333
 30
0.0
 10
-3.7207031249999996
 20
0.9095052083333333
 30
0.0
 10
-2.7615885416666663
 20
0.9095052083333333
 30
0.0
 10
-2.7615885416666663
 20
0.9095052083333333
 30
0.0
 10
-2.7615885416666663
 20
0.9095052083333333
 30
0.0
 10
-2.7615885416666663
 20
2.7285156249999996
 30
0.0
 10
-2.7615885416666663
 20
2.7285156249999996
 30
0.0
 10
-2.7615885416666663
 20
2.7285156249999996
 30
0.0
 10
-3.4230468749999998
 20
2.7285156249999996
 30
0.0
 10
-3.4230468749999998
 20
2.7285156249999996
 30
0.0
 10
-3.4230468749999998
 20
2.7285156249999996
 30
0.0
 10
-3.4230468749999998
 20
3.3569010416666663
 30
0.0
 10
-3.4230468749999998
 20
3.3569010416666663
 30
0.0
 10
-3.4230468749999998
 20
3.3569010416666663
 30
0.0
 10
0.0826822916666667
 20
3.3569010416666663
 30
0.0
 10
0.0826822916666667
 20
3.3569010416666663
 30
0.0
 10
0.0826822916666667
 20
3.3569010416666663
 30
0.0
 10
0.0826822916666667
 20
2.7285156249999996
 30
0.0
 10
0.0826822916666667
 20
2.7285156249999996
 30
0.0
 10
0.0826822916666667
 20
2.7285156249999996
 30
0.0
 10
-0.545703125
 20
2.7285156249999996
 30
0.0
 10
-0.545703125
 20
2.7285156249999996
 30
0.0
 10
-0.545703125
 20
2.7285156249999996
 30
0.0
 10
-0.545703125
 20
0.9095052083333333
 30
0.0
 10
-0.545703125
 20
0.9095052083333333
 30
0.0
 10
-0.545703125
 20
0.9095052083333333
 30
0.0
 10
0.4134114583333333
 20
0.9095052083333333
 30
0.0
 10
0.4134114583333333
 20
0.9095052083333333
 30
0.0
 10
0.4134114583333333
 20
0.9095052083333333
 30
0.0
 10
0.4134114583333333
 20
0.2811197916666666
 30
0.0
 10
0.4134114583333333
 20
0.2811197916666666
 30
0.0
 10
0.4134114583333333
 20
0.2811197916666666
 30
0.0
 10
-0.545703125
 20
0.2811197916666666
 30
0.0
 10
-0.545703125
 20
0.2811197916666666
 30
0.0
 10
-0.545703125
 20
0.2811197916666666
 30
0.0
 10
-0.545703125
 20
-3.4561197916666662
 30
0.0
 10
-0.545703125
 20
-3.4561197916666662
 30
0.0
 10
-0.545703125
 20
-3.4561197916666662
 30
0.0
 10
-1.2071614583333332
 20
-3.4561197916666662
 30
0.0
 10
-1.2071614583333332
 20
-3.4561197916666662
 30
0.0
 10
-1.2071614583333332
 20
-3.4561197916666662
 30
0.0
 10
-1.2071614583333332
 20
0.2811197916666666
 30
0.0
 10
-1.2071614583333332
 20
0.2811197916666666
 30
0.0
 10
-1.2071614583333332
 20
0.2811197916666666
 30
0.0
 10
-2.1001302083333333
 20
0.2811197916666666
 30
0.0
 10
-2.1001302083333333
 20
0.2811197916666666
 30
0.0
 10
-2.1001302083333333
 20
0.2811197916666666
 30
0.0
 10
-2.1001302083333333
 20
-0.2811197916666666
 30
0.0
 10
-2.1001302083333333
 20
-0.2811197916666666
 30
0.0
 10
-2.1001302083333333
 20
-1.6922309027777775
 30
0.0
 10
-2.3867621527777776
 20
-2.7505642361111109
 30
0.0
 10
-2.9600260416666666
 20
-3.4561197916666662
 30
0.0
 10
-2.9600260416666666
 20
-3.4561197916666662
 30
0.0
 10
-3.5884114583333329
 20
-2.9600260416666666
 30
0.0
 10
-3.5884114583333329
 20
-2.9600260416666666
 30
0.0
 10
-3.0371961805555552
 20
-2.4088107638888885
 30
0.0
 10
-2.7615885416666663
 20
-1.5158420138888888
 30
0.0
 10
-2.7615885416666663
 20
-0.2811197916666666
 30
0.0
 10
-2.7615885416666663
 20
-0.2811197916666666
 30
0.0
 10
-2.7615885416666663
 20
0.2811197916666666
 30
0.0
 10
-2.7615885416666663
 20
0.2811197916666666
 30
0.0
  0
POLYLINE
  5
131
100
AcDbEntity
  8
レイヤー_1
 62
     7
100
AcDb2dPolyline
 66
     1
 10
0.0
 20
0.0
 30
0.0
 70
     1
  0
VERTEX
  5
132
100
AcDbEntity
  8
レイヤー_1
 62
     7
100
AcDbVertex
100
AcDb2dVertex
 10
-1.207161
 20
2.728516
 30
0.0
  0
VERTEX
  5
133
100
AcDbEntity
  8
レイヤー_1
 62
     7
100
AcDbVertex
100
AcDb2dVertex
 10
-2.10013
 20
2.728516
 30
0.0
  0
VERTEX
  5
134
100
AcDbEntity
  8
レイヤー_1
 62
     7
100
AcDbVertex
100
AcDb2dVertex
 10
-2.10013
 20
0.909505
 30
0.0
  0
VERTEX
  5
135
100
AcDbEntity
  8
レイヤー_1
 62
     7
100
AcDbVertex
100
AcDb2dVertex
 10
-1.207161
 20
0.909505
 30
0.0
  0
SEQEND
  5
136
100
AcDbEntity
  8
レイヤー_1
 62
     7
  0
SPLINE
  5
130
100
AcDbEntity
  8
レイヤー_1
 62
     7
100
AcDbSpline
210
0.0
220
0.0
230
1.0
 70
     8
 71
     3
 72
    20
 73
    16
 74
     0
 42
0.00000001
 43
0.00000001
 40
0.0
 40
0.0
 40
0.0
 40
0.0
 40
1.0
 40
1.0
 40
1.0
 40
2.0
 40
2.0
 40
2.0
 40
3.0
 40
3.0
 40
3.0
 40
4.0
 40
4.0
 40
4.0
 40
5.0
 40
5.0
 40
5.0
 40
5.0
 10
3.7207031249999996
 20
-0.7772135416666666
 30
0.0
 10
3.8309461805555554
 20
-0.8213107638888888
 30
0.0
 10
3.7758246527777772
 20
-0.8764322916666666
 30
0.0
 10
3.5553385416666665
 20
-0.9425781249999999
 30
0.0
 10
2.8277343749999999
 20
-2.0229600694444443
 30
0.0
 10
1.780425347222222
 20
-2.8277343749999999
 30
0.0
 10
0.4134114583333333
 20
-3.3569010416666663
 30
0.0
 10
0.4134114583333333
 20
-3.3569010416666663
 30
0.0
 10
0.0165364583333333
 20
-2.6292968749999996
 30
0.0
 10
0.0165364583333333
 20
-2.6292968749999996
 30
0.0
 10
1.4276475694444444
 20
-2.1001302083333333
 30
0.0
 10
2.4418836805555553
 20
-1.3063802083333331
 30
0.0
 10
3.0592447916666665
 20
-0.248046875
 30
0.0
 10
3.0592447916666665
 20
-0.248046875
 30
0.0
 10
3.7207031249999996
 20
-0.7772135416666666
 30
0.0
 10
3.7207031249999996
 20
-0.7772135416666666
 30
0.0
  0
SPLINE
  5
12F
100
AcDbEntity
  8
レイヤー_1
 62
     7
100
AcDbSpline
210
0.0
220
0.0
230
1.0
 70
     8
 71
     3
 72
    20
 73
    16
 74
     0
 42
0.00000001
 43
0.00000001
 40
0.0
 40
0.0
 40
0.0
 40
0.0
 40
1.0
 40
1.0
 40
1.0
 40
2.0
 40
2.0
 40
2.0
 40
3.0
 40
3.0
 40
3.0
 40
4.0
 40
4.0
 40
4.0
 40
5.0
 40
5.0
 40
5.0
 40
5.0
 10
0.2149739583333333
 20
-0.4464843749999999
 30
0.0
 10
1.4717447916666666
 20
0.1047309027777778
 30
0.0
 10
2.2875434027777777
 20
0.766189236111111
 30
0.0
 10
2.6623697916666664
 20
1.537890625
 30
0.0
 10
2.6623697916666664
 20
1.537890625
 30
0.0
 10
3.3238281249999999
 20
1.0087239583333332
 30
0.0
 10
3.3238281249999999
 20
1.0087239583333332
 30
0.0
 10
3.389973958333333
 20
0.9646267361111111
 30
0.0
 10
3.3348524305555554
 20
0.9205295138888888
 30
0.0
 10
3.1584635416666664
 20
0.8764322916666666
 30
0.0
 10
2.5411024305555552
 20
0.0165364583333333
 30
0.0
 10
1.7142795138888887
 20
-0.6669704861111111
 30
0.0
 10
0.6779947916666667
 20
-1.1740885416666667
 30
0.0
 10
0.6779947916666667
 20
-1.1740885416666667
 30
0.0
 10
0.2149739583333333
 20
-0.4464843749999999
 30
0.0
 10
0.2149739583333333
 20
-0.4464843749999999
 30
0.0
  0
SPLINE
  5
12E
100
AcDbEntity
  8
レイヤー_1
 62
     7
100
AcDbSpline
210
0.0
220
0.0
230
1.0
 70
     8
 71
     3
 72
    20
 73
    16
 74
     0
 42
0.00000001
 43
0.00000001
 40
0.0
 40
0.0
 40
0.0
 40
0.0
 40
1.0
 40
1.0
 40
1.0
 40
2.0
 40
2.0
 40
2.0
 40
3.0
 40
3.0
 40
3.0
 40
4.0
 40
4.0
 40
4.0
 40
5.0
 40
5.0
 40
5.0
 40
5.0
 10
0.248046875
 20
1.6040364583333331
 30
0.0
 10
1.3284288194444442
 20
2.1773003472222219
 30
0.0
 10
2.0450086805555552
 20
2.7946614583333331
 30
0.0
 10
2.397786458333333
 20
3.4561197916666662
 30
0.0
 10
2.397786458333333
 20
3.4561197916666662
 30
0.0
 10
3.0592447916666665
 20
2.9600260416666666
 30
0.0
 10
3.0592447916666665
 20
2.9600260416666666
 30
0.0
 10
3.1253906249999996
 20
2.9159288194444444
 30
0.0
 10
3.070269097222222
 20
2.8718315972222221
 30
0.0
 10
2.893880208333333
 20
2.8277343749999999
 30
0.0
 10
2.5190538194444443
 20
2.1883246527777778
 30
0.0
 10
1.780425347222222
 20
1.5599392361111111
 30
0.0
 10
0.6779947916666667
 20
0.9425781249999999
 30
0.0
 10
0.6779947916666667
 20
0.9425781249999999
 30
0.0
 10
0.248046875
 20
1.6040364583333331
 30
0.0
 10
0.248046875
 20
1.6040364583333331
 30
0.0
  0
ENDBLK
  5
138
100
AcDbEntity
  8
レイヤー_1
100
AcDbBlockEnd
  0
BLOCK
  5
13B
100
AcDbEntity
  8
レイヤー_1
 62
     7
100
AcDbBlockBegin
  2
AI9-BLK6
 70
     0
 10
0.0
 20
0.0
 30
0.0
  3
AI9-BLK6
  1

  0
SPLINE
  5
13E
100
AcDbEntity
  8
レイヤー_1
 62
     7
100
AcDbSpline
210
0.0
220
0.0
230
1.0
 70
     8
 71
     3
 72
    47
 73
    43
 74
     0
 42
0.00000001
 43
0.00000001
 40
0.0
 40
0.0
 40
0.0
 40
0.0
 40
1.0
 40
1.0
 40
1.0
 40
2.0
 40
2.0
 40
2.0
 40
3.0
 40
3.0
 40
3.0
 40
4.0
 40
4.0
 40
4.0
 40
5.0
 40
5.0
 40
5.0
 40
6.0
 40
6.0
 40
6.0
 40
7.0
 40
7.0
 40
7.0
 40
8.0
 40
8.0
 40
8.0
 40
9.0
 40
9.0
 40
9.0
 40
10.0
 40
10.0
 40
10.0
 40
11.0
 40
11.0
 40
11.0
 40
12.0
 40
12.0
 40
12.0
 40
13.0
 40
13.0
 40
13.0
 40
14.0
 40
14.0
 40
14.0
 40
14.0
 10
-3.3734374999999996
 20
-2.9104166666666664
 30
0.0
 10
-2.645833333333333
 20
-2.4473958333333332
 30
0.0
 10
-2.0064236111111109
 20
-1.7197916666666666
 30
0.0
 10
-1.4552083333333332
 20
-0.7276041666666666
 30
0.0
 10
-1.8961805555555553
 20
-0.3307291666666666
 30
0.0
 10
-2.2599826388888888
 20
-0.0440972222222222
 30
0.0
 10
-2.5466145833333331
 20
0.1322916666666666
 30
0.0
 10
-2.7009548611111107
 20
-0.2425347222222222
 30
0.0
 10
-2.9104166666666664
 20
-0.5842881944444444
 30
0.0
 10
-3.1749999999999998
 20
-0.8929687499999999
 30
0.0
 10
-3.1749999999999998
 20
-0.8929687499999999
 30
0.0
 10
-3.7703124999999997
 20
-0.4630208333333333
 30
0.0
 10
-3.7703124999999997
 20
-0.4630208333333333
 30
0.0
 10
-3.0427083333333331
 20
0.4409722222222222
 30
0.0
 10
-2.568663194444444
 20
1.6536458333333333
 30
0.0
 10
-2.3481770833333333
 20
3.1749999999999998
 30
0.0
 10
-2.3481770833333333
 20
3.1749999999999998
 30
0.0
 10
-1.6536458333333333
 20
2.9765624999999996
 30
0.0
 10
-1.6536458333333333
 20
2.9765624999999996
 30
0.0
 10
-1.5434027777777777
 20
2.8883680555555551
 30
0.0
 10
-1.5654513888888888
 20
2.8111979166666665
 30
0.0
 10
-1.7197916666666666
 20
2.7450520833333329
 30
0.0
 10
-1.7197916666666666
 20
2.7450520833333329
 30
0.0
 10
-1.8520833333333331
 20
2.1166666666666663
 30
0.0
 10
-1.8520833333333331
 20
2.1166666666666663
 30
0.0
 10
-1.8520833333333331
 20
2.1166666666666663
 30
0.0
 10
-0.5953124999999999
 20
2.1166666666666663
 30
0.0
 10
-0.5953124999999999
 20
2.1166666666666663
 30
0.0
 10
-0.5953124999999999
 20
2.1166666666666663
 30
0.0
 10
-0.4630208333333333
 20
2.2489583333333329
 30
0.0
 10
-0.4630208333333333
 20
2.2489583333333329
 30
0.0
 10
-0.4630208333333333
 20
2.2489583333333329
 30
0.0
 10
0.0
 20
1.8520833333333331
 30
0.0
 10
0.0
 20
1.8520833333333331
 30
0.0
 10
0.0661458333333333
 20
1.7859374999999997
 30
0.0
 10
0.0440972222222222
 20
1.7197916666666666
 30
0.0
 10
-0.0661458333333333
 20
1.6536458333333333
 30
0.0
 10
-0.396875
 20
-0.6835069444444444
 30
0.0
 10
-1.3559895833333333
 20
-2.403298611111111
 30
0.0
 10
-2.9434895833333332
 20
-3.5057291666666663
 30
0.0
 10
-2.9434895833333332
 20
-3.5057291666666663
 30
0.0
 10
-3.3734374999999996
 20
-2.9104166666666664
 30
0.0
 10
-3.3734374999999996
 20
-2.9104166666666664
 30
0.0
  0
SPLINE
  5
13D
100
AcDbEntity
  8
レイヤー_1
 62
     7
100
AcDbSpline
210
0.0
220
0.0
230
1.0
 70
     8
 71
     3
 72
    17
 73
    13
 74
     0
 42
0.00000001
 43
0.00000001
 40
0.0
 40
0.0
 40
0.0
 40
0.0
 40
1.0
 40
1.0
 40
1.0
 40
2.0
 40
2.0
 40
2.0
 40
3.0
 40
3.0
 40
3.0
 40
4.0
 40
4.0
 40
4.0
 40
4.0
 10
-0.7606770833333333
 20
1.4882812499999998
 30
0.0
 10
-0.7606770833333333
 20
1.4882812499999998
 30
0.0
 10
-2.0174479166666663
 20
1.4882812499999998
 30
0.0
 10
-2.0174479166666663
 20
1.4882812499999998
 30
0.0
 10
-2.0174479166666663
 20
1.4882812499999998
 30
0.0
 10
-2.2820312499999997
 20
0.7606770833333333
 30
0.0
 10
-2.2820312499999997
 20
0.7606770833333333
 30
0.0
 10
-1.9953993055555554
 20
0.5842881944444444
 30
0.0
 10
-1.6315972222222221
 20
0.3086805555555555
 30
0.0
 10
-1.1906249999999998
 20
-0.0661458333333333
 30
0.0
 10
-0.9921874999999999
 20
0.4409722222222222
 30
0.0
 10
-0.8488715277777778
 20
0.9591145833333332
 30
0.0
 10
-0.7606770833333333
 20
1.4882812499999998
 30
0.0
  0
SPLINE
  5
13C
100
AcDbEntity
  8
レイヤー_1
 62
     7
100
AcDbSpline
210
0.0
220
0.0
230
1.0
 70
     8
 71
     3
 72
    44
 73
    40
 74
     0
 42
0.00000001
 43
0.00000001
 40
0.0
 40
0.0
 40
0.0
 40
0.0
 40
1.0
 40
1.0
 40
1.0
 40
2.0
 40
2.0
 40
2.0
 40
3.0
 40
3.0
 40
3.0
 40
4.0
 40
4.0
 40
4.0
 40
5.0
 40
5.0
 40
5.0
 40
6.0
 40
6.0
 40
6.0
 40
7.0
 40
7.0
 40
7.0
 40
8.0
 40
8.0
 40
8.0
 40
9.0
 40
9.0
 40
9.0
 40
10.0
 40
10.0
 40
10.0
 40
11.0
 40
11.0
 40
11.0
 40
12.0
 40
12.0
 40
12.0
 40
13.0
 40
13.0
 40
13.0
 40
13.0
 10
3.2742187499999997
 20
-1.5213541666666666
 30
0.0
 10
2.6348090277777776
 20
-1.0803819444444442
 30
0.0
 10
2.1607638888888885
 20
-0.7165798611111111
 30
0.0
 10
1.8520833333333331
 20
-0.4299479166666667
 30
0.0
 10
1.8520833333333331
 20
-0.4299479166666667
 30
0.0
 10
1.8520833333333331
 20
-3.638020833333333
 30
0.0
 10
1.8520833333333331
 20
-3.638020833333333
 30
0.0
 10
1.8520833333333331
 20
-3.638020833333333
 30
0.0
 10
1.1906249999999998
 20
-3.638020833333333
 30
0.0
 10
1.1906249999999998
 20
-3.638020833333333
 30
0.0
 10
1.1906249999999998
 20
-3.638020833333333
 30
0.0
 10
1.1906249999999998
 20
0.2315104166666666
 30
0.0
 10
1.1906249999999998
 20
0.2315104166666666
 30
0.0
 10
0.7717013888888888
 20
0.7606770833333333
 30
0.0
 10
0.396875
 20
1.3118923611111111
 30
0.0
 10
0.0661458333333333
 20
1.8851562499999999
 30
0.0
 10
0.0661458333333333
 20
1.8851562499999999
 30
0.0
 10
0.5953124999999999
 20
2.2820312499999997
 30
0.0
 10
0.5953124999999999
 20
2.2820312499999997
 30
0.0
 10
0.79375
 20
1.9292534722222221
 30
0.0
 10
0.9921874999999999
 20
1.6205729166666665
 30
0.0
 10
1.1906249999999998
 20
1.3559895833333333
 30
0.0
 10
1.1906249999999998
 20
1.3559895833333333
 30
0.0
 10
1.1906249999999998
 20
3.638020833333333
 30
0.0
 10
1.1906249999999998
 20
3.638020833333333
 30
0.0
 10
1.1906249999999998
 20
3.638020833333333
 30
0.0
 10
1.8190104166666665
 20
3.638020833333333
 30
0.0
 10
1.8190104166666665
 20
3.638020833333333
 30
0.0
 10
1.9953993055555554
 20
3.6159722222222217
 30
0.0
 10
2.0064236111111109
 20
3.5498263888888886
 30
0.0
 10
1.8520833333333331
 20
3.4395833333333332
 30
0.0
 10
1.8520833333333331
 20
3.4395833333333332
 30
0.0
 10
1.8520833333333331
 20
0.5953124999999999
 30
0.0
 10
1.8520833333333331
 20
0.5953124999999999
 30
0.0
 10
2.0064236111111109
 20
0.2866319444444444
 30
0.0
 10
2.645833333333333
 20
-0.1984375
 30
0.0
 10
3.7703124999999997
 20
-0.8598958333333333
 30
0.0
 10
3.7703124999999997
 20
-0.8598958333333333
 30
0.0
 10
3.2742187499999997
 20
-1.5213541666666666
 30
0.0
 10
3.2742187499999997
 20
-1.5213541666666666
 30
0.0
  0
ENDBLK
  5
13F
100
AcDbEntity
  8
レイヤー_1
100
AcDbBlockEnd
  0
ENDSEC
  0
SECTION
  2
ENTITIES
  0
INSERT
  5
104
100
AcDbEntity
  8
レイヤー_1
 62
     7
100
AcDbBlockReference
  2
AI9-BLK1
 10
34.082846
 20
279.191744
 30
0.0
  0
LINE
  5
102
100
AcDbEntity
  8
レイヤー_1
 62
     7
100
AcDbLine
 10
11.199144
 20
285.833199
 30
0.0
 11
203.110083
 21
285.833199
 31
0.0
  0
LINE
  5
101
100
AcDbEntity
  8
レイヤー_1
 62
     7
100
AcDbLine
 10
11.199144
 20
273.304765
 30
0.0
 11
203.110428
 21
273.304765
 31
0.0
  0
LINE
  5
100
100
AcDbEntity
  8
レイヤー_1
 62
     7
100
AcDbLine
 10
70.818933
 20
279.898678
 30
0.0
 11
148.429872
 21
279.898678
 31
0.0
  0
MTEXT
  5
FF
100
AcDbEntity
  8
レイヤー_1
 62
     7
100
AcDbMText
 10
166.774316
 20
282.372396
 30
0.0
 40
5.774636
 41
0.0
 71
     1
 72
     2
  1
OS-10PR
  7
STD
210
0.0
220
0.0
230
1.0
 11
1.000001
 21
0.0
 31
0.0
  0
MTEXT
  5
FE
100
AcDbEntity
  8
レイヤー_1
 62
     7
100
AcDbMText
 10
95.513378
 20
285.030828
 30
0.0
 40
4.199735
 41
0.0
 71
     1
 72
     2
  1
回帰ミラー
  7
KANJISTD
210
0.0
220
0.0
230
1.0
 11
1.000001
 21
0.0
 31
0.0
  0
MTEXT
  5
FD
100
AcDbEntity
  8
レイヤー_1
 62
     7
100
AcDbMText
 10
74.346711
 20
278.680828
 30
0.0
 40
4.199735
 41
0.0
 71
     1
 72
     2
  1
ワンプッシュプレート(鏡面)
  7
KANJISTD
210
0.0
220
0.0
230
1.0
 11
1.000001
 21
0.0
 31
0.0
  0
LINE
  5
FC
100
AcDbEntity
  8
レイヤー_1
 62
     7
100
AcDbLine
 10
101.253596
 20
197.423264
 30
0.0
 11
101.253596
 21
197.423264
 31
0.0
  0
SPLINE
  5
FB
100
AcDbEntity
  8
レイヤー_1
 62
     7
100
AcDbSpline
210
0.0
220
0.0
230
1.0
 70
     8
 71
     3
 72
    20
 73
    16
 74
     0
 42
0.00000001
 43
0.00000001
 40
0.0
 40
0.0
 40
0.0
 40
0.0
 40
1.0
 40
1.0
 40
1.0
 40
2.0
 40
2.0
 40
2.0
 40
3.0
 40
3.0
 40
3.0
 40
4.0
 40
4.0
 40
4.0
 40
5.0
 40
5.0
 40
5.0
 40
5.0
 10
105.23802083333332
 20
158.79547526041665
 30
0.0
 10
105.23802083333332
 20
174.39624565972221
 30
0.0
 10
117.81055230034721
 20
186.87644856770831
 30
0.0
 10
133.52742241753472
 20
186.87644856770831
 30
0.0
 10
149.24325900607639
 20
186.87644856770831
 30
0.0
 10
161.81613498263889
 20
174.39624565972221
 30
0.0
 10
161.81613498263889
 20
158.79547526041665
 30
0.0
 10
161.81613498263889
 20
143.19470486111109
 30
0.0
 10
149.24325900607639
 20
130.71450195312499
 30
0.0
 10
133.52742241753472
 20
130.71450195312499
 30
0.0
 10
117.81055230034721
 20
130.71450195312499
 30
0.0
 10
105.23802083333332
 20
143.19470486111109
 30
0.0
 10
105.23802083333332
 20
158.79547526041665
 30
0.0
 10
105.23802083333332
 20
158.79547526041665
 30
0.0
 10
105.23802083333332
 20
158.79547526041665
 30
0.0
 10
105.23802083333332
 20
158.79547526041665
 30
0.0
  0
SPLINE
  5
FA
100
AcDbEntity
  8
レイヤー_1
 62
     7
100
AcDbSpline
210
0.0
220
0.0
230
1.0
 70
     8
 71
     3
 72
    20
 73
    16
 74
     0
 42
0.00000001
 43
0.00000001
 40
0.0
 40
0.0
 40
0.0
 40
0.0
 40
1.0
 40
1.0
 40
1.0
 40
2.0
 40
2.0
 40
2.0
 40
3.0
 40
3.0
 40
3.0
 40
4.0
 40
4.0
 40
4.0
 40
5.0
 40
5.0
 40
5.0
 40
5.0
 10
116.39392903645832
 20
158.79547526041665
 30
0.0
 10
116.39392903645832
 20
168.39006618923611
 30
0.0
 10
124.06753472222221
 20
176.06573893229165
 30
0.0
 10
133.66005859374999
 20
176.06573893229165
 30
0.0
 10
143.25223795572916
 20
176.06573893229165
 30
0.0
 10
150.92549913194443
 20
168.39006618923611
 30
0.0
 10
150.92549913194443
 20
158.79547526041665
 30
0.0
 10
150.92549913194443
 20
149.20088433159722
 30
0.0
 10
143.25223795572916
 20
141.52521158854165
 30
0.0
 10
133.66005859374999
 20
141.52521158854165
 30
0.0
 10
124.06753472222221
 20
141.52521158854165
 30
0.0
 10
116.39392903645832
 20
149.20088433159722
 30
0.0
 10
116.39392903645832
 20
158.79547526041665
 30
0.0
 10
116.39392903645832
 20
158.79547526041665
 30
0.0
 10
116.39392903645832
 20
158.79547526041665
 30
0.0
 10
116.39392903645832
 20
158.79547526041665
 30
0.0
  0
LINE
  5
F9
100
AcDbEntity
  8
レイヤー_1
 62
     7
100
AcDbLine
 10
133.660059
 20
99.073711
 30
0.0
 11
112.144059
 21
99.073711
 31
0.0
  0
LINE
  5
F8
100
AcDbEntity
  8
レイヤー_1
 62
     7
100
AcDbLine
 10
111.612826
 20
99.073711
 30
0.0
 11
111.878787
 21
99.073711
 31
0.0
  0
LINE
  5
F7
100
AcDbEntity
  8
レイヤー_1
 62
     7
100
AcDbLine
 10
111.878787
 20
99.073711
 30
0.0
 11
112.144059
 21
99.073711
 31
0.0
  0
LINE
  5
F6
100
AcDbEntity
  8
レイヤー_1
 62
     7
100
AcDbLine
 10
155.440986
 20
91.427322
 30
0.0
 11
133.660059
 21
91.427322
 31
0.0
  0
LINE
  5
F5
100
AcDbEntity
  8
レイヤー_1
 62
     7
100
AcDbLine
 10
150.925499
 20
99.073711
 30
0.0
 11
150.925499
 21
91.427322
 31
0.0
  0
LINE
  5
F4
100
AcDbEntity
  8
レイヤー_1
  6
AI9-LTYPE1
 62
     7
100
AcDbLine
 10
103.378703
 20
158.927078
 30
0.0
 11
166.649948
 21
158.927078
 31
0.0
  0
LINE
  5
F3
100
AcDbEntity
  8
レイヤー_1
  6
AI9-LTYPE1
 62
     7
100
AcDbLine
 10
133.660059
 20
126.663414
 30
0.0
 11
133.660059
 21
187.931337
 31
0.0
  0
LINE
  5
F2
100
AcDbEntity
  8
レイヤー_1
  6
AI9-LTYPE1
 62
     7
100
AcDbLine
 10
133.660059
 20
89.58144
 30
0.0
 11
133.660059
 21
100.914426
 31
0.0
  0
SPLINE
  5
F0
100
AcDbEntity
  8
レイヤー_1
 62
     7
100
AcDbSpline
210
0.0
220
0.0
230
1.0
 70
     8
 71
     3
 72
    20
 73
    16
 74
     0
 42
0.00000001
 43
0.00000001
 40
0.0
 40
0.0
 40
0.0
 40
0.0
 40
1.0
 40
1.0
 40
1.0
 40
2.0
 40
2.0
 40
2.0
 40
3.0
 40
3.0
 40
3.0
 40
4.0
 40
4.0
 40
4.0
 40
5.0
 40
5.0
 40
5.0
 40
5.0
 10
114.80022786458332
 20
158.79547526041665
 30
0.0
 10
114.80022786458332
 20
169.12249348958332
 30
0.0
 10
123.12357855902776
 20
177.38452148437497
 30
0.0
 10
133.52742241753472
 20
177.38452148437497
 30
0.0
 10
143.93092176649304
 20
177.38452148437497
 30
0.0
 10
152.25358344184028
 20
169.12249348958332
 30
0.0
 10
152.25358344184028
 20
158.79547526041665
 30
0.0
 10
152.25358344184028
 20
148.46845703124998
 30
0.0
 10
143.93092176649304
 20
140.20677354600693
 30
0.0
 10
133.52742241753472
 20
140.20677354600693
 30
0.0
 10
123.12357855902776
 20
140.20677354600693
 30
0.0
 10
114.80022786458332
 20
148.46845703124998
 30
0.0
 10
114.80022786458332
 20
158.79547526041665
 30
0.0
 10
114.80022786458332
 20
158.79547526041665
 30
0.0
 10
114.80022786458332
 20
158.79547526041665
 30
0.0
 10
114.80022786458332
 20
158.79547526041665
 30
0.0
  0
LINE
  5
EF
100
AcDbEntity
  8
レイヤー_1
 62
     7
100
AcDbLine
 10
156.237836
 20
99.073711
 30
0.0
 11
111.081592
 21
99.073711
 31
0.0
  0
POLYLINE
  5
E9
100
AcDbEntity
  8
レイヤー_1
 62
     7
100
AcDb2dPolyline
 66
     1
 10
0.0
 20
0.0
 30
0.0
  0
VERTEX
  5
EA
100
AcDbEntity
  8
レイヤー_1
 62
     7
100
AcDbVertex
100
AcDb2dVertex
 10
111.081592
 20
99.073711
 30
0.0
  0
VERTEX
  5
EB
100
AcDbEntity
  8
レイヤー_1
 62
     7
100
AcDbVertex
100
AcDb2dVertex
 10
105.238021
 20
95.382292
 30
0.0
  0
VERTEX
  5
EC
100
AcDbEntity
  8
レイヤー_1
 62
     7
100
AcDbVertex
100
AcDb2dVertex
 10
105.238021
 20
91.427322
 30
0.0
  0
VERTEX
  5
ED
100
AcDbEntity
  8
レイヤー_1
 62
     7
100
AcDbVertex
100
AcDb2dVertex
 10
133.660059
 20
91.427322
 30
0.0
  0
SEQEND
  5
EE
100
AcDbEntity
  8
レイヤー_1
 62
     7
  0
LINE
  5
E8
100
AcDbEntity
  8
レイヤー_1
 62
     7
100
AcDbLine
 10
133.660059
 20
95.382292
 30
0.0
 11
106.576096
 21
95.382292
 31
0.0
  0
POLYLINE
  5
E2
100
AcDbEntity
  8
レイヤー_1
 62
     7
100
AcDb2dPolyline
 66
     1
 10
0.0
 20
0.0
 30
0.0
 70
     1
  0
VERTEX
  5
E3
100
AcDbEntity
  8
レイヤー_1
 62
     7
100
AcDbVertex
100
AcDb2dVertex
 10
146.144051
 20
172.638213
 30
0.0
  0
VERTEX
  5
E4
100
AcDbEntity
  8
レイヤー_1
 62
     7
100
AcDbVertex
100
AcDb2dVertex
 10
146.941246
 20
174.220201
 30
0.0
  0
VERTEX
  5
E5
100
AcDbEntity
  8
レイヤー_1
 62
     7
100
AcDbVertex
100
AcDb2dVertex
 10
147.47248
 20
173.429207
 30
0.0
  0
VERTEX
  5
E6
100
AcDbEntity
  8
レイヤー_1
 62
     7
100
AcDbVertex
100
AcDb2dVertex
 10
146.144051
 20
172.638213
 30
0.0
  0
SEQEND
  5
E7
100
AcDbEntity
  8
レイヤー_1
 62
     7
  0
LINE
  5
E1
100
AcDbEntity
  8
レイヤー_1
 62
     7
100
AcDbLine
 10
146.941246
 20
173.429207
 30
0.0
 11
163.941414
 21
192.6773
 31
0.0
  0
LINE
  5
E0
100
AcDbEntity
  8
レイヤー_1
 62
     7
100
AcDbLine
 10
163.941414
 20
192.6773
 30
0.0
 11
182.683078
 21
192.6773
 31
0.0
  0
MTEXT
  5
DF
100
AcDbEntity
  8
レイヤー_1
 62
     7
100
AcDbMText
 10
29.896711
 20
230.74928
 30
0.0
 40
3.674769
 41
0.0
 71
     1
 72
     2
  1
回帰ミラー
  7
KANJISTD
210
0.0
220
0.0
230
1.0
 11
1.000001
 21
0.0
 31
0.0
  0
MTEXT
  5
DE
100
AcDbEntity
  8
レイヤー_1
 62
     7
100
AcDbMText
 10
109.271539
 20
230.74928
 30
0.0
 40
3.674769
 41
0.0
 71
     1
 72
     2
  1
ワンプッシュプレート
  7
KANJISTD
210
0.0
220
0.0
230
1.0
 11
1.000001
 21
0.0
 31
0.0
  0
MTEXT
  5
DD
100
AcDbEntity
  8
レイヤー_1
 62
     7
100
AcDbMText
 10
163.079107
 20
197.745676
 30
0.0
 40
3.149802
 41
0.0
 71
     1
 72
     2
  1
M10×0.75
  7
KANJISTD
210
0.0
220
0.0
230
1.0
 11
1.000001
 21
0.0
 31
0.0
  0
POLYLINE
  5
D4
100
AcDbEntity
  8
レイヤー_1
 62
     7
100
AcDb2dPolyline
 66
     1
 10
0.0
 20
0.0
 30
0.0
 70
     1
  0
VERTEX
  5
D5
100
AcDbEntity
  8
レイヤー_1
 62
     7
100
AcDbVertex
100
AcDb2dVertex
 10
156.196495
 20
99.073711
 30
0.0
  0
VERTEX
  5
D6
100
AcDbEntity
  8
レイヤー_1
 62
     7
100
AcDbVertex
100
AcDb2dVertex
 10
150.925499
 20
99.065788
 30
0.0
  0
VERTEX
  5
D7
100
AcDbEntity
  8
レイヤー_1
 62
     7
100
AcDbVertex
100
AcDb2dVertex
 10
150.925499
 20
91.419398
 30
0.0
  0
VERTEX
  5
D8
100
AcDbEntity
  8
レイヤー_1
 62
     7
100
AcDbVertex
100
AcDb2dVertex
 10
156.248172
 20
91.419398
 30
0.0
  0
VERTEX
  5
D9
100
AcDbEntity
  8
レイヤー_1
 62
     7
100
AcDbVertex
100
AcDb2dVertex
 10
156.248172
 20
93.79238
 30
0.0
  0
VERTEX
  5
DA
100
AcDbEntity
  8
レイヤー_1
 62
     7
100
AcDbVertex
100
AcDb2dVertex
 10
161.816135
 20
93.79238
 30
0.0
  0
VERTEX
  5
DB
100
AcDbEntity
  8
レイヤー_1
 62
     7
100
AcDbVertex
100
AcDb2dVertex
 10
161.816135
 20
95.233808
 30
0.0
  0
SEQEND
  5
DC
100
AcDbEntity
  8
レイヤー_1
 62
     7
  0
LINE
  5
D3
100
AcDbEntity
  8
レイヤー_1
 62
     7
100
AcDbLine
 10
155.670429
 20
99.073022
 30
0.0
 11
178.070095
 21
99.073022
 31
0.0
  0
LINE
  5
D2
100
AcDbEntity
  8
レイヤー_1
 62
     7
100
AcDbLine
 10
155.918821
 20
91.252311
 30
0.0
 11
178.070095
 21
91.252311
 31
0.0
  0
LINE
  5
D1
100
AcDbEntity
  8
レイヤー_1
 62
     7
100
AcDbLine
 10
174.542318
 20
102.6008
 30
0.0
 11
174.542318
 21
87.724533
 31
0.0
  0
POLYLINE
  5
CC
100
AcDbEntity
  8
レイヤー_1
 62
     7
100
AcDb2dPolyline
 66
     1
 10
0.0
 20
0.0
 30
0.0
  0
VERTEX
  5
CD
100
AcDbEntity
  8
レイヤー_1
 62
     7
100
AcDbVertex
100
AcDb2dVertex
 10
173.629712
 20
102.480566
 30
0.0
  0
VERTEX
  5
CE
100
AcDbEntity
  8
レイヤー_1
 62
     7
100
AcDbVertex
100
AcDb2dVertex
 10
174.542318
 20
99.073022
 30
0.0
  0
VERTEX
  5
CF
100
AcDbEntity
  8
レイヤー_1
 62
     7
100
AcDbVertex
100
AcDb2dVertex
 10
175.455268
 20
102.480566
 30
0.0
  0
SEQEND
  5
D0
100
AcDbEntity
  8
レイヤー_1
 62
     7
  0
POLYLINE
  5
C7
100
AcDbEntity
  8
レイヤー_1
 62
     7
100
AcDb2dPolyline
 66
     1
 10
0.0
 20
0.0
 30
0.0
  0
VERTEX
  5
C8
100
AcDbEntity
  8
レイヤー_1
 62
     7
100
AcDbVertex
100
AcDb2dVertex
 10
175.455268
 20
87.844767
 30
0.0
  0
VERTEX
  5
C9
100
AcDbEntity
  8
レイヤー_1
 62
     7
100
AcDbVertex
100
AcDb2dVertex
 10
174.542318
 20
91.252311
 30
0.0
  0
VERTEX
  5
CA
100
AcDbEntity
  8
レイヤー_1
 62
     7
100
AcDbVertex
100
AcDb2dVertex
 10
173.629712
 20
87.844767
 30
0.0
  0
SEQEND
  5
CB
100
AcDbEntity
  8
レイヤー_1
 62
     7
  0
MTEXT
  5
C6
100
AcDbEntity
  8
レイヤー_1
 62
     7
100
AcDbMText
 10
170.191211
 20
91.987495
 30
0.0
 40
3.149802
 41
0.0
 71
     1
 72
     2
  1
2.3
  7
STD
210
0.0
220
0.0
230
1.0
 11
0.0
 21
1.0
 31
0.0
  0
LINE
  5
C5
100
AcDbEntity
  8
レイヤー_1
 62
     7
100
AcDbLine
 10
105.238021
 20
95.382292
 30
0.0
 11
105.238021
 21
117.494982
 31
0.0
  0
LINE
  5
C4
100
AcDbEntity
  8
レイヤー_1
 62
     7
100
AcDbLine
 10
161.816135
 20
95.233808
 30
0.0
 11
161.816135
 21
117.494982
 31
0.0
  0
LINE
  5
C3
100
AcDbEntity
  8
レイヤー_1
 62
     7
100
AcDbLine
 10
105.238021
 20
113.967204
 30
0.0
 11
161.816135
 21
113.967204
 31
0.0
  0
POLYLINE
  5
BE
100
AcDbEntity
  8
レイヤー_1
 62
     7
100
AcDb2dPolyline
 66
     1
 10
0.0
 20
0.0
 30
0.0
  0
VERTEX
  5
BF
100
AcDbEntity
  8
レイヤー_1
 62
     7
100
AcDbVertex
100
AcDb2dVertex
 10
108.645909
 20
114.880154
 30
0.0
  0
VERTEX
  5
C0
100
AcDbEntity
  8
レイヤー_1
 62
     7
100
AcDbVertex
100
AcDb2dVertex
 10
105.238021
 20
113.967204
 30
0.0
  0
VERTEX
  5
C1
100
AcDbEntity
  8
レイヤー_1
 62
     7
100
AcDbVertex
100
AcDb2dVertex
 10
108.645909
 20
113.054253
 30
0.0
  0
SEQEND
  5
C2
100
AcDbEntity
  8
レイヤー_1
 62
     7
  0
POLYLINE
  5
B9
100
AcDbEntity
  8
レイヤー_1
 62
     7
100
AcDb2dPolyline
 66
     1
 10
0.0
 20
0.0
 30
0.0
  0
VERTEX
  5
BA
100
AcDbEntity
  8
レイヤー_1
 62
     7
100
AcDbVertex
100
AcDb2dVertex
 10
158.408936
 20
113.054253
 30
0.0
  0
VERTEX
  5
BB
100
AcDbEntity
  8
レイヤー_1
 62
     7
100
AcDbVertex
100
AcDb2dVertex
 10
161.816135
 20
113.967204
 30
0.0
  0
VERTEX
  5
BC
100
AcDbEntity
  8
レイヤー_1
 62
     7
100
AcDbVertex
100
AcDb2dVertex
 10
158.408936
 20
114.880154
 30
0.0
  0
SEQEND
  5
BD
100
AcDbEntity
  8
レイヤー_1
 62
     7
  0
MTEXT
  5
B8
100
AcDbEntity
  8
レイヤー_1
 62
     7
100
AcDbMText
 10
129.294089
 20
117.822561
 30
0.0
 40
3.149802
 41
0.0
 71
     1
 72
     2
  1
φ15
  7
KANJISTD
210
0.0
220
0.0
230
1.0
 11
1.000001
 21
0.0
 31
0.0
  0
LINE
  5
B7
100
AcDbEntity
  8
レイヤー_1
 62
     7
100
AcDbLine
 10
111.081592
 20
99.073711
 30
0.0
 11
111.081592
 21
110.909682
 31
0.0
  0
LINE
  5
B6
100
AcDbEntity
  8
レイヤー_1
 62
     7
100
AcDbLine
 10
156.196495
 20
99.073711
 30
0.0
 11
156.196495
 21
110.909682
 31
0.0
  0
LINE
  5
B5
100
AcDbEntity
  8
レイヤー_1
 62
     7
100
AcDbLine
 10
111.081592
 20
107.381904
 30
0.0
 11
156.196495
 21
107.381904
 31
0.0
  0
POLYLINE
  5
B0
100
AcDbEntity
  8
レイヤー_1
 62
     7
100
AcDb2dPolyline
 66
     1
 10
0.0
 20
0.0
 30
0.0
  0
VERTEX
  5
B1
100
AcDbEntity
  8
レイヤー_1
 62
     7
100
AcDbVertex
100
AcDb2dVertex
 10
114.48948
 20
108.294854
 30
0.0
  0
VERTEX
  5
B2
100
AcDbEntity
  8
レイヤー_1
 62
     7
100
AcDbVertex
100
AcDb2dVertex
 10
111.081592
 20
107.381904
 30
0.0
  0
VERTEX
  5
B3
100
AcDbEntity
  8
レイヤー_1
 62
     7
100
AcDbVertex
100
AcDb2dVertex
 10
114.48948
 20
106.468953
 30
0.0
  0
SEQEND
  5
B4
100
AcDbEntity
  8
レイヤー_1
 62
     7
  0
POLYLINE
  5
AB
100
AcDbEntity
  8
レイヤー_1
 62
     7
100
AcDb2dPolyline
 66
     1
 10
0.0
 20
0.0
 30
0.0
  0
VERTEX
  5
AC
100
AcDbEntity
  8
レイヤー_1
 62
     7
100
AcDbVertex
100
AcDb2dVertex
 10
152.789296
 20
106.468953
 30
0.0
  0
VERTEX
  5
AD
100
AcDbEntity
  8
レイヤー_1
 62
     7
100
AcDbVertex
100
AcDb2dVertex
 10
156.196495
 20
107.381904
 30
0.0
  0
VERTEX
  5
AE
100
AcDbEntity
  8
レイヤー_1
 62
     7
100
AcDbVertex
100
AcDb2dVertex
 10
152.789296
 20
108.294854
 30
0.0
  0
SEQEND
  5
AF
100
AcDbEntity
  8
レイヤー_1
 62
     7
  0
MTEXT
  5
AA
100
AcDbEntity
  8
レイヤー_1
 62
     7
100
AcDbMText
 10
129.406055
 20
111.237261
 30
0.0
 40
3.149802
 41
0.0
 71
     1
 72
     2
  1
φ12
  7
KANJISTD
210
0.0
220
0.0
230
1.0
 11
1.000001
 21
0.0
 31
0.0
  0
SPLINE
  5
A9
100
AcDbEntity
  8
レイヤー_1
 62
     7
100
AcDbSpline
210
0.0
220
0.0
230
1.0
 70
     8
 71
     3
 72
    11
 73
     7
 74
     0
 42
0.00000001
 43
0.00000001
 40
0.0
 40
0.0
 40
0.0
 40
0.0
 40
1.0
 40
1.0
 40
1.0
 40
2.0
 40
2.0
 40
2.0
 40
2.0
 10
49.42867974175347
 20
200.65131835937498
 30
0.0
 10
49.42867974175347
 20
201.12398546006943
 30
0.0
 10
49.261248101128466
 20
201.58149414062498
 30
0.0
 10
48.956012641059026
 20
201.94254014756942
 30
0.0
 10
48.65112169053819
 20
202.30358615451388
 30
0.0
 10
48.228063964843749
 20
202.54474283854165
 30
0.0
 10
47.761942545572914
 20
202.62329101562497
 30
0.0
  0
LINE
  5
A8
100
AcDbEntity
  8
レイヤー_1
 62
     7
100
AcDbLine
 10
20.928611
 20
81.83342
 30
0.0
 11
20.928611
 21
200.651318
 31
0.0
  0
LINE
  5
A7
100
AcDbEntity
  8
レイヤー_1
 62
     7
100
AcDbLine
 10
21.178552
 20
200.651318
 30
0.0
 11
21.178552
 21
81.83342
 31
0.0
  0
LINE
  5
A6
100
AcDbEntity
  8
レイヤー_1
 62
     7
100
AcDbLine
 10
19.428616
 20
81.83342
 30
0.0
 11
19.428616
 21
200.651318
 31
0.0
  0
LINE
  5
A5
100
AcDbEntity
  8
レイヤー_1
 62
     7
100
AcDbLine
 10
47.928685
 20
200.651318
 30
0.0
 11
47.928685
 21
81.83342
 31
0.0
  0
LINE
  5
A4
100
AcDbEntity
  8
レイヤー_1
 62
     7
100
AcDbLine
 10
47.678571
 20
200.651318
 30
0.0
 11
47.678571
 21
81.83342
 31
0.0
  0
LINE
  5
A3
100
AcDbEntity
  8
レイヤー_1
 62
     7
100
AcDbLine
 10
49.42868
 20
200.651318
 30
0.0
 11
49.42868
 21
81.83342
 31
0.0
  0
SPLINE
  5
A2
100
AcDbEntity
  8
レイヤー_1
 62
     7
100
AcDbSpline
210
0.0
220
0.0
230
1.0
 70
     8
 71
     3
 72
    11
 73
     7
 74
     0
 42
0.00000001
 43
0.00000001
 40
0.0
 40
0.0
 40
0.0
 40
0.0
 40
1.0
 40
1.0
 40
1.0
 40
2.0
 40
2.0
 40
2.0
 40
2.0
 10
21.178552246093748
 20
81.833420138888883
 30
0.0
 10
21.178552246093748
 20
81.774164496527774
 30
0.0
 10
21.199567328559027
 20
81.71697591145832
 30
0.0
 10
21.237635633680554
 20
81.672189670138877
 30
0.0
 10
21.275703938802081
 20
81.626714409722211
 30
0.0
 10
21.328758409288191
 20
81.596742078993046
 30
0.0
 10
21.386980523003469
 20
81.586751302083329
 30
0.0
  0
SPLINE
  5
A1
100
AcDbEntity
  8
レイヤー_1
 62
     7
100
AcDbSpline
210
0.0
220
0.0
230
1.0
 70
     8
 71
     3
 72
    11
 73
     7
 74
     0
 42
0.00000001
 43
0.00000001
 40
0.0
 40
0.0
 40
0.0
 40
0.0
 40
1.0
 40
1.0
 40
1.0
 40
2.0
 40
2.0
 40
2.0
 40
2.0
 10
19.428615993923611
 20
81.833420138888883
 30
0.0
 10
19.428615993923611
 20
81.360753038194431
 30
0.0
 10
19.595875379774302
 20
80.903244357638883
 30
0.0
 10
19.901110839843749
 20
80.542198350694434
 30
0.0
 10
20.206174045138887
 20
80.181496853298597
 30
0.0
 10
20.629231770833332
 20
79.939995659722214
 30
0.0
 10
21.095180935329861
 20
79.86144748263888
 30
0.0
  0
SPLINE
  5
A0
100
AcDbEntity
  8
レイヤー_1
 62
     7
100
AcDbSpline
210
0.0
220
0.0
230
1.0
 70
     8
 71
     3
 72
    11
 73
     7
 74
     0
 42
0.00000001
 43
0.00000001
 40
0.0
 40
0.0
 40
0.0
 40
0.0
 40
1.0
 40
1.0
 40
1.0
 40
2.0
 40
2.0
 40
2.0
 40
2.0
 10
20.928610568576389
 20
81.833420138888883
 30
0.0
 10
20.928610568576389
 20
81.715253363715277
 30
0.0
 10
20.970468478732638
 20
81.600876193576383
 30
0.0
 10
21.046605088975692
 20
81.510614691840274
 30
0.0
 10
21.123086208767358
 20
81.420697699652777
 30
0.0
 10
21.22885064019097
 20
81.360064019097209
 30
0.0
 10
21.345294867621526
 20
81.340426974826386
 30
0.0
  0
SPLINE
  5
9F
100
AcDbEntity
  8
レイヤー_1
 62
     7
100
AcDbSpline
210
0.0
220
0.0
230
1.0
 70
     8
 71
     3
 72
    11
 73
     7
 74
     0
 42
0.00000001
 43
0.00000001
 40
0.0
 40
0.0
 40
0.0
 40
0.0
 40
1.0
 40
1.0
 40
1.0
 40
2.0
 40
2.0
 40
2.0
 40
2.0
 10
21.345294867621526
 20
201.14465603298609
 30
0.0
 10
21.22885064019097
 20
201.12467447916666
 30
0.0
 10
21.123086208767358
 20
201.06472981770833
 30
0.0
 10
21.046605088975692
 20
200.97412380642359
 30
0.0
 10
20.970468478732638
 20
200.88420681423608
 30
0.0
 10
20.928610568576389
 20
200.7698296440972
 30
0.0
 10
20.928610568576389
 20
200.65131835937498
 30
0.0
  0
SPLINE
  5
9E
100
AcDbEntity
  8
レイヤー_1
 62
     7
100
AcDbSpline
210
0.0
220
0.0
230
1.0
 70
     8
 71
     3
 72
    11
 73
     7
 74
     0
 42
0.00000001
 43
0.00000001
 40
0.0
 40
0.0
 40
0.0
 40
0.0
 40
1.0
 40
1.0
 40
1.0
 40
2.0
 40
2.0
 40
2.0
 40
2.0
 10
21.386980523003469
 20
200.89798719618054
 30
0.0
 10
21.328758409288191
 20
200.88834092881942
 30
0.0
 10
21.275703938802081
 20
200.85802408854164
 30
0.0
 10
21.237635633680554
 20
200.81289333767359
 30
0.0
 10
21.199567328559027
 20
200.76776258680553
 30
0.0
 10
21.178552246093748
 20
200.71057400173609
 30
0.0
 10
21.178552246093748
 20
200.65131835937498
 30
0.0
  0
SPLINE
  5
9D
100
AcDbEntity
  8
レイヤー_1
 62
     7
100
AcDbSpline
210
0.0
220
0.0
230
1.0
 70
     8
 71
     3
 72
    11
 73
     7
 74
     0
 42
0.00000001
 43
0.00000001
 40
0.0
 40
0.0
 40
0.0
 40
0.0
 40
1.0
 40
1.0
 40
1.0
 40
2.0
 40
2.0
 40
2.0
 40
2.0
 10
21.095180935329861
 20
202.62329101562497
 30
0.0
 10
20.629231770833332
 20
202.54474283854165
 30
0.0
 10
20.206174045138887
 20
202.30358615451388
 30
0.0
 10
19.901110839843749
 20
201.94254014756942
 30
0.0
 10
19.595875379774302
 20
201.58149414062498
 30
0.0
 10
19.428615993923611
 20
201.12398546006943
 30
0.0
 10
19.428615993923611
 20
200.65131835937498
 30
0.0
  0
SPLINE
  5
9C
100
AcDbEntity
  8
レイヤー_1
 62
     7
100
AcDbSpline
210
0.0
220
0.0
230
1.0
 70
     8
 71
     3
 72
    11
 73
     7
 74
     0
 42
0.00000001
 43
0.00000001
 40
0.0
 40
0.0
 40
0.0
 40
0.0
 40
1.0
 40
1.0
 40
1.0
 40
2.0
 40
2.0
 40
2.0
 40
2.0
 10
47.761942545572914
 20
79.86144748263888
 30
0.0
 10
48.228063964843749
 20
79.939995659722214
 30
0.0
 10
48.65112169053819
 20
80.181496853298597
 30
0.0
 10
48.956012641059026
 20
80.542198350694434
 30
0.0
 10
49.261248101128466
 20
80.903244357638883
 30
0.0
 10
49.42867974175347
 20
81.360753038194431
 30
0.0
 10
49.42867974175347
 20
81.833420138888883
 30
0.0
  0
SPLINE
  5
9B
100
AcDbEntity
  8
レイヤー_1
 62
     7
100
AcDbSpline
210
0.0
220
0.0
230
1.0
 70
     8
 71
     3
 72
    11
 73
     7
 74
     0
 42
0.00000001
 43
0.00000001
 40
0.0
 40
0.0
 40
0.0
 40
0.0
 40
1.0
 40
1.0
 40
1.0
 40
2.0
 40
2.0
 40
2.0
 40
2.0
 10
47.511828613281246
 20
81.340426974826386
 30
0.0
 10
47.628445095486107
 20
81.360064019097209
 30
0.0
 10
47.734209526909716
 20
81.420697699652777
 30
0.0
 10
47.810518391927076
 20
81.510614691840274
 30
0.0
 10
47.886655002170137
 20
81.600876193576383
 30
0.0
 10
47.928685167100689
 20
81.715253363715277
 30
0.0
 10
47.928685167100689
 20
81.833420138888883
 30
0.0
  0
SPLINE
  5
9A
100
AcDbEntity
  8
レイヤー_1
 62
     7
100
AcDbSpline
210
0.0
220
0.0
230
1.0
 70
     8
 71
     3
 72
    11
 73
     7
 74
     0
 42
0.00000001
 43
0.00000001
 40
0.0
 40
0.0
 40
0.0
 40
0.0
 40
1.0
 40
1.0
 40
1.0
 40
2.0
 40
2.0
 40
2.0
 40
2.0
 10
47.470142957899299
 20
81.586751302083329
 30
0.0
 10
47.528537326388886
 20
81.596742078993046
 30
0.0
 10
47.58141954210069
 20
81.626714409722211
 30
0.0
 10
47.619660101996523
 20
81.672189670138877
 30
0.0
 10
47.657556152343744
 20
81.71697591145832
 30
0.0
 10
47.67857123480902
 20
81.774164496527774
 30
0.0
 10
47.67857123480902
 20
81.833420138888883
 30
0.0
  0
SPLINE
  5
99
100
AcDbEntity
  8
レイヤー_1
 62
     7
100
AcDbSpline
210
0.0
220
0.0
230
1.0
 70
     8
 71
     3
 72
    11
 73
     7
 74
     0
 42
0.00000001
 43
0.00000001
 40
0.0
 40
0.0
 40
0.0
 40
0.0
 40
1.0
 40
1.0
 40
1.0
 40
2.0
 40
2.0
 40
2.0
 40
2.0
 10
47.928685167100689
 20
200.65131835937498
 30
0.0
 10
47.928685167100689
 20
200.7698296440972
 30
0.0
 10
47.886655002170137
 20
200.88420681423608
 30
0.0
 10
47.810518391927076
 20
200.97412380642359
 30
0.0
 10
47.734209526909716
 20
201.06472981770833
 30
0.0
 10
47.628445095486107
 20
201.12467447916666
 30
0.0
 10
47.511828613281246
 20
201.14465603298609
 30
0.0
  0
SPLINE
  5
98
100
AcDbEntity
  8
レイヤー_1
 62
     7
100
AcDbSpline
210
0.0
220
0.0
230
1.0
 70
     8
 71
     3
 72
    11
 73
     7
 74
     0
 42
0.00000001
 43
0.00000001
 40
0.0
 40
0.0
 40
0.0
 40
0.0
 40
1.0
 40
1.0
 40
1.0
 40
2.0
 40
2.0
 40
2.0
 40
2.0
 10
47.67857123480902
 20
200.65131835937498
 30
0.0
 10
47.67857123480902
 20
200.71057400173609
 30
0.0
 10
47.657556152343744
 20
200.76776258680553
 30
0.0
 10
47.619660101996523
 20
200.81289333767359
 30
0.0
 10
47.58141954210069
 20
200.85802408854164
 30
0.0
 10
47.528537326388886
 20
200.88834092881942
 30
0.0
 10
47.470142957899299
 20
200.89798719618054
 30
0.0
  0
SPLINE
  5
97
100
AcDbEntity
  8
レイヤー_1
 62
     7
100
AcDbSpline
210
0.0
220
0.0
230
1.0
 70
     8
 71
     3
 72
    11
 73
     7
 74
     0
 42
0.00000001
 43
0.00000001
 40
0.0
 40
0.0
 40
0.0
 40
0.0
 40
1.0
 40
1.0
 40
1.0
 40
2.0
 40
2.0
 40
2.0
 40
2.0
 10
34.428561740451386
 20
194.74229058159722
 30
0.0
 10
33.898189290364577
 20
194.74229058159722
 30
0.0
 10
33.389348687065969
 20
194.53179524739582
 30
0.0
 10
33.014350043402771
 20
194.1566243489583
 30
0.0
 10
32.639351399739581
 20
193.78179796006944
 30
0.0
 10
32.42851155598958
 20
193.2729573567708
 30
0.0
 10
32.42851155598958
 20
192.74241265190972
 30
0.0
  0
SPLINE
  5
96
100
AcDbEntity
  8
レイヤー_1
 62
     7
100
AcDbSpline
210
0.0
220
0.0
230
1.0
 70
     8
 71
     3
 72
    23
 73
    19
 74
     0
 42
0.00000001
 43
0.00000001
 40
0.0
 40
0.0
 40
0.0
 40
0.0
 40
1.0
 40
1.0
 40
1.0
 40
2.0
 40
2.0
 40
2.0
 40
3.0
 40
3.0
 40
3.0
 40
4.0
 40
4.0
 40
4.0
 40
5.0
 40
5.0
 40
5.0
 40
6.0
 40
6.0
 40
6.0
 40
6.0
 10
32.42851155598958
 20
192.74241265190972
 30
0.0
 10
32.42851155598958
 20
192.2118679470486
 30
0.0
 10
32.639351399739581
 20
191.70337185329859
 30
0.0
 10
33.014350043402771
 20
191.3282009548611
 30
0.0
 10
33.389348687065969
 20
190.95337456597221
 30
0.0
 10
33.898189290364577
 20
190.74253472222222
 30
0.0
 10
34.428561740451386
 20
190.74253472222222
 30
0.0
 10
34.958934190538194
 20
190.74253472222222
 30
0.0
 10
35.467774793836803
 20
190.95337456597221
 30
0.0
 10
35.842945692274306
 20
191.3282009548611
 30
0.0
 10
36.21777208116319
 20
191.70337185329859
 30
0.0
 10
36.428611924913191
 20
192.2118679470486
 30
0.0
 10
36.428611924913191
 20
192.74241265190972
 30
0.0
 10
36.428611924913191
 20
193.2729573567708
 30
0.0
 10
36.21777208116319
 20
193.78179796006944
 30
0.0
 10
35.842945692274306
 20
194.1566243489583
 30
0.0
 10
35.467774793836803
 20
194.53179524739582
 30
0.0
 10
34.958934190538194
 20
194.74229058159722
 30
0.0
 10
34.428561740451386
 20
194.74229058159722
 30
0.0
  0
SPLINE
  5
95
100
AcDbEntity
  8
レイヤー_1
 62
     7
100
AcDbSpline
210
0.0
220
0.0
230
1.0
 70
     8
 71
     3
 72
     8
 73
     4
 74
     0
 42
0.00000001
 43
0.00000001
 40
0.0
 40
0.0
 40
0.0
 40
0.0
 40
1.0
 40
1.0
 40
1.0
 40
1.0
 10
47.511828613281246
 20
201.14465603298609
 30
0.0
 10
38.851203070746521
 20
202.60847710503469
 30
0.0
 10
30.006092664930552
 20
202.60847710503469
 30
0.0
 10
21.345294867621526
 20
201.14465603298609
 30
0.0
  0
SPLINE
  5
94
100
AcDbEntity
  8
レイヤー_1
 62
     7
100
AcDbSpline
210
0.0
220
0.0
230
1.0
 70
     8
 71
     3
 72
    11
 73
     7
 74
     0
 42
0.00000001
 43
0.00000001
 40
0.0
 40
0.0
 40
0.0
 40
0.0
 40
1.0
 40
1.0
 40
1.0
 40
2.0
 40
2.0
 40
2.0
 40
2.0
 10
32.42851155598958
 20
89.742670355902774
 30
0.0
 10
32.42851155598958
 20
89.21212565104166
 30
0.0
 10
32.639351399739581
 20
88.703285047743051
 30
0.0
 10
33.014350043402771
 20
88.328114149305549
 30
0.0
 10
33.389348687065969
 20
87.953287760416657
 30
0.0
 10
33.898189290364577
 20
87.742447916666663
 30
0.0
 10
34.428561740451386
 20
87.742447916666663
 30
0.0
  0
SPLINE
  5
93
100
AcDbEntity
  8
レイヤー_1
 62
     7
100
AcDbSpline
210
0.0
220
0.0
230
1.0
 70
     8
 71
     3
 72
    23
 73
    19
 74
     0
 42
0.00000001
 43
0.00000001
 40
0.0
 40
0.0
 40
0.0
 40
0.0
 40
1.0
 40
1.0
 40
1.0
 40
2.0
 40
2.0
 40
2.0
 40
3.0
 40
3.0
 40
3.0
 40
4.0
 40
4.0
 40
4.0
 40
5.0
 40
5.0
 40
5.0
 40
6.0
 40
6.0
 40
6.0
 40
6.0
 10
34.428561740451386
 20
87.742447916666663
 30
0.0
 10
34.958934190538194
 20
87.742447916666663
 30
0.0
 10
35.467774793836803
 20
87.953287760416657
 30
0.0
 10
35.842945692274306
 20
88.328114149305549
 30
0.0
 10
36.21777208116319
 20
88.703285047743051
 30
0.0
 10
36.428611924913191
 20
89.21212565104166
 30
0.0
 10
36.428611924913191
 20
89.742670355902774
 30
0.0
 10
36.428611924913191
 20
90.272870551215263
 30
0.0
 10
36.21777208116319
 20
90.781711154513886
 30
0.0
 10
35.842945692274306
 20
91.156537543402763
 30
0.0
 10
35.467774793836803
 20
91.531708441840266
 30
0.0
 10
34.958934190538194
 20
91.742548285590274
 30
0.0
 10
34.428561740451386
 20
91.742548285590274
 30
0.0
 10
33.898189290364577
 20
91.742548285590274
 30
0.0
 10
33.389348687065969
 20
91.531708441840266
 30
0.0
 10
33.014350043402771
 20
91.156537543402763
 30
0.0
 10
32.639351399739581
 20
90.781711154513886
 30
0.0
 10
32.42851155598958
 20
90.272870551215263
 30
0.0
 10
32.42851155598958
 20
89.742670355902774
 30
0.0
  0
SPLINE
  5
92
100
AcDbEntity
  8
レイヤー_1
 62
     7
100
AcDbSpline
210
0.0
220
0.0
230
1.0
 70
     8
 71
     3
 72
     8
 73
     4
 74
     0
 42
0.00000001
 43
0.00000001
 40
0.0
 40
0.0
 40
0.0
 40
0.0
 40
1.0
 40
1.0
 40
1.0
 40
1.0
 10
21.345294867621526
 20
81.340426974826386
 30
0.0
 10
30.006092664930552
 20
79.876605902777769
 30
0.0
 10
38.851203070746521
 20
79.876605902777769
 30
0.0
 10
47.511828613281246
 20
81.340426974826386
 30
0.0
  0
SPLINE
  5
91
100
AcDbEntity
  8
レイヤー_1
 62
     7
100
AcDbSpline
210
0.0
220
0.0
230
1.0
 70
     8
 71
     3
 72
    29
 73
    25
 74
     0
 42
0.00000001
 43
0.00000001
 40
0.0
 40
0.0
 40
0.0
 40
0.0
 40
1.0
 40
1.0
 40
1.0
 40
2.0
 40
2.0
 40
2.0
 40
3.0
 40
3.0
 40
3.0
 40
4.0
 40
4.0
 40
4.0
 40
5.0
 40
5.0
 40
5.0
 40
6.0
 40
6.0
 40
6.0
 40
7.0
 40
7.0
 40
7.0
 40
8.0
 40
8.0
 40
8.0
 40
8.0
 10
37.678492567274304
 20
192.74241265190972
 30
0.0
 10
37.678492567274304
 20
193.60437554253471
 30
0.0
 10
37.336222330729164
 20
194.43119845920137
 30
0.0
 10
36.726612684461806
 20
195.04063585069443
 30
0.0
 10
36.117175292968746
 20
195.65007324218749
 30
0.0
 10
35.290524631076387
 20
195.99251573350693
 30
0.0
 10
34.428561740451386
 20
195.99251573350693
 30
0.0
 10
33.56677110460069
 20
195.99251573350693
 30
0.0
 10
32.739948187934026
 20
195.65007324218749
 30
0.0
 10
32.130510796440966
 20
195.04063585069443
 30
0.0
 10
31.521073404947913
 20
194.43119845920137
 30
0.0
 10
31.178630913628471
 20
193.60437554253471
 30
0.0
 10
31.178630913628471
 20
192.74241265190972
 30
0.0
 10
31.178630913628471
 20
191.88044976128469
 30
0.0
 10
31.521073404947913
 20
191.05362684461804
 30
0.0
 10
32.130510796440966
 20
190.44418945312498
 30
0.0
 10
32.739948187934026
 20
189.83509657118054
 30
0.0
 10
33.56677110460069
 20
189.4926540798611
 30
0.0
 10
34.428561740451386
 20
189.4926540798611
 30
0.0
 10
35.290524631076387
 20
189.4926540798611
 30
0.0
 10
36.117175292968746
 20
189.83509657118054
 30
0.0
 10
36.726612684461806
 20
190.44418945312498
 30
0.0
 10
37.336222330729164
 20
191.05362684461804
 30
0.0
 10
37.678492567274304
 20
191.88044976128469
 30
0.0
 10
37.678492567274304
 20
192.74241265190972
 30
0.0
  0
SPLINE
  5
90
100
AcDbEntity
  8
レイヤー_1
 62
     7
100
AcDbSpline
210
0.0
220
0.0
230
1.0
 70
     8
 71
     3
 72
     8
 73
     4
 74
     0
 42
0.00000001
 43
0.00000001
 40
0.0
 40
0.0
 40
0.0
 40
0.0
 40
1.0
 40
1.0
 40
1.0
 40
1.0
 10
47.470142957899299
 20
200.89798719618054
 30
0.0
 10
38.837078179253467
 20
202.35732964409721
 30
0.0
 10
30.020045301649304
 20
202.35732964409721
 30
0.0
 10
21.386980523003469
 20
200.89798719618054
 30
0.0
  0
SPLINE
  5
8F
100
AcDbEntity
  8
レイヤー_1
 62
     7
100
AcDbSpline
210
0.0
220
0.0
230
1.0
 70
     8
 71
     3
 72
    29
 73
    25
 74
     0
 42
0.00000001
 43
0.00000001
 40
0.0
 40
0.0
 40
0.0
 40
0.0
 40
1.0
 40
1.0
 40
1.0
 40
2.0
 40
2.0
 40
2.0
 40
3.0
 40
3.0
 40
3.0
 40
4.0
 40
4.0
 40
4.0
 40
5.0
 40
5.0
 40
5.0
 40
6.0
 40
6.0
 40
6.0
 40
7.0
 40
7.0
 40
7.0
 40
8.0
 40
8.0
 40
8.0
 40
8.0
 10
37.678492567274304
 20
89.742670355902774
 30
0.0
 10
37.678492567274304
 20
90.604633246527769
 30
0.0
 10
37.336222330729164
 20
91.431111653645829
 30
0.0
 10
36.726612684461806
 20
92.040549045138874
 30
0.0
 10
36.117175292968746
 20
92.649986436631934
 30
0.0
 10
35.290524631076387
 20
92.99242892795138
 30
0.0
 10
34.428561740451386
 20
92.99242892795138
 30
0.0
 10
33.56677110460069
 20
92.99242892795138
 30
0.0
 10
32.739948187934026
 20
92.649986436631934
 30
0.0
 10
32.130510796440966
 20
92.040549045138874
 30
0.0
 10
31.521073404947913
 20
91.431111653645829
 30
0.0
 10
31.178630913628471
 20
90.604633246527769
 30
0.0
 10
31.178630913628471
 20
89.742670355902774
 30
0.0
 10
31.178630913628471
 20
88.880707465277766
 30
0.0
 10
31.521073404947913
 20
88.053884548611109
 30
0.0
 10
32.130510796440966
 20
87.444447157118049
 30
0.0
 10
32.739948187934026
 20
86.835009765624989
 30
0.0
 10
33.56677110460069
 20
86.492567274305543
 30
0.0
 10
34.428561740451386
 20
86.492567274305543
 30
0.0
 10
35.290524631076387
 20
86.492567274305543
 30
0.0
 10
36.117175292968746
 20
86.835009765624989
 30
0.0
 10
36.726612684461806
 20
87.444447157118049
 30
0.0
 10
37.336222330729164
 20
88.053884548611109
 30
0.0
 10
37.678492567274304
 20
88.880707465277766
 30
0.0
 10
37.678492567274304
 20
89.742670355902774
 30
0.0
  0
SPLINE
  5
8E
100
AcDbEntity
  8
レイヤー_1
 62
     7
100
AcDbSpline
210
0.0
220
0.0
230
1.0
 70
     8
 71
     3
 72
     8
 73
     4
 74
     0
 42
0.00000001
 43
0.00000001
 40
0.0
 40
0.0
 40
0.0
 40
0.0
 40
1.0
 40
1.0
 40
1.0
 40
1.0
 10
21.386980523003469
 20
81.586751302083329
 30
0.0
 10
30.020045301649304
 20
80.12740885416666
 30
0.0
 10
38.837078179253467
 20
80.12740885416666
 30
0.0
 10
47.470315212673604
 20
81.586751302083329
 30
0.0
  0
SPLINE
  5
8D
100
AcDbEntity
  8
レイヤー_1
 62
     7
100
AcDbSpline
210
0.0
220
0.0
230
1.0
 70
     8
 71
     3
 72
     8
 73
     4
 74
     0
 42
0.00000001
 43
0.00000001
 40
0.0
 40
0.0
 40
0.0
 40
0.0
 40
1.0
 40
1.0
 40
1.0
 40
1.0
 10
47.761942545572914
 20
202.62329101562497
 30
0.0
 10
38.93560791015625
 20
204.11536187065971
 30
0.0
 10
29.921515570746525
 20
204.11536187065971
 30
0.0
 10
21.095180935329861
 20
202.62329101562497
 30
0.0
  0
SPLINE
  5
8C
100
AcDbEntity
  8
レイヤー_1
 62
     7
100
AcDbSpline
210
0.0
220
0.0
230
1.0
 70
     8
 71
     3
 72
     8
 73
     4
 74
     0
 42
0.00000001
 43
0.00000001
 40
0.0
 40
0.0
 40
0.0
 40
0.0
 40
1.0
 40
1.0
 40
1.0
 40
1.0
 10
21.095180935329861
 20
79.86144748263888
 30
0.0
 10
29.921515570746525
 20
78.369721137152766
 30
0.0
 10
38.93560791015625
 20
78.369721137152766
 30
0.0
 10
47.761942545572914
 20
79.86144748263888
 30
0.0
  0
LINE
  5
8B
100
AcDbEntity
  8
レイヤー_1
 62
     7
100
AcDbLine
 10
46.824532
 20
201.004441
 30
0.0
 11
37.500037
 21
191.679945
 31
0.0
  0
LINE
  5
8A
100
AcDbEntity
  8
レイヤー_1
 62
     7
100
AcDbLine
 10
37.664712
 20
192.443034
 30
0.0
 11
47.678571
 21
182.429519
 31
0.0
  0
LINE
  5
89
100
AcDbEntity
  8
レイヤー_1
 62
     7
100
AcDbLine
 10
42.695585
 20
201.554622
 30
0.0
 11
47.678571
 21
196.571636
 31
0.0
  0
LINE
  5
88
100
AcDbEntity
  8
レイヤー_1
 62
     7
100
AcDbLine
 10
35.190445
 20
201.988704
 30
0.0
 11
47.678571
 21
189.500578
 31
0.0
  0
LINE
  5
87
100
AcDbEntity
  8
レイヤー_1
 62
     7
100
AcDbLine
 10
32.195968
 20
87.380713
 30
0.0
 11
25.786367
 21
80.971113
 31
0.0
  0
LINE
  5
86
100
AcDbEntity
  8
レイヤー_1
 62
     7
100
AcDbLine
 10
21.178552
 20
102.863661
 30
0.0
 11
32.066949
 21
91.975092
 31
0.0
  0
LINE
  5
85
100
AcDbEntity
  8
レイヤー_1
 62
     7
100
AcDbLine
 10
21.178552
 20
88.721544
 30
0.0
 11
29.234908
 21
80.664844
 31
0.0
  0
LINE
  5
84
100
AcDbEntity
  8
レイヤー_1
 62
     7
100
AcDbLine
 10
26.161538
 20
201.554622
 30
0.0
 11
21.178552
 21
196.571636
 31
0.0
  0
LINE
  5
83
100
AcDbEntity
  8
レイヤー_1
 62
     7
100
AcDbLine
 10
31.192411
 20
192.443034
 30
0.0
 11
21.178552
 21
182.429519
 31
0.0
  0
LINE
  5
82
100
AcDbEntity
  8
レイヤー_1
 62
     7
100
AcDbLine
 10
22.032591
 20
201.004441
 30
0.0
 11
31.357259
 21
191.679945
 31
0.0
  0
LINE
  5
81
100
AcDbEntity
  8
レイヤー_1
 62
     7
100
AcDbLine
 10
47.678571
 20
88.721544
 30
0.0
 11
39.622215
 21
80.664844
 31
0.0
  0
LINE
  5
80
100
AcDbEntity
  8
レイヤー_1
 62
     7
100
AcDbLine
 10
47.678571
 20
117.005778
 30
0.0
 11
21.178552
 21
90.505414
 31
0.0
  0
LINE
  5
7F
100
AcDbEntity
  8
レイヤー_1
 62
     7
100
AcDbLine
 10
47.678571
 20
131.147895
 30
0.0
 11
21.178552
 21
104.647531
 31
0.0
  0
LINE
  5
7E
100
AcDbEntity
  8
レイヤー_1
 62
     7
100
AcDbLine
 10
47.678571
 20
152.36107
 30
0.0
 11
21.178552
 21
125.861051
 31
0.0
  0
LINE
  5
7D
100
AcDbEntity
  8
レイヤー_1
 62
     7
100
AcDbLine
 10
47.678571
 20
138.218609
 30
0.0
 11
21.178552
 21
111.718934
 31
0.0
  0
LINE
  5
7C
100
AcDbEntity
  8
レイヤー_1
 62
     7
100
AcDbLine
 10
47.678571
 20
145.289667
 30
0.0
 11
21.178552
 21
118.789648
 31
0.0
  0
LINE
  5
7B
100
AcDbEntity
  8
レイヤー_1
 62
     7
100
AcDbLine
 10
47.678571
 20
109.934375
 30
0.0
 11
21.178552
 21
83.434701
 31
0.0
  0
LINE
  5
7A
100
AcDbEntity
  8
レイヤー_1
 62
     7
100
AcDbLine
 10
47.678571
 20
95.792258
 30
0.0
 11
32.40474
 21
80.518772
 31
0.0
  0
LINE
  5
79
100
AcDbEntity
  8
レイヤー_1
 62
     7
100
AcDbLine
 10
40.505193
 20
201.75616
 30
0.0
 11
34.727768
 21
195.978735
 31
0.0
  0
LINE
  5
78
100
AcDbEntity
  8
レイヤー_1
 62
     7
100
AcDbLine
 10
35.491201
 20
189.67111
 30
0.0
 11
21.178552
 21
175.358461
 31
0.0
  0
LINE
  5
77
100
AcDbEntity
  8
レイヤー_1
 62
     7
100
AcDbLine
 10
33.365922
 20
189.67111
 30
0.0
 11
47.678571
 21
175.358461
 31
0.0
  0
LINE
  5
76
100
AcDbEntity
  8
レイヤー_1
 62
     7
100
AcDbLine
 10
28.35193
 20
201.75616
 30
0.0
 11
34.129355
 21
195.978735
 31
0.0
  0
LINE
  5
75
100
AcDbEntity
  8
レイヤー_1
 62
     7
100
AcDbLine
 10
21.178552
 20
95.792258
 30
0.0
 11
36.452383
 21
80.518772
 31
0.0
  0
LINE
  5
74
100
AcDbEntity
  8
レイヤー_1
 62
     7
100
AcDbLine
 10
21.178552
 20
109.934375
 30
0.0
 11
47.678571
 21
83.434701
 31
0.0
  0
LINE
  5
73
100
AcDbEntity
  8
レイヤー_1
 62
     7
100
AcDbLine
 10
21.178552
 20
145.289667
 30
0.0
 11
47.678571
 21
118.789648
 31
0.0
  0
LINE
  5
72
100
AcDbEntity
  8
レイヤー_1
 62
     7
100
AcDbLine
 10
21.178552
 20
138.218609
 30
0.0
 11
47.678571
 21
111.718934
 31
0.0
  0
LINE
  5
71
100
AcDbEntity
  8
レイヤー_1
 62
     7
100
AcDbLine
 10
21.178552
 20
152.36107
 30
0.0
 11
47.678571
 21
125.861051
 31
0.0
  0
LINE
  5
70
100
AcDbEntity
  8
レイヤー_1
 62
     7
100
AcDbLine
 10
21.178552
 20
131.147895
 30
0.0
 11
47.678571
 21
104.647531
 31
0.0
  0
LINE
  5
6F
100
AcDbEntity
  8
レイヤー_1
 62
     7
100
AcDbLine
 10
21.178552
 20
117.005778
 30
0.0
 11
47.678571
 21
90.505414
 31
0.0
  0
LINE
  5
6E
100
AcDbEntity
  8
レイヤー_1
 62
     7
100
AcDbLine
 10
21.178552
 20
124.076492
 30
0.0
 11
47.678571
 21
97.576817
 31
0.0
  0
LINE
  5
6D
100
AcDbEntity
  8
レイヤー_1
 62
     7
100
AcDbLine
 10
21.178552
 20
166.503187
 30
0.0
 11
47.678571
 21
140.003168
 31
0.0
  0
LINE
  5
6C
100
AcDbEntity
  8
レイヤー_1
 62
     7
100
AcDbLine
 10
21.178552
 20
159.431784
 30
0.0
 11
47.678571
 21
132.931765
 31
0.0
  0
LINE
  5
6B
100
AcDbEntity
  8
レイヤー_1
 62
     7
100
AcDbLine
 10
21.178552
 20
173.574246
 30
0.0
 11
47.678571
 21
147.073882
 31
0.0
  0
LINE
  5
6A
100
AcDbEntity
  8
レイヤー_1
 62
     7
100
AcDbLine
 10
21.178552
 20
194.787421
 30
0.0
 11
47.678571
 21
168.287402
 31
0.0
  0
LINE
  5
69
100
AcDbEntity
  8
レイヤー_1
 62
     7
100
AcDbLine
 10
21.178552
 20
180.645304
 30
0.0
 11
47.678571
 21
154.145285
 31
0.0
  0
LINE
  5
68
100
AcDbEntity
  8
レイヤー_1
 62
     7
100
AcDbLine
 10
21.178552
 20
187.716363
 30
0.0
 11
47.678571
 21
161.216344
 31
0.0
  0
LINE
  5
67
100
AcDbEntity
  8
レイヤー_1
 62
     7
100
AcDbLine
 10
47.678571
 20
102.863661
 30
0.0
 11
36.790347
 21
91.975092
 31
0.0
  0
LINE
  5
66
100
AcDbEntity
  8
レイヤー_1
 62
     7
100
AcDbLine
 10
36.661328
 20
87.380713
 30
0.0
 11
43.070756
 21
80.971113
 31
0.0
  0
LINE
  5
65
100
AcDbEntity
  8
レイヤー_1
 62
     7
100
AcDbLine
 10
33.666851
 20
201.988704
 30
0.0
 11
21.178552
 21
189.500578
 31
0.0
  0
LINE
  5
64
100
AcDbEntity
  8
レイヤー_1
 62
     7
100
AcDbLine
 10
47.678571
 20
187.716363
 30
0.0
 11
21.178552
 21
161.216344
 31
0.0
  0
LINE
  5
63
100
AcDbEntity
  8
レイヤー_1
 62
     7
100
AcDbLine
 10
47.678571
 20
180.645304
 30
0.0
 11
21.178552
 21
154.145285
 31
0.0
  0
LINE
  5
62
100
AcDbEntity
  8
レイヤー_1
 62
     7
100
AcDbLine
 10
47.678571
 20
194.787421
 30
0.0
 11
21.178552
 21
168.287402
 31
0.0
  0
LINE
  5
61
100
AcDbEntity
  8
レイヤー_1
 62
     7
100
AcDbLine
 10
47.678571
 20
173.574246
 30
0.0
 11
21.178552
 21
147.073882
 31
0.0
  0
LINE
  5
60
100
AcDbEntity
  8
レイヤー_1
 62
     7
100
AcDbLine
 10
47.678571
 20
159.431784
 30
0.0
 11
21.178552
 21
132.931765
 31
0.0
  0
LINE
  5
5F
100
AcDbEntity
  8
レイヤー_1
 62
     7
100
AcDbLine
 10
47.678571
 20
166.503187
 30
0.0
 11
21.178552
 21
140.003168
 31
0.0
  0
LINE
  5
5E
100
AcDbEntity
  8
レイヤー_1
 62
     7
100
AcDbLine
 10
47.678571
 20
124.076492
 30
0.0
 11
21.178552
 21
97.576817
 31
0.0
  0
LINE
  5
5D
100
AcDbEntity
  8
レイヤー_1
 62
     7
100
AcDbLine
 10
34.428562
 20
78.74248
 30
0.0
 11
78.432594
 21
78.74248
 31
0.0
  0
LINE
  5
5C
100
AcDbEntity
  8
レイヤー_1
 62
     7
100
AcDbLine
 10
34.428562
 20
203.742603
 30
0.0
 11
78.432594
 21
203.742603
 31
0.0
  0
LINE
  5
5B
100
AcDbEntity
  8
レイヤー_1
 62
     7
100
AcDbLine
 10
76.433061
 20
203.742603
 30
0.0
 11
76.433061
 21
141.242714
 31
0.0
  0
POLYLINE
  5
56
100
AcDbEntity
  8
レイヤー_1
 62
     7
100
AcDb2dPolyline
 66
     1
 10
0.0
 20
0.0
 30
0.0
  0
VERTEX
  5
57
100
AcDbEntity
  8
レイヤー_1
 62
     7
100
AcDbVertex
100
AcDb2dVertex
 10
75.682719
 20
200.742613
 30
0.0
  0
VERTEX
  5
58
100
AcDbEntity
  8
レイヤー_1
 62
     7
100
AcDbVertex
100
AcDb2dVertex
 10
76.433061
 20
203.742603
 30
0.0
  0
VERTEX
  5
59
100
AcDbEntity
  8
レイヤー_1
 62
     7
100
AcDbVertex
100
AcDb2dVertex
 10
77.182713
 20
200.742613
 30
0.0
  0
SEQEND
  5
5A
100
AcDbEntity
  8
レイヤー_1
 62
     7
  0
LINE
  5
55
100
AcDbEntity
  8
レイヤー_1
 62
     7
100
AcDbLine
 10
76.433061
 20
78.74248
 30
0.0
 11
76.433061
 21
141.242714
 31
0.0
  0
POLYLINE
  5
50
100
AcDbEntity
  8
レイヤー_1
 62
     7
100
AcDb2dPolyline
 66
     1
 10
0.0
 20
0.0
 30
0.0
  0
VERTEX
  5
51
100
AcDbEntity
  8
レイヤー_1
 62
     7
100
AcDbVertex
100
AcDb2dVertex
 10
77.182713
 20
81.74247
 30
0.0
  0
VERTEX
  5
52
100
AcDbEntity
  8
レイヤー_1
 62
     7
100
AcDbVertex
100
AcDb2dVertex
 10
76.433061
 20
78.74248
 30
0.0
  0
VERTEX
  5
53
100
AcDbEntity
  8
レイヤー_1
 62
     7
100
AcDbVertex
100
AcDb2dVertex
 10
75.682719
 20
81.74247
 30
0.0
  0
SEQEND
  5
54
100
AcDbEntity
  8
レイヤー_1
 62
     7
  0
MTEXT
  5
4F
100
AcDbEntity
  8
レイヤー_1
 62
     7
100
AcDbMText
 10
72.282803
 20
138.861464
 30
0.0
 40
3.149802
 41
0.0
 71
     1
 72
     2
  1
125
  7
STD
210
0.0
220
0.0
230
1.0
 11
0.0
 21
1.0
 31
0.0
  0
LINE
  5
4E
100
AcDbEntity
  8
レイヤー_1
 62
     7
100
AcDbLine
 10
49.42868
 20
200.651663
 30
0.0
 11
49.42868
 21
212.651619
 31
0.0
  0
LINE
  5
4D
100
AcDbEntity
  8
レイヤー_1
 62
     7
100
AcDbLine
 10
19.428616
 20
200.651663
 30
0.0
 11
19.428616
 21
212.651619
 31
0.0
  0
LINE
  5
4C
100
AcDbEntity
  8
レイヤー_1
 62
     7
100
AcDbLine
 10
19.428616
 20
210.651742
 30
0.0
 11
34.428562
 21
210.651742
 31
0.0
  0
POLYLINE
  5
47
100
AcDbEntity
  8
レイヤー_1
 62
     7
100
AcDb2dPolyline
 66
     1
 10
0.0
 20
0.0
 30
0.0
  0
VERTEX
  5
48
100
AcDbEntity
  8
レイヤー_1
 62
     7
100
AcDbVertex
100
AcDb2dVertex
 10
22.428605
 20
209.901744
 30
0.0
  0
VERTEX
  5
49
100
AcDbEntity
  8
レイヤー_1
 62
     7
100
AcDbVertex
100
AcDb2dVertex
 10
19.428616
 20
210.651742
 30
0.0
  0
VERTEX
  5
4A
100
AcDbEntity
  8
レイヤー_1
 62
     7
100
AcDbVertex
100
AcDb2dVertex
 10
22.428605
 20
211.401739
 30
0.0
  0
SEQEND
  5
4B
100
AcDbEntity
  8
レイヤー_1
 62
     7
  0
LINE
  5
46
100
AcDbEntity
  8
レイヤー_1
 62
     7
100
AcDbLine
 10
49.42868
 20
210.651742
 30
0.0
 11
34.428562
 21
210.651742
 31
0.0
  0
POLYLINE
  5
41
100
AcDbEntity
  8
レイヤー_1
 62
     7
100
AcDb2dPolyline
 66
     1
 10
0.0
 20
0.0
 30
0.0
  0
VERTEX
  5
42
100
AcDbEntity
  8
レイヤー_1
 62
     7
100
AcDbVertex
100
AcDb2dVertex
 10
46.428691
 20
211.401739
 30
0.0
  0
VERTEX
  5
43
100
AcDbEntity
  8
レイヤー_1
 62
     7
100
AcDbVertex
100
AcDb2dVertex
 10
49.42868
 20
210.651742
 30
0.0
  0
VERTEX
  5
44
100
AcDbEntity
  8
レイヤー_1
 62
     7
100
AcDbVertex
100
AcDb2dVertex
 10
46.428691
 20
209.901744
 30
0.0
  0
SEQEND
  5
45
100
AcDbEntity
  8
レイヤー_1
 62
     7
  0
MTEXT
  5
40
100
AcDbEntity
  8
レイヤー_1
 62
     7
100
AcDbMText
 10
32.841062
 20
214.801482
 30
0.0
 40
3.149802
 41
0.0
 71
     1
 72
     2
  1
30
  7
STD
210
0.0
220
0.0
230
1.0
 11
1.000001
 21
0.0
 31
0.0
  0
LINE
  5
3F
100
AcDbEntity
  8
レイヤー_1
 62
     7
100
AcDbLine
 10
36.428784
 20
89.74267
 30
0.0
 11
68.646456
 21
89.74267
 31
0.0
  0
LINE
  5
3E
100
AcDbEntity
  8
レイヤー_1
 62
     7
100
AcDbLine
 10
34.428562
 20
192.742413
 30
0.0
 11
68.646456
 21
192.742413
 31
0.0
  0
LINE
  5
3D
100
AcDbEntity
  8
レイヤー_1
 62
     7
100
AcDbLine
 10
66.646922
 20
192.742413
 30
0.0
 11
66.646922
 21
141.242714
 31
0.0
  0
POLYLINE
  5
38
100
AcDbEntity
  8
レイヤー_1
 62
     7
100
AcDb2dPolyline
 66
     1
 10
0.0
 20
0.0
 30
0.0
  0
VERTEX
  5
39
100
AcDbEntity
  8
レイヤー_1
 62
     7
100
AcDbVertex
100
AcDb2dVertex
 10
65.896581
 20
189.742424
 30
0.0
  0
VERTEX
  5
3A
100
AcDbEntity
  8
レイヤー_1
 62
     7
100
AcDbVertex
100
AcDb2dVertex
 10
66.646922
 20
192.742413
 30
0.0
  0
VERTEX
  5
3B
100
AcDbEntity
  8
レイヤー_1
 62
     7
100
AcDbVertex
100
AcDb2dVertex
 10
67.396575
 20
189.742424
 30
0.0
  0
SEQEND
  5
3C
100
AcDbEntity
  8
レイヤー_1
 62
     7
  0
LINE
  5
37
100
AcDbEntity
  8
レイヤー_1
 62
     7
100
AcDbLine
 10
66.646922
 20
89.74267
 30
0.0
 11
66.646922
 21
141.242714
 31
0.0
  0
POLYLINE
  5
32
100
AcDbEntity
  8
レイヤー_1
 62
     7
100
AcDb2dPolyline
 66
     1
 10
0.0
 20
0.0
 30
0.0
  0
VERTEX
  5
33
100
AcDbEntity
  8
レイヤー_1
 62
     7
100
AcDbVertex
100
AcDb2dVertex
 10
67.396575
 20
92.74266
 30
0.0
  0
VERTEX
  5
34
100
AcDbEntity
  8
レイヤー_1
 62
     7
100
AcDbVertex
100
AcDb2dVertex
 10
66.646922
 20
89.74267
 30
0.0
  0
VERTEX
  5
35
100
AcDbEntity
  8
レイヤー_1
 62
     7
100
AcDbVertex
100
AcDb2dVertex
 10
65.896581
 20
92.74266
 30
0.0
  0
SEQEND
  5
36
100
AcDbEntity
  8
レイヤー_1
 62
     7
  0
MTEXT
  5
31
100
AcDbEntity
  8
レイヤー_1
 62
     7
100
AcDbMText
 10
62.496665
 20
138.861464
 30
0.0
 40
3.149802
 41
0.0
 71
     1
 72
     2
  1
103
  7
STD
210
0.0
220
0.0
230
1.0
 11
0.0
 21
1.0
 31
0.0
  0
SPLINE
  5
30
100
AcDbEntity
  8
レイヤー_1
 62
     7
100
AcDbSpline
210
0.0
220
0.0
230
1.0
 70
     8
 71
     3
 72
    23
 73
    19
 74
     0
 42
0.00000001
 43
0.00000001
 40
0.0
 40
0.0
 40
0.0
 40
0.0
 40
1.0
 40
1.0
 40
1.0
 40
2.0
 40
2.0
 40
2.0
 40
3.0
 40
3.0
 40
3.0
 40
4.0
 40
4.0
 40
4.0
 40
5.0
 40
5.0
 40
5.0
 40
6.0
 40
6.0
 40
6.0
 40
6.0
 10
19.428615993923611
 20
49.882226562499994
 30
0.0
 10
19.428615993923611
 20
49.882226562499994
 30
0.0
 10
49.42867974175347
 20
49.882226562499994
 30
0.0
 10
49.42867974175347
 20
49.882226562499994
 30
0.0
 10
49.42867974175347
 20
49.882226562499994
 30
0.0
 10
49.422995334201381
 20
51.826293945312493
 30
0.0
 10
49.422995334201381
 20
51.826293945312493
 30
0.0
 10
49.422995334201381
 20
52.135319010416659
 30
0.0
 10
49.172364637586803
 20
52.38612196180555
 30
0.0
 10
48.863167317708331
 20
52.38612196180555
 30
0.0
 10
48.863167317708331
 20
52.38612196180555
 30
0.0
 10
19.988271755642359
 20
52.38612196180555
 30
0.0
 10
19.988271755642359
 20
52.38612196180555
 30
0.0
 10
19.679246690538193
 20
52.38612196180555
 30
0.0
 10
19.428615993923611
 20
52.135319010416659
 30
0.0
 10
19.428615993923611
 20
51.826293945312493
 30
0.0
 10
19.428615993923611
 20
51.826293945312493
 30
0.0
 10
19.428615993923611
 20
49.882226562499994
 30
0.0
 10
19.428615993923611
 20
49.882226562499994
 30
0.0
  0
LINE
  5
2F
100
AcDbEntity
  8
レイヤー_1
 62
     7
100
AcDbLine
 10
42.334539
 20
52.386122
 30
0.0
 11
73.048943
 21
52.386122
 31
0.0
  0
LINE
  5
2E
100
AcDbEntity
  8
レイヤー_1
 62
     7
100
AcDbLine
 10
42.334539
 20
49.882227
 30
0.0
 11
73.048943
 21
49.882227
 31
0.0
  0
LINE
  5
2D
100
AcDbEntity
  8
レイヤー_1
 62
     7
100
AcDbLine
 10
69.521166
 20
64.733689
 30
0.0
 11
69.521166
 21
46.354449
 31
0.0
  0
POLYLINE
  5
28
100
AcDbEntity
  8
レイヤー_1
 62
     7
100
AcDb2dPolyline
 66
     1
 10
0.0
 20
0.0
 30
0.0
  0
VERTEX
  5
29
100
AcDbEntity
  8
レイヤー_1
 62
     7
100
AcDbVertex
100
AcDb2dVertex
 10
68.608043
 20
55.793666
 30
0.0
  0
VERTEX
  5
2A
100
AcDbEntity
  8
レイヤー_1
 62
     7
100
AcDbVertex
100
AcDb2dVertex
 10
69.521166
 20
52.386122
 30
0.0
  0
VERTEX
  5
2B
100
AcDbEntity
  8
レイヤー_1
 62
     7
100
AcDbVertex
100
AcDb2dVertex
 10
70.434288
 20
55.793666
 30
0.0
  0
SEQEND
  5
2C
100
AcDbEntity
  8
レイヤー_1
 62
     7
  0
POLYLINE
  5
23
100
AcDbEntity
  8
レイヤー_1
 62
     7
100
AcDb2dPolyline
 66
     1
 10
0.0
 20
0.0
 30
0.0
  0
VERTEX
  5
24
100
AcDbEntity
  8
レイヤー_1
 62
     7
100
AcDbVertex
100
AcDb2dVertex
 10
70.434288
 20
46.474683
 30
0.0
  0
VERTEX
  5
25
100
AcDbEntity
  8
レイヤー_1
 62
     7
100
AcDbVertex
100
AcDb2dVertex
 10
69.521166
 20
49.882227
 30
0.0
  0
VERTEX
  5
26
100
AcDbEntity
  8
レイヤー_1
 62
     7
100
AcDbVertex
100
AcDb2dVertex
 10
68.608043
 20
46.474683
 30
0.0
  0
SEQEND
  5
27
100
AcDbEntity
  8
レイヤー_1
 62
     7
  0
MTEXT
  5
22
100
AcDbEntity
  8
レイヤー_1
 62
     7
100
AcDbMText
 10
65.458241
 20
57.14621
 30
0.0
 40
3.149802
 41
0.0
 71
     1
 72
     2
  1
2.5
  7
STD
210
0.0
220
0.0
230
1.0
 11
0.0
 21
1.0
 31
0.0
  0
ENDSEC
  0
SECTION
  2
OBJECTS
  0
DICTIONARY
  5
19
100
AcDbDictionary
  3
ACAD_GROUP
350
1A
  3
ACAD_MLINESTYLE
350
1B
  0
DICTIONARY
  5
1A
102
{ACAD_REACTORS
330
19
102
}
100
AcDbDictionary
  0
DICTIONARY
  5
1B
102
{ACAD_REACTORS
330
19
102
}
100
AcDbDictionary
  3
STANDARD
350
1C
  0
MLINESTYLE
  5
1C
102
{ACAD_REACTORS
330
1B
102
}
100
AcDbMlineStyle
  2
STANDARD
 70
     0
  3

 62
     0
 51
90.0
 52
90.0
 71
     2
 49
0.5
 62
   256
  6
BYLAYER
 49
-0.5
 62
   256
  6
BYLAYER
  0
ENDSEC
  0
EOF
