  0
SECTION
  2
HEADER
  9
$ACADVER
  1
AC1015
  9
$ACADMAINTVER
 70
     6
  9
$DWGCODEPAGE
  3
DOS932
  9
$INSBASE
 10
0.0
 20
0.0
 30
0.0
  9
$EXTMIN
 10
0.0
 20
0.0
 30
0.0
  9
$EXTMAX
 10
594.0
 20
420.0
 30
0.0
  9
$LIMMIN
 10
0.0
 20
0.0
  9
$LIMMAX
 10
594.0
 20
420.0
  9
$ORTHOMODE
 70
     0
  9
$REGENMODE
 70
     1
  9
$FILLMODE
 70
     1
  9
$QTEXTMODE
 70
     0
  9
$MIRRTEXT
 70
     1
  9
$LTSCALE
 40
1.0
  9
$ATTMODE
 70
     1
  9
$TEXTSIZE
 40
2.5
  9
$TRACEWID
 40
1.0
  9
$TEXTSTYLE
  7
Standard
  9
$CLAYER
  8
0
  9
$CELTYPE
  6
ByLayer
  9
$CECOLOR
 62
   256
  9
$CELTSCALE
 40
1.0
  9
$DISPSILH
 70
     0
  9
$DIMSCALE
 40
1.0
  9
$DIMASZ
 40
2.5
  9
$DIMEXO
 40
0.5
  9
$DIMDLI
 40
3.75
  9
$DIMRND
 40
0.0
  9
$DIMDLE
 40
0.0
  9
$DIMEXE
 40
1.0
  9
$DIMTP
 40
0.0
  9
$DIMTM
 40
0.0
  9
$DIMTXT
 40
2.5
  9
$DIMCEN
 40
2.5
  9
$DIMTSZ
 40
0.0
  9
$DIMTOL
 70
     0
  9
$DIMLIM
 70
     0
  9
$DIMTIH
 70
     1
  9
$DIMTOH
 70
     1
  9
$DIMSE1
 70
     0
  9
$DIMSE2
 70
     0
  9
$DIMTAD
 70
     1
  9
$DIMZIN
 70
     0
  9
$DIMBLK
  1

  9
$DIMASO
 70
     1
  9
$DIMSHO
 70
     1
  9
$DIMPOST
  1

  9
$DIMAPOST
  1

  9
$DIMALT
 70
     0
  9
$DIMALTD
 70
     3
  9
$DIMALTF
 40
0.0393700787
  9
$DIMLFAC
 40
1.0
  9
$DIMTOFL
 70
     1
  9
$DIMTVP
 40
0.0
  9
$DIMTIX
 70
     0
  9
$DIMSOXD
 70
     0
  9
$DIMSAH
 70
     0
  9
$DIMBLK1
  1

  9
$DIMBLK2
  1

  9
$DIMSTYLE
  2
ISO-25
  9
$DIMCLRD
 70
     0
  9
$DIMCLRE
 70
     0
  9
$DIMCLRT
 70
     0
  9
$DIMTFAC
 40
1.0
  9
$DIMGAP
 40
1.524
  9
$DIMJUST
 70
     0
  9
$DIMSD1
 70
     0
  9
$DIMSD2
 70
     0
  9
$DIMTOLJ
 70
     0
  9
$DIMTZIN
 70
     0
  9
$DIMALTZ
 70
     0
  9
$DIMALTTZ
 70
     0
  9
$DIMUPT
 70
     0
  9
$DIMDEC
 70
     2
  9
$DIMTDEC
 70
     2
  9
$DIMALTU
 70
     2
  9
$DIMALTTD
 70
     3
  9
$DIMTXSTY
  7
Standard
  9
$DIMAUNIT
 70
     0
  9
$DIMADEC
 70
     2
  9
$DIMALTRND
 40
0.0
  9
$DIMAZIN
 70
     0
  9
$DIMDSEP
 70
    44
  9
$DIMATFIT
 70
     3
  9
$DIMFRAC
 70
     0
  9
$DIMLDRBLK
  1

  9
$DIMLUNIT
 70
     2
  9
$DIMLWD
 70
    -2
  9
$DIMLWE
 70
    -2
  9
$DIMTMOVE
 70
     0
  9
$LUNITS
 70
     2
  9
$LUPREC
 70
     2
  9
$SKETCHINC
 40
1.0
  9
$FILLETRAD
 40
10.0
  9
$AUNITS
 70
     0
  9
$AUPREC
 70
     2
  9
$MENU
  1
.
  9
$ELEVATION
 40
0.0
  9
$PELEVATION
 40
0.0
  9
$THICKNESS
 40
0.0
  9
$LIMCHECK
 70
     0
  9
$CHAMFERA
 40
0.0
  9
$CHAMFERB
 40
0.0
  9
$CHAMFERC
 40
0.0
  9
$CHAMFERD
 40
0.0
  9
$SKPOLY
 70
     0
  9
$TDCREATE
 40
2459723.528833935
  9
$TDUCREATE
 40
2459723.153833935
  9
$TDUPDATE
 40
2459723.528835162
  9
$TDUUPDATE
 40
2459723.153835162
  9
$TDINDWG
 40
0.0000000116
  9
$TDUSRTIMER
 40
0.0000000116
  9
$USRTIMER
 70
     1
  9
$ANGBASE
 50
0.0
  9
$ANGDIR
 70
     0
  9
$PDMODE
 70
     0
  9
$PDSIZE
 40
-1.0
  9
$PLINEWID
 40
0.0
  9
$SPLFRAME
 70
     0
  9
$SPLINETYPE
 70
     6
  9
$SPLINESEGS
 70
     8
  9
$HANDSEED
  5
2AB
  9
$SURFTAB1
 70
     6
  9
$SURFTAB2
 70
     6
  9
$SURFTYPE
 70
     6
  9
$SURFU
 70
     6
  9
$SURFV
 70
     6
  9
$UCSBASE
  2

  9
$UCSNAME
  2

  9
$UCSORG
 10
0.0
 20
0.0
 30
0.0
  9
$UCSXDIR
 10
1.0
 20
0.0
 30
0.0
  9
$UCSYDIR
 10
0.0
 20
1.0
 30
0.0
  9
$UCSORTHOREF
  2

  9
$UCSORTHOVIEW
 70
     0
  9
$UCSORGTOP
 10
0.0
 20
0.0
 30
0.0
  9
$UCSORGBOTTOM
 10
0.0
 20
0.0
 30
0.0
  9
$UCSORGLEFT
 10
0.0
 20
0.0
 30
0.0
  9
$UCSORGRIGHT
 10
0.0
 20
0.0
 30
0.0
  9
$UCSORGFRONT
 10
0.0
 20
0.0
 30
0.0
  9
$UCSORGBACK
 10
0.0
 20
0.0
 30
0.0
  9
$PUCSBASE
  2

  9
$PUCSNAME
  2

  9
$PUCSORG
 10
0.0
 20
0.0
 30
0.0
  9
$PUCSXDIR
 10
1.0
 20
0.0
 30
0.0
  9
$PUCSYDIR
 10
0.0
 20
1.0
 30
0.0
  9
$PUCSORTHOREF
  2

  9
$PUCSORTHOVIEW
 70
     0
  9
$PUCSORGTOP
 10
0.0
 20
0.0
 30
0.0
  9
$PUCSORGBOTTOM
 10
0.0
 20
0.0
 30
0.0
  9
$PUCSORGLEFT
 10
0.0
 20
0.0
 30
0.0
  9
$PUCSORGRIGHT
 10
0.0
 20
0.0
 30
0.0
  9
$PUCSORGFRONT
 10
0.0
 20
0.0
 30
0.0
  9
$PUCSORGBACK
 10
0.0
 20
0.0
 30
0.0
  9
$USERI1
 70
     0
  9
$USERI2
 70
     0
  9
$USERI3
 70
     0
  9
$USERI4
 70
     0
  9
$USERI5
 70
     0
  9
$USERR1
 40
0.0
  9
$USERR2
 40
0.0
  9
$USERR3
 40
0.0
  9
$USERR4
 40
0.0
  9
$USERR5
 40
0.0
  9
$WORLDVIEW
 70
     1
  9
$SHADEDGE
 70
     3
  9
$SHADEDIF
 70
    70
  9
$TILEMODE
 70
     1
  9
$MAXACTVP
 70
    64
  9
$PINSBASE
 10
0.0
 20
0.0
 30
0.0
  9
$PLIMCHECK
 70
     0
  9
$PEXTMIN
 10
1.0000000000E+20
 20
1.0000000000E+20
 30
1.0000000000E+20
  9
$PEXTMAX
 10
-1.0000000000E+20
 20
-1.0000000000E+20
 30
-1.0000000000E+20
  9
$PLIMMIN
 10
0.0
 20
0.0
  9
$PLIMMAX
 10
420.0
 20
297.0
  9
$UNITMODE
 70
     0
  9
$VISRETAIN
 70
     1
  9
$PLINEGEN
 70
     0
  9
$PSLTSCALE
 70
     1
  9
$TREEDEPTH
 70
  3020
  9
$CMLSTYLE
  2
Standard
  9
$CMLJUST
 70
     0
  9
$CMLSCALE
 40
20.0
  9
$PROXYGRAPHICS
 70
     1
  9
$MEASUREMENT
 70
     1
  9
$CELWEIGHT
370
    -1
  9
$ENDCAPS
280
     0
  9
$JOINSTYLE
280
     0
  9
$LWDISPLAY
290
     1
  9
$INSUNITS
 70
     4
  9
$HYPERLINKBASE
  1

  9
$STYLESHEET
  1

  9
$XEDIT
290
     1
  9
$CEPSNTYPE
380
     0
  9
$PSTYLEMODE
290
     1
  9
$FINGERPRINTGUID
  2
{1272b32d-6f47-4469-938c-21f01332f44e}
  9
$VERSIONGUID
  2
{FAEB1C32-E019-11D5-929B-00C0DF256EC4}
  9
$EXTNAMES
290
     1
  9
$PSVPSCALE
 40
0.0
  9
$OLESTARTUP
290
     0
  0
ENDSEC
  0
SECTION
  2
CLASSES
  0
CLASS
  1
ACDBDICTIONARYWDFLT
  2
AcDbDictionaryWithDefault
  3
ObjectDBX Classes
 90
        0
280
     0
281
     0
  0
CLASS
  1
VISUALSTYLE
  2
AcDbVisualStyle
  3
ObjectDBX Classes
 90
     4095
280
     0
281
     0
  0
CLASS
  1
MATERIAL
  2
AcDbMaterial
  3
ObjectDBX Classes
 90
     1153
280
     0
281
     0
  0
CLASS
  1
SCALE
  2
AcDbScale
  3
ObjectDBX Classes
 90
     1153
280
     0
281
     0
  0
CLASS
  1
TABLESTYLE
  2
AcDbTableStyle
  3
ObjectDBX Classes
 90
     4095
280
     0
281
     0
  0
CLASS
  1
MLEADERSTYLE
  2
AcDbMLeaderStyle
  3
ACDB_MLEADERSTYLE_CLASS
 90
     4095
280
     0
281
     0
  0
CLASS
  1
SUN
  2
AcDbSun
  3
SCENEOE
 90
     1153
280
     0
281
     0
  0
CLASS
  1
ACDBPLACEHOLDER
  2
AcDbPlaceHolder
  3
ObjectDBX Classes
 90
        0
280
     0
281
     0
  0
CLASS
  1
LAYOUT
  2
AcDbLayout
  3
ObjectDBX Classes
 90
        0
280
     0
281
     0
  0
ENDSEC
  0
SECTION
  2
TABLES
  0
TABLE
  2
VPORT
  5
8
330
0
100
AcDbSymbolTable
 70
     1
  0
VPORT
  5
29
330
8
100
AcDbSymbolTableRecord
100
AcDbViewportTableRecord
  2
*Active
 70
     0
 10
0.0
 20
0.0
 11
1.0
 21
1.0
 12
297.0
 22
210.0
 13
0.0
 23
0.0
 14
10.0
 24
10.0
 15
10.0
 25
10.0
 16
0.0
 26
0.0
 36
1.0
 17
0.0
 27
0.0
 37
0.0
 40
420.0
 41
1.4142857143
 42
50.0
 43
0.0
 44
0.0
 50
0.0
 51
0.0
 71
     0
 72
  2000
 73
     1
 74
     3
 75
     0
 76
     0
 77
     0
 78
     0
281
     0
 65
     1
110
0.0
120
0.0
130
0.0
111
1.0
121
0.0
131
0.0
112
0.0
122
1.0
132
0.0
 79
     0
146
0.0
  0
ENDTAB
  0
TABLE
  2
LTYPE
  5
5
330
0
100
AcDbSymbolTable
 70
     6
  0
LTYPE
  5
14
330
5
100
AcDbSymbolTableRecord
100
AcDbLinetypeTableRecord
  2
ByBlock
 70
     0
  3

 72
    65
 73
     0
 40
0.0
  0
LTYPE
  5
15
330
5
100
AcDbSymbolTableRecord
100
AcDbLinetypeTableRecord
  2
ByLayer
 70
     0
  3

 72
    65
 73
     0
 40
0.0
  0
LTYPE
  5
16
330
5
100
AcDbSymbolTableRecord
100
AcDbLinetypeTableRecord
  2
Continuous
 70
     0
  3
Solid line
 72
    65
 73
     0
 40
0.0
  0
LTYPE
  5
6E
330
5
100
AcDbSymbolTableRecord
100
AcDbLinetypeTableRecord
  2
HIDDEN
 70
     0
  3
Hidden __ __ __ __ __ __ __ __ __ __ __ __ __ __
 72
    65
 73
     2
 40
1.905
 49
1.27
 74
     0
 49
-0.635
 74
     0
  0
LTYPE
  5
6F
330
5
100
AcDbSymbolTableRecord
100
AcDbLinetypeTableRecord
  2
PHANTOM
 70
     0
  3
Phantom ______  __  __  ______  __  __  ______
 72
    65
 73
     6
 40
12.7
 49
6.35
 74
     0
 49
-1.27
 74
     0
 49
1.27
 74
     0
 49
-1.27
 74
     0
 49
1.27
 74
     0
 49
-1.27
 74
     0
  0
LTYPE
  5
70
330
5
100
AcDbSymbolTableRecord
100
AcDbLinetypeTableRecord
  2
CENTER
 70
     0
  3
Center ____ _ ____ _ ____ _ ____ _ ____ _ ____
 72
    65
 73
     4
 40
10.16
 49
6.35
 74
     0
 49
-1.27
 74
     0
 49
1.27
 74
     0
 49
-1.27
 74
     0
  0
LTYPE
  5
71
330
5
100
AcDbSymbolTableRecord
100
AcDbLinetypeTableRecord
  2
CENTERX2
 70
     0
  3
Center (2x) ________  __  ________  __  _____
 72
    65
 73
     4
 40
20.32
 49
12.7
 74
     0
 49
-2.54
 74
     0
 49
2.54
 74
     0
 49
-2.54
 74
     0
  0
LTYPE
  5
72
330
5
100
AcDbSymbolTableRecord
100
AcDbLinetypeTableRecord
  2
DOT2
 70
     0
  3
Dot (.5x) ........................................
 72
    65
 73
     2
 40
0.635
 49
0.0
 74
     0
 49
-0.635
 74
     0
  0
ENDTAB
  0
TABLE
  2
LAYER
  5
2
330
0
100
AcDbSymbolTable
 70
    11
  0
LAYER
  5
10
330
2
100
AcDbSymbolTableRecord
100
AcDbLayerTableRecord
  2
0
 70
     0
 62
     7
  6
Continuous
370
    -3
390
F
  0
LAYER
  5
73
330
2
100
AcDbSymbolTableRecord
100
AcDbLayerTableRecord
  2
寸法
 70
     0
 62
     7
  6
Continuous
370
    -3
390
F
  0
LAYER
  5
74
330
2
100
AcDbSymbolTableRecord
100
AcDbLayerTableRecord
  2
FORMAT
 70
     0
 62
     7
  6
Continuous
370
    -3
390
F
  0
LAYER
  5
75
330
2
100
AcDbSymbolTableRecord
100
AcDbLayerTableRecord
  2
外形線
 70
     0
 62
     7
  6
Continuous
370
    25
390
F
  0
LAYER
  5
76
330
2
100
AcDbSymbolTableRecord
100
AcDbLayerTableRecord
  2
注記
 70
     0
 62
   196
  6
Continuous
370
    -3
390
F
  0
LAYER
  5
77
330
2
100
AcDbSymbolTableRecord
100
AcDbLayerTableRecord
  2
図枠
 70
     0
 62
     7
  6
Continuous
370
    -3
390
F
  0
LAYER
  5
78
330
2
100
AcDbSymbolTableRecord
100
AcDbLayerTableRecord
  2
隠れ線
 70
     0
 62
     7
  6
HIDDEN
370
    -3
390
F
  0
LAYER
  5
79
330
2
100
AcDbSymbolTableRecord
100
AcDbLayerTableRecord
  2
特殊指定線
 70
     0
 62
   196
  6
PHANTOM
370
    35
390
F
  0
LAYER
  5
7A
330
2
100
AcDbSymbolTableRecord
100
AcDbLayerTableRecord
  2
想像線
 70
     0
 62
     7
  6
PHANTOM
370
    -3
390
F
  0
LAYER
  5
7B
330
2
100
AcDbSymbolTableRecord
100
AcDbLayerTableRecord
  2
モデル寸法
 70
     0
 62
     5
  6
Continuous
370
    -3
390
F
  0
LAYER
  5
7C
330
2
100
AcDbSymbolTableRecord
100
AcDbLayerTableRecord
  2
改定記号
 70
     0
 62
   216
  6
Continuous
370
    -3
390
F
  0
ENDTAB
  0
TABLE
  2
STYLE
  5
3
330
0
100
AcDbSymbolTable
 70
     1
  0
STYLE
  5
11
330
3
100
AcDbSymbolTableRecord
100
AcDbTextStyleTableRecord
  2
Standard
 70
     0
 40
0.0
 41
1.0
 50
0.0
 71
     0
 42
2.5
  3
txt
  4
bigfont
  0
ENDTAB
  0
TABLE
  2
VIEW
  5
6
330
0
100
AcDbSymbolTable
 70
     0
  0
ENDTAB
  0
TABLE
  2
UCS
  5
7
330
0
100
AcDbSymbolTable
 70
     0
  0
ENDTAB
  0
TABLE
  2
APPID
  5
9
330
0
100
AcDbSymbolTable
 70
     1
  0
APPID
  5
12
330
9
100
AcDbSymbolTableRecord
100
AcDbRegAppTableRecord
  2
ACAD
 70
     0
  0
ENDTAB
  0
TABLE
  2
DIMSTYLE
  5
A
330
0
100
AcDbSymbolTable
 70
     1
100
AcDbDimStyleTable
  0
DIMSTYLE
105
27
330
A
100
AcDbSymbolTableRecord
100
AcDbDimStyleTableRecord
  2
ISO-25
 70
     0
 41
2.5
 42
0.625
 43
3.75
 44
1.25
 73
     0
 74
     0
 77
     1
 78
     8
140
2.5
141
2.5
143
0.0393700787
147
0.625
171
     3
172
     1
178
     0
271
     2
272
     2
274
     3
278
    44
283
     0
284
     8
340
11
  0
ENDTAB
  0
TABLE
  2
BLOCK_RECORD
  5
1
330
0
100
AcDbSymbolTable
 70
     1
  0
BLOCK_RECORD
  5
1F
330
1
100
AcDbSymbolTableRecord
100
AcDbBlockTableRecord
  2
*Model_Space
340
22
  0
BLOCK_RECORD
  5
1B
330
1
100
AcDbSymbolTableRecord
100
AcDbBlockTableRecord
  2
*Paper_Space
340
1E
  0
BLOCK_RECORD
  5
23
330
1
100
AcDbSymbolTableRecord
100
AcDbBlockTableRecord
  2
*Paper_Space0
340
26
  0
ENDTAB
  0
ENDSEC
  0
SECTION
  2
BLOCKS
  0
BLOCK
  5
20
330
1F
100
AcDbEntity
  8
0
100
AcDbBlockBegin
  2
*Model_Space
 70
     0
 10
0.0
 20
0.0
 30
0.0
  3
*Model_Space
  1

  0
ENDBLK
  5
21
330
1F
100
AcDbEntity
  8
0
100
AcDbBlockEnd
  0
BLOCK
  5
1C
330
1B
100
AcDbEntity
 67
     1
  8
0
100
AcDbBlockBegin
  2
*Paper_Space
 70
     0
 10
0.0
 20
0.0
 30
0.0
  3
*Paper_Space
  1

  0
ENDBLK
  5
1D
330
1B
100
AcDbEntity
 67
     1
  8
0
100
AcDbBlockEnd
  0
BLOCK
  5
24
330
23
100
AcDbEntity
  8
0
100
AcDbBlockBegin
  2
*Paper_Space0
 70
     0
 10
0.0
 20
0.0
 30
0.0
  3
*Paper_Space0
  1

  0
ENDBLK
  5
25
330
23
100
AcDbEntity
  8
0
100
AcDbBlockEnd
  0
ENDSEC
  0
SECTION
  2
ENTITIES
  0
CIRCLE
  5
7D
330
1F
100
AcDbEntity
  8
0
  6
Continuous
 62
     7
370
    25
100
AcDbCircle
 10
237.7127923427
 20
139.7908194537
 30
0.0
 40
0.3500000000000227
  0
LWPOLYLINE
  5
7E
330
1F
100
AcDbEntity
  8
0
  6
Continuous
 62
     7
370
    25
100
AcDbPolyline
 90
       10
 70
   128
 43
0.0
 10
211.8056223966
 20
121.8280473507
 10
211.8607133321
 20
123.5866720956
 10
211.9098570504
 20
125.4085069892
 10
211.9528557452
 20
127.2862190352
 10
211.9895363441
 20
129.2122503282
 10
212.0197512053
 20
131.1788484753
 10
212.0433787124
 20
133.1780977992
 10
212.0603237631
 20
135.2019511996
 10
212.0705181525
 20
137.2422625436
 10
212.0739208477
 20
139.2908194538
  0
LWPOLYLINE
  5
7F
330
1F
100
AcDbEntity
  8
0
  6
Continuous
 62
     7
370
    25
100
AcDbPolyline
 90
       10
 70
   128
 43
0.0
 10
263.3516638378
 20
139.2908194538
 10
263.3550665327
 20
137.2422626103
 10
263.3652609215
 20
135.2019513323
 10
263.3822059711
 20
133.1780979961
 10
263.4058334766
 20
131.1788487342
 10
263.436048336
 20
129.2122506459
 10
263.4727289325
 20
127.2862194076
 10
263.5157276245
 20
125.4085074118
 10
263.5648713398
 20
123.5866725631
 10
263.6199622719
 20
121.828047857
  0
LINE
  5
80
330
1F
100
AcDbEntity
  8
0
  6
Continuous
 62
     7
370
    25
100
AcDbLine
 10
211.7478350211
 20
121.8080720399
 30
0.0
 11
211.7478350211
 21
140.0888980831
 31
0.0
  0
LINE
  5
81
330
1F
100
AcDbEntity
  8
0
  6
Continuous
 62
     7
370
    25
100
AcDbLine
 10
263.6777496644
 20
140.0888980831
 30
0.0
 11
263.6777496644
 21
121.8080725582
 31
0.0
  0
SPLINE
  5
82
330
1F
100
AcDbEntity
  8
0
  6
Continuous
 62
     7
370
    25
100
AcDbSpline
210
0.0
220
0.0
230
1.0
 70
     8
 71
     3
 72
    25
 73
    21
 74
     0
 42
0.00000001
 43
0.00000001
 40
0.0
 40
0.0
 40
0.0
 40
0.0
 40
0.0339336496987663
 40
0.0678636044237002
 40
0.1278650277667572
 40
0.1880464418983221
 40
0.2480472577497944
 40
0.3098374750507435
 40
0.3718245704510916
 40
0.4336144459631625
 40
0.4954043500909875
 40
0.5573907827486129
 40
0.6191789020548846
 40
0.6809058362173744
 40
0.7428283607069204
 40
0.8045541408434317
 40
0.8663897757305119
 40
0.9284213852625118
 40
0.9902521088705473
 40
0.9999999999999999
 40
0.9999999999999999
 40
0.9999999999999999
 40
0.9999999999999999
 10
212.4937045946486
 20
119.6499223055679
 30
0.0
 10
212.9075964369302
 20
119.1393848131216
 30
0.0
 10
213.7353350535582
 20
118.1183654197347
 30
0.0
 10
215.4343823427277
 20
116.3147426718207
 30
0.0
 10
217.6611836154819
 20
114.3193648555166
 30
0.0
 10
220.5024871335721
 20
112.2832223919136
 30
0.0
 10
223.5767374835891
 20
110.547229246521
 30
0.0
 10
226.8606086388679
 20
109.1567399477528
 30
0.0
 10
230.311085553865
 20
108.1290246064463
 30
0.0
 10
233.8547934456763
 20
107.4903556509658
 30
0.0
 10
237.4483598055942
 20
107.2628698677187
 30
0.0
 10
241.0444991291588
 20
107.434948846186
 30
0.0
 10
244.5985238875398
 20
108.0057426831987
 30
0.0
 10
248.0621173535798
 20
108.9808416144534
 30
0.0
 10
251.3952057077224
 20
110.3320408272235
 30
0.0
 10
254.5601233300038
 20
112.0457963132477
 30
0.0
 10
257.5097404594756
 20
114.1121887018776
 30
0.0
 10
260.2122309957858
 20
116.4941473418322
 30
0.0
 10
261.9568308890212
 20
118.4134556174217
 30
0.0
 10
262.8150102333278
 20
119.501719284935
 30
0.0
 10
262.9318808775632
 20
119.6499238260534
 30
0.0
  0
SPLINE
  5
83
330
1F
100
AcDbEntity
  8
0
  6
Continuous
 62
     7
370
    25
100
AcDbSpline
210
0.0
220
0.0
230
1.0
 70
     8
 71
     3
 72
     9
 73
     5
 74
     0
 42
0.00000001
 43
0.00000001
 40
0.0
 40
0.0
 40
0.0
 40
0.0
 40
0.4999976268777251
 40
1.0
 40
1.0
 40
1.0
 40
1.0
 10
212.4937045946486
 20
119.6499223055679
 30
0.0
 10
212.2787818181824
 20
119.9782961650208
 30
0.0
 10
211.8489342250884
 20
120.6350470010268
 30
0.0
 10
211.7815348623869
 20
121.4170624564058
 30
0.0
 10
211.7478350210893
 20
121.8080720399136
 30
0.0
  0
SPLINE
  5
84
330
1F
100
AcDbEntity
  8
0
  6
Continuous
 62
     7
370
    25
100
AcDbSpline
210
0.0
220
0.0
230
1.0
 70
     8
 71
     3
 72
     9
 73
     5
 74
     0
 42
0.00000001
 43
0.00000001
 40
0.0
 40
0.0
 40
0.0
 40
0.0
 40
0.4999976269813166
 40
0.9999999999999999
 40
0.9999999999999999
 40
0.9999999999999999
 40
0.9999999999999999
 10
263.677749664388
 20
121.8080725581534
 30
0.0
 10
263.6440505180757
 20
121.4170669491142
 30
0.0
 10
263.5766519055749
 20
120.6350520195637
 30
0.0
 10
263.1468052335899
 20
119.9783009295452
 30
0.0
 10
262.9318808775632
 20
119.6499238260534
 30
0.0
  0
SPLINE
  5
85
330
1F
100
AcDbEntity
  8
0
  6
Continuous
 62
     7
370
    25
100
AcDbSpline
210
0.0
220
0.0
230
1.0
 70
     8
 71
     3
 72
    12
 73
     8
 74
     0
 42
0.00000001
 43
0.00000001
 40
0.0
 40
0.0
 40
0.0
 40
0.0
 40
0.2500000000000005
 40
0.2500000000000005
 40
0.500000000000001
 40
0.500000000000001
 40
1.0
 40
1.0
 40
1.0
 40
1.0
 10
265.3339118985775
 20
140.1666356755868
 30
0.0
 10
265.3234982741737
 20
140.1767801129024
 30
0.0
 10
265.2915772843728
 20
140.1861098547922
 30
0.0
 10
265.1863242872955
 20
140.2032006961142
 30
0.0
 10
265.1116684824148
 20
140.2110212013806
 30
0.0
 10
264.8334954959054
 20
140.2310262956847
 30
0.0
 10
264.570898285649
 20
140.2402035933603
 30
0.0
 10
264.2514494087529
 20
140.2443611283669
 30
0.0
  0
LINE
  5
86
330
1F
100
AcDbEntity
  8
0
  6
Continuous
 62
     7
370
    25
100
AcDbLine
 10
265.5075795454
 20
139.9974572523
 30
0.0
 11
265.3339118986
 21
140.1666356756
 31
0.0
  0
LINE
  5
87
330
1F
100
AcDbEntity
  8
0
  6
Continuous
 62
     7
370
    25
100
AcDbLine
 10
263.6101166132
 20
140.1548421399
 30
0.0
 11
263.876584395
 21
139.8950288348
 31
0.0
  0
LINE
  5
88
330
1F
100
AcDbEntity
  8
0
  6
Continuous
 62
     7
370
    25
100
AcDbLine
 10
211.5490002904
 20
139.8950288348
 30
0.0
 11
211.8154680723
 21
140.1548421399
 31
0.0
  0
LINE
  5
89
330
1F
100
AcDbEntity
  8
0
  6
Continuous
 62
     7
370
    25
100
AcDbLine
 10
210.0916727869
 20
140.1666356756
 30
0.0
 11
209.9180051401
 21
139.9974572523
 31
0.0
  0
SPLINE
  5
8A
330
1F
100
AcDbEntity
  8
0
  6
Continuous
 62
     7
370
    25
100
AcDbSpline
210
0.0
220
0.0
230
1.0
 70
     8
 71
     3
 72
    12
 73
     8
 74
     0
 42
0.00000001
 43
0.00000001
 40
0.0
 40
0.0
 40
0.0
 40
0.0
 40
0.25
 40
0.25
 40
0.5
 40
0.5
 40
1.0
 40
1.0
 40
1.0
 40
1.0
 10
211.1741352767244
 20
140.2443611283669
 30
0.0
 10
211.0144129192306
 20
140.2422823879467
 30
0.0
 10
210.8707010597628
 20
140.2390195113232
 30
0.0
 10
210.6140532117667
 20
140.2301234622064
 30
0.0
 10
210.5003712173939
 20
140.2244149901387
 30
0.0
 10
210.2218394862309
 20
140.2044298196817
 30
0.0
 10
210.1124998289982
 20
140.1869243488527
 30
0.0
 10
210.0916727868999
 20
140.1666356755874
 30
0.0
  0
SPLINE
  5
8B
330
1F
100
AcDbEntity
  8
0
  6
Continuous
 62
     7
370
    25
100
AcDbSpline
210
0.0
220
0.0
230
1.0
 70
     8
 71
     3
 72
    32
 73
    28
 74
     0
 42
0.00000001
 43
0.00000001
 40
0.0
 40
0.0
 40
0.0
 40
0.0
 40
0.1249999999999999
 40
0.1249999999999999
 40
0.2499999999999998
 40
0.2499999999999998
 40
0.3124999999999998
 40
0.3124999999999998
 40
0.3749999999999998
 40
0.3749999999999998
 40
0.4999999999999996
 40
0.4999999999999996
 40
0.5312499999999996
 40
0.5312499999999996
 40
0.5624999999999996
 40
0.5624999999999996
 40
0.6249999999999994
 40
0.6249999999999994
 40
0.7499999999999993
 40
0.7499999999999993
 40
0.7812499999999992
 40
0.7812499999999992
 40
0.8124999999999992
 40
0.8124999999999992
 40
0.8749999999999994
 40
0.8749999999999994
 40
1.0
 40
1.0
 40
1.0
 40
1.0
 10
264.2514494087529
 20
140.2443611283669
 30
0.0
 10
262.3345377550694
 20
140.2693091807196
 30
0.0
 10
260.3304339681211
 20
140.2912605592411
 30
0.0
 10
256.1558006721651
 20
140.3292572379471
 30
0.0
 10
253.9852533658161
 20
140.3453073270542
 30
0.0
 10
250.6007579093298
 20
140.3649618209287
 30
0.0
 10
249.4476506569386
 20
140.370782723586
 30
0.0
 10
247.139519815841
 20
140.3806903535139
 30
0.0
 10
245.9799013814425
 20
140.3848089291483
 30
0.0
 10
242.484723042867
 20
140.3946943117677
 30
0.0
 10
240.1329433722021
 20
140.3979963582478
 30
0.0
 10
237.1656828611447
 20
140.398049504534
 30
0.0
 10
236.5708457169144
 20
140.3978561235993
 30
0.0
 10
235.3783555727268
 20
140.397049935053
 30
0.0
 10
234.7806758601066
 20
140.3964358091927
 30
0.0
 10
232.9997260989327
 20
140.3939758030684
 30
0.0
 10
231.823043689553
 20
140.3915102613088
 30
0.0
 10
228.3240749172145
 20
140.3816804581859
 30
0.0
 10
226.0326731526746
 20
140.3718866873572
 30
0.0
 10
223.2204196864208
 20
140.355664922626
 30
0.0
 10
222.6605844387073
 20
140.3522215647341
 30
0.0
 10
221.5462198308753
 20
140.3449265235088
 30
0.0
 10
220.990685307867
 20
140.3410672839068
 30
0.0
 10
219.3398712918763
 20
140.3289171137267
 30
0.0
 10
218.2632673728732
 20
140.3200793303579
 30
0.0
 10
215.1039499221884
 20
140.2913735820541
 30
0.0
 10
213.0912754147326
 20
140.269312154376
 30
0.0
 10
211.1741352767244
 20
140.2443611283669
 30
0.0
  0
SPLINE
  5
8C
330
1F
100
AcDbEntity
  8
0
  6
Continuous
 62
     7
370
    25
100
AcDbSpline
210
0.0
220
0.0
230
1.0
 70
     8
 71
     3
 72
    38
 73
    34
 74
     0
 42
0.00000001
 43
0.00000001
 40
0.0
 40
0.0
 40
0.0
 40
0.0
 40
0.0312499999999999
 40
0.0312499999999999
 40
0.0624999999999998
 40
0.0624999999999998
 40
0.125
 40
0.125
 40
0.2500000000000005
 40
0.2500000000000005
 40
0.2812500000000006
 40
0.2812500000000006
 40
0.3125000000000008
 40
0.3125000000000008
 40
0.3750000000000008
 40
0.3750000000000008
 40
0.5000000000000009
 40
0.5000000000000009
 40
0.5625000000000008
 40
0.5625000000000008
 40
0.5937500000000009
 40
0.5937500000000009
 40
0.6250000000000009
 40
0.6250000000000009
 40
0.7500000000000007
 40
0.7500000000000007
 40
0.8125000000000006
 40
0.8125000000000006
 40
0.8750000000000003
 40
0.8750000000000003
 40
0.9375000000000002
 40
0.9375000000000002
 40
1.0
 40
1.0
 40
1.0
 40
1.0
 10
263.6101166132265
 20
140.1548421399444
 30
0.0
 10
263.1445439887117
 20
140.1616392484399
 30
0.0
 10
262.6712071180646
 20
140.168244107089
 30
0.0
 10
261.7159898963964
 20
140.1809830327153
 30
0.0
 10
261.2331344187602
 20
140.1871315211682
 30
0.0
 10
259.7690821989189
 20
140.2049310679398
 30
0.0
 10
258.7724248548539
 20
140.2159370463804
 30
0.0
 10
255.7216662125948
 20
140.2464762010366
 30
0.0
 10
253.6071751048123
 20
140.2635421139378
 30
0.0
 10
250.8608614248615
 20
140.28091218136
 30
0.0
 10
250.3064070364268
 20
140.2841863502318
 30
0.0
 10
249.1869228257307
 20
140.2903255535575
 30
0.0
 10
248.6213680573857
 20
140.2931917391332
 30
0.0
 10
246.9258713880846
 20
140.3010870703444
 30
0.0
 10
245.7915911249012
 20
140.3054462071447
 30
0.0
 10
242.3772470613622
 20
140.3158934294334
 30
0.0
 10
240.0857522464775
 20
140.3193608546889
 30
0.0
 10
236.625607970355
 20
140.3194588488748
 30
0.0
 10
235.4683914763656
 20
140.3186394491803
 30
0.0
 10
233.726640878295
 20
140.3160694994305
 30
0.0
 10
233.1437391011237
 20
140.3149856199822
 30
0.0
 10
231.9856473007975
 20
140.3123817237886
 30
0.0
 10
231.4098333549623
 20
140.3108619032375
 30
0.0
 10
228.5466649212149
 20
140.3021864472939
 30
0.0
 10
226.3067043183887
 20
140.2918135704018
 30
0.0
 10
223.0215180477188
 20
140.271205877254
 30
0.0
 10
221.9389756334572
 20
140.2634971484975
 30
0.0
 10
219.7994925020357
 20
140.2463104693076
 30
0.0
 10
218.7403684427966
 20
140.2368034559392
 30
0.0
 10
216.6780052937261
 20
140.2162120169626
 30
0.0
 10
215.671258828629
 20
140.2051040237156
 30
0.0
 10
213.7064665250763
 20
140.1812294565807
 30
0.0
 10
212.7466150129487
 20
140.1684363816321
 30
0.0
 10
211.8154680722508
 20
140.154842139944
 30
0.0
  0
SPLINE
  5
8D
330
1F
100
AcDbEntity
  8
0
  6
Continuous
 62
     7
370
    25
100
AcDbSpline
210
0.0
220
0.0
230
1.0
 70
     8
 71
     3
 72
     8
 73
     4
 74
     0
 42
0.00000001
 43
0.00000001
 40
0.0
 40
0.0
 40
0.0
 40
0.0
 40
1.0
 40
1.0
 40
1.0
 40
1.0
 10
210.8497204736705
 20
215.413442052795
 30
0.0
 10
210.866181940264
 20
215.4369866316923
 30
0.0
 10
210.8827507521661
 20
215.4604962698212
 30
0.0
 10
210.8994277158907
 20
215.483970710139
 30
0.0
  0
SPLINE
  5
8E
330
1F
100
AcDbEntity
  8
0
  6
Continuous
 62
     7
370
    25
100
AcDbSpline
210
0.0
220
0.0
230
1.0
 70
     8
 71
     3
 72
     8
 73
     4
 74
     0
 42
0.00000001
 43
0.00000001
 40
0.0
 40
0.0
 40
0.0
 40
0.0
 40
1.0
 40
1.0
 40
1.0
 40
1.0
 10
210.8994277158907
 20
215.4839707101389
 30
0.0
 10
210.9766787355771
 20
215.5927089961405
 30
0.0
 10
211.0561392397613
 20
215.7005365193575
 30
0.0
 10
211.1378703995388
 20
215.8074282289373
 30
0.0
  0
SPLINE
  5
8F
330
1F
100
AcDbEntity
  8
0
  6
Continuous
 62
     7
370
    25
100
AcDbSpline
210
0.0
220
0.0
230
1.0
 70
     8
 71
     3
 72
    42
 73
    38
 74
     0
 42
0.00000001
 43
0.00000001
 40
0.0
 40
0.0
 40
0.0
 40
0.0
 40
0.1250000000000002
 40
0.1250000000000002
 40
0.1562500000000002
 40
0.1562500000000002
 40
0.1875000000000002
 40
0.1875000000000002
 40
0.2500000000000002
 40
0.2500000000000002
 40
0.3125000000000002
 40
0.3125000000000002
 40
0.3437500000000002
 40
0.3437500000000002
 40
0.3750000000000002
 40
0.3750000000000002
 40
0.5000000000000001
 40
0.5000000000000001
 40
0.53125
 40
0.53125
 40
0.5625
 40
0.5625
 40
0.625
 40
0.625
 40
0.6875000000000001
 40
0.6875000000000001
 40
0.7187500000000002
 40
0.7187500000000002
 40
0.7500000000000002
 40
0.7500000000000002
 40
0.8749999999999999
 40
0.8749999999999999
 40
0.9062499999999999
 40
0.9062499999999999
 40
0.9374999999999998
 40
0.9374999999999998
 40
1.0
 40
1.0
 40
1.0
 40
1.0
 10
264.2877158164516
 20
215.8074262275686
 30
0.0
 10
262.718650256791
 20
217.8595220840523
 30
0.0
 10
260.9455631134769
 20
219.6923414567593
 30
0.0
 10
258.4835190294262
 20
221.7193100961678
 30
0.0
 10
257.9786720211338
 20
222.1113356129817
 30
0.0
 10
256.9437172203678
 20
222.8682371047633
 30
0.0
 10
256.4125592644913
 20
223.2337870351585
 30
0.0
 10
254.787208416745
 20
224.2841807144699
 30
0.0
 10
253.6734653389683
 20
224.9153982760834
 30
0.0
 10
251.3877722025871
 20
226.0446510007446
 30
0.0
 10
250.2158158539923
 20
226.5426717725693
 30
0.0
 10
248.414061320508
 20
227.1894390617955
 30
0.0
 10
247.8061555035594
 20
227.3882771562413
 30
0.0
 10
246.575456263488
 20
227.751889223111
 30
0.0
 10
245.9507571369482
 20
227.9170882534746
 30
0.0
 10
242.8133898808015
 20
228.6501303824444
 30
0.0
 10
240.2813128054773
 20
228.9398594819471
 30
0.0
 10
237.0892458760496
 20
228.9412845565961
 30
0.0
 10
236.4494672304762
 20
228.9233089969986
 30
0.0
 10
235.1671305523951
 20
228.8501831385408
 30
0.0
 10
234.5224765802364
 20
228.7947450661336
 30
0.0
 10
232.6040650194088
 20
228.5736545299916
 30
0.0
 10
231.3445776159427
 20
228.3539453992496
 30
0.0
 10
228.8633080148608
 20
227.7743648247067
 30
0.0
 10
227.6415286765937
 20
227.4144827536331
 30
0.0
 10
225.8373734870424
 20
226.7686647507153
 30
0.0
 10
225.2407521517341
 20
226.5356837969804
 30
0.0
 10
224.0572193391968
 20
226.0336272813979
 30
0.0
 10
223.4687898801824
 20
225.7637095484958
 30
0.0
 10
220.5862971424533
 20
224.3392712564183
 30
0.0
 10
218.4472974641741
 20
222.9556958402749
 30
0.0
 10
215.9784954728826
 20
220.9267417603266
 30
0.0
 10
215.4951093490635
 20
220.5057912744615
 30
0.0
 10
214.5495095195257
 20
219.6329515654339
 30
0.0
 10
214.0868522863256
 20
219.1804272315446
 30
0.0
 10
212.7475838327319
 20
217.7926131615228
 30
0.0
 10
211.9137797492089
 20
216.8221888858491
 30
0.0
 10
211.1378702641926
 20
215.807428334426
 30
0.0
  0
SPLINE
  5
90
330
1F
100
AcDbEntity
  8
0
  6
Continuous
 62
     7
370
    25
100
AcDbSpline
210
0.0
220
0.0
230
1.0
 70
     8
 71
     3
 72
     8
 73
     4
 74
     0
 42
0.00000001
 43
0.00000001
 40
0.0
 40
0.0
 40
0.0
 40
0.0
 40
1.0
 40
1.0
 40
1.0
 40
1.0
 10
264.5261546567463
 20
215.4839731657618
 30
0.0
 10
264.4484993374018
 20
215.5932811080673
 30
0.0
 10
264.3690169701078
 20
215.7010965326866
 30
0.0
 10
264.2877156559917
 20
215.8074261025052
 30
0.0
  0
SPLINE
  5
91
330
1F
100
AcDbEntity
  8
0
  6
Continuous
 62
     7
370
    25
100
AcDbSpline
210
0.0
220
0.0
230
1.0
 70
     8
 71
     3
 72
     8
 73
     4
 74
     0
 42
0.00000001
 43
0.00000001
 40
0.0
 40
0.0
 40
0.0
 40
0.0
 40
1.0
 40
1.0
 40
1.0
 40
1.0
 10
264.5758641678604
 20
215.4134408565456
 30
0.0
 10
264.5594019607892
 20
215.4369866597184
 30
0.0
 10
264.5428323938055
 20
215.4604975154697
 30
0.0
 10
264.5261546567463
 20
215.4839731657618
 30
0.0
  0
SPLINE
  5
92
330
1F
100
AcDbEntity
  8
0
  6
Continuous
 62
     7
370
    25
100
AcDbSpline
210
0.0
220
0.0
230
1.0
 70
     8
 71
     3
 72
    10
 73
     6
 74
     0
 42
0.00000001
 43
0.00000001
 40
0.0
 40
0.0
 40
0.0
 40
0.0
 40
0.5
 40
0.5
 40
1.0
 40
1.0
 40
1.0
 40
1.0
 10
264.5758641678603
 20
215.4134408565456
 30
0.0
 10
264.8866431577474
 20
214.9689353965888
 30
0.0
 10
265.1017424792032
 20
214.4777888163307
 30
0.0
 10
265.4022439348909
 20
213.4406920958356
 30
0.0
 10
265.4812542373693
 20
212.9130253909992
 30
0.0
 10
265.5188193179424
 20
212.3804715491596
 30
0.0
  0
SPLINE
  5
93
330
1F
100
AcDbEntity
  8
0
  6
Continuous
 62
     7
370
    25
100
AcDbSpline
210
0.0
220
0.0
230
1.0
 70
     8
 71
     3
 72
     8
 73
     4
 74
     0
 42
0.00000001
 43
0.00000001
 40
0.0
 40
0.0
 40
0.0
 40
0.0
 40
1.0
 40
1.0
 40
1.0
 40
1.0
 10
265.5188193179494
 20
212.3804715491612
 30
0.0
 10
265.5391173270714
 20
212.0927100809445
 30
0.0
 10
265.5495708660216
 20
211.8058906481801
 30
0.0
 10
265.5495708660212
 20
211.520071533783
 30
0.0
  0
SPLINE
  5
94
330
1F
100
AcDbEntity
  8
0
  6
Continuous
 62
     7
370
    25
100
AcDbSpline
210
0.0
220
0.0
230
1.0
 70
     8
 71
     3
 72
     8
 73
     4
 74
     0
 42
0.00000001
 43
0.00000001
 40
0.0
 40
0.0
 40
0.0
 40
0.0
 40
1.0
 40
1.0
 40
1.0
 40
1.0
 10
209.9067653675277
 20
212.3804715491599
 30
0.0
 10
209.8866905155319
 20
212.0958737420634
 30
0.0
 10
209.8760138194432
 20
211.8091692683701
 30
0.0
 10
209.8760138194432
 20
211.5200715337818
 30
0.0
  0
SPLINE
  5
95
330
1F
100
AcDbEntity
  8
0
  6
Continuous
 62
     7
370
    25
100
AcDbSpline
210
0.0
220
0.0
230
1.0
 70
     8
 71
     3
 72
    12
 73
     8
 74
     0
 42
0.00000001
 43
0.00000001
 40
0.0
 40
0.0
 40
0.0
 40
0.0
 40
0.2500000000000031
 40
0.2500000000000031
 40
0.5000000000000062
 40
0.5000000000000062
 40
1.0
 40
1.0
 40
1.0
 40
1.0
 10
210.8497204736705
 20
215.413442052795
 30
0.0
 10
210.6964013129382
 20
215.1941520487235
 30
0.0
 10
210.5643933713324
 20
214.959159730686
 30
0.0
 10
210.3397485670573
 20
214.4690803723156
 30
0.0
 10
210.2487118147228
 20
214.2180084792546
 30
0.0
 10
210.0259153912653
 20
213.4505474168847
 30
0.0
 10
209.9445996624484
 20
212.9168408903413
 30
0.0
 10
209.9067654313639
 20
212.38047155739
 30
0.0
  0
SPLINE
  5
96
330
1F
100
AcDbEntity
  8
0
  6
Continuous
 62
     7
370
    25
100
AcDbSpline
210
0.0
220
0.0
230
1.0
 70
     8
 71
     3
 72
    14
 73
    10
 74
     0
 42
0.00000001
 43
0.00000001
 40
0.0
 40
0.0
 40
0.0
 40
0.0
 40
0.25
 40
0.25
 40
0.5
 40
0.5
 40
0.75
 40
0.75
 40
1.0
 40
1.0
 40
1.0
 40
1.0
 10
265.5075795454151
 20
139.997457252323
 30
0.0
 10
265.5128009140818
 20
139.9923708534779
 30
0.0
 10
265.5178372352837
 20
139.9725759005933
 30
0.0
 10
265.5275367641728
 20
139.9033289535581
 30
0.0
 10
265.5321098211729
 20
139.853900839811
 30
0.0
 10
265.5400439637667
 20
139.7278387814091
 30
0.0
 10
265.5434568666789
 20
139.6500659940839
 30
0.0
 10
265.5482397345261
 20
139.4729364152037
 30
0.0
 10
265.5495708660341
 20
139.3753551453881
 30
0.0
 10
265.5495708660341
 20
139.2749002573536
 30
0.0
  0
LINE
  5
97
330
1F
100
AcDbEntity
  8
0
  6
Continuous
 62
     7
370
    25
100
AcDbLine
 10
265.549570866
 20
139.2749002574
 30
0.0
 11
265.549570866
 21
211.5200715338
 31
0.0
  0
SPLINE
  5
98
330
1F
100
AcDbEntity
  8
0
  6
Continuous
 62
     7
370
    25
100
AcDbSpline
210
0.0
220
0.0
230
1.0
 70
     8
 71
     3
 72
    12
 73
     8
 74
     0
 42
0.00000001
 43
0.00000001
 40
0.0
 40
0.0
 40
0.0
 40
0.0
 40
0.2499999999999999
 40
0.2499999999999999
 40
0.4999999999999998
 40
0.4999999999999998
 40
1.0
 40
1.0
 40
1.0
 40
1.0
 10
209.8760138194432
 20
139.2749002573541
 30
0.0
 10
209.8760138194432
 20
139.3749251751433
 30
0.0
 10
209.8773493867281
 20
139.4727692961523
 30
0.0
 10
209.8820738526816
 20
139.6483953470325
 30
0.0
 10
209.885462420986
 20
139.7263118898244
 30
0.0
 10
209.8973836209943
 20
139.916563375469
 30
0.0
 10
209.9075898553276
 20
139.987311197596
 30
0.0
 10
209.9180051400623
 20
139.9974572523237
 30
0.0
  0
LINE
  5
99
330
1F
100
AcDbEntity
  8
0
  6
Continuous
 62
     7
370
    25
100
AcDbLine
 10
209.8760138194
 20
211.5200715338
 30
0.0
 11
209.8760138194
 21
139.2749002574
 31
0.0
  0
SPLINE
  5
9A
330
1F
100
AcDbEntity
  8
0
  6
Continuous
 62
     7
370
    25
100
AcDbSpline
210
0.0
220
0.0
230
1.0
 70
     8
 71
     3
 72
     8
 73
     4
 74
     0
 42
0.00000001
 43
0.00000001
 40
0.0
 40
0.0
 40
0.0
 40
0.0
 40
1.0
 40
1.0
 40
1.0
 40
1.0
 10
209.4285767320417
 20
217.1298334279343
 30
0.0
 10
209.4291618618394
 20
217.1305814359395
 30
0.0
 10
209.4297471384689
 20
217.1313293386982
 30
0.0
 10
209.4303325605656
 20
217.1320771363939
 30
0.0
  0
SPLINE
  5
9B
330
1F
100
AcDbEntity
  8
0
  6
Continuous
 62
     7
370
    25
100
AcDbSpline
210
0.0
220
0.0
230
1.0
 70
     8
 71
     3
 72
    34
 73
    30
 74
     0
 42
0.00000001
 43
0.00000001
 40
0.0
 40
0.0
 40
0.0
 40
0.0
 40
0.1249999999999998
 40
0.1249999999999998
 40
0.1874999999999996
 40
0.1874999999999996
 40
0.2499999999999995
 40
0.2499999999999995
 40
0.3124999999999994
 40
0.3124999999999994
 40
0.3749999999999992
 40
0.3749999999999992
 40
0.499999999999999
 40
0.499999999999999
 40
0.5624999999999989
 40
0.5624999999999989
 40
0.6249999999999988
 40
0.6249999999999988
 40
0.6874999999999987
 40
0.6874999999999987
 40
0.7187499999999986
 40
0.7187499999999986
 40
0.7499999999999984
 40
0.7499999999999984
 40
0.8749999999999992
 40
0.8749999999999992
 40
0.9374999999999997
 40
0.9374999999999997
 40
1.0
 40
1.0
 40
1.0
 40
1.0
 10
209.4303325605656
 20
217.1320771363939
 30
0.0
 10
211.1144178246074
 20
219.2832687074525
 30
0.0
 10
213.0144927351686
 20
221.2111931787909
 30
0.0
 10
216.1832217154402
 20
223.7737279665202
 30
0.0
 10
217.2993406512286
 20
224.5757464472841
 30
0.0
 10
219.5913837620054
 20
226.032589062586
 30
0.0
 10
220.7710891775457
 20
226.6914706734599
 30
0.0
 10
223.1965396297898
 20
227.8728963365919
 30
0.0
 10
224.4422926070717
 20
228.3954239706311
 30
0.0
 10
227.0010504953373
 20
229.3016389348454
 30
0.0
 10
228.3209444510276
 20
229.6861910484438
 30
0.0
 10
232.2892254830266
 20
230.6010509912117
 30
0.0
 10
234.9695395375417
 20
230.9070998332327
 30
0.0
 10
239.0422115507841
 20
230.9102913528758
 30
0.0
 10
240.4148154144135
 20
230.8331651101208
 30
0.0
 10
243.1117455577375
 20
230.5270843182797
 30
0.0
 10
244.4431244481138
 20
230.2988241714374
 30
0.0
 10
247.072329368786
 20
229.6945916575659
 30
0.0
 10
248.3701554559112
 20
229.3186195393442
 30
0.0
 10
250.2912210598307
 20
228.6416369088432
 30
0.0
 10
250.9280040130742
 20
228.396793097031
 30
0.0
 10
252.1897556948041
 20
227.8696639528443
 30
0.0
 10
252.8101160328736
 20
227.5893539630088
 30
0.0
 10
255.860558051808
 20
226.1060162819026
 30
0.0
 10
258.1385034988157
 20
224.6607191756439
 30
0.0
 10
261.3110194911624
 20
222.1035751445209
 30
0.0
 10
262.3297166667161
 20
221.1823726450656
 30
0.0
 10
264.244369320636
 20
219.240886291462
 30
0.0
 10
265.1452329348053
 20
218.2172320788917
 30
0.0
 10
265.9889946914922
 20
217.1400678453905
 30
0.0
  0
SPLINE
  5
9C
330
1F
100
AcDbEntity
  8
0
  6
Continuous
 62
     7
370
    25
100
AcDbSpline
210
0.0
220
0.0
230
1.0
 70
     8
 71
     3
 72
    34
 73
    30
 74
     0
 42
0.00000001
 43
0.00000001
 40
0.0
 40
0.0
 40
0.0
 40
0.0
 40
0.1250000000000004
 40
0.1250000000000004
 40
0.1875000000000005
 40
0.1875000000000005
 40
0.2500000000000006
 40
0.2500000000000006
 40
0.3750000000000007
 40
0.3750000000000007
 40
0.5000000000000009
 40
0.5000000000000009
 40
0.562500000000001
 40
0.562500000000001
 40
0.625000000000001
 40
0.625000000000001
 40
0.687500000000001
 40
0.687500000000001
 40
0.7187500000000009
 40
0.7187500000000009
 40
0.7500000000000008
 40
0.7500000000000008
 40
0.8750000000000003
 40
0.8750000000000003
 40
0.9062500000000002
 40
0.9062500000000002
 40
0.9375000000000001
 40
0.9375000000000001
 40
1.0
 40
1.0
 40
1.0
 40
1.0
 10
212.4352545183404
 20
119.4904778517946
 30
0.0
 10
213.9449033081359
 20
117.5632280521332
 30
0.0
 10
215.6428295412123
 20
115.8437735592914
 30
0.0
 10
218.4613558950085
 20
113.5643881930604
 30
0.0
 10
219.4465744486259
 20
112.8550413631016
 30
0.0
 10
221.5120321700777
 20
111.5412186702885
 30
0.0
 10
222.5725204296549
 20
110.9493358854909
 30
0.0
 10
225.8324907337692
 20
109.3624394245912
 30
0.0
 10
228.1117845381859
 20
108.552939783378
 30
0.0
 10
232.8811998365742
 20
107.4529074075693
 30
0.0
 10
235.2826889852256
 20
107.1824521669462
 30
0.0
 10
238.9091908490633
 20
107.1810492985727
 30
0.0
 10
240.1238445802909
 20
107.248809703861
 30
0.0
 10
242.5544909750471
 20
107.525091284278
 30
0.0
 10
243.7504777856527
 20
107.7311368361906
 30
0.0
 10
246.1051751867485
 20
108.2741331027847
 30
0.0
 10
247.2638815990609
 20
108.61109849051
 30
0.0
 10
248.9739249965403
 20
109.2149328388082
 30
0.0
 10
249.5392591115109
 20
109.432647227593
 30
0.0
 10
250.660421566016
 20
109.90145801528
 30
0.0
 10
251.2173124926928
 20
110.1530759881981
 30
0.0
 10
253.9655864435698
 20
111.4909531158702
 30
0.0
 10
256.0030694283437
 20
112.7894742482135
 30
0.0
 10
258.3550691691889
 20
114.6886001176968
 30
0.0
 10
258.8156073887749
 20
115.0823925969048
 30
0.0
 10
259.7166458347733
 20
115.8983576479793
 30
0.0
 10
260.1581710979809
 20
116.321582187048
 30
0.0
 10
261.4447436461601
 20
117.6275851897957
 30
0.0
 10
262.2452021507612
 20
118.5392323639207
 30
0.0
 10
262.9903293342458
 20
119.4904767667314
 30
0.0
  0
SPLINE
  5
9D
330
1F
100
AcDbEntity
  8
0
  6
Continuous
 62
     7
370
    25
100
AcDbSpline
210
0.0
220
0.0
230
1.0
 70
     8
 71
     3
 72
     8
 73
     4
 74
     0
 42
0.00000001
 43
0.00000001
 40
0.0
 40
0.0
 40
0.0
 40
0.0
 40
1.0
 40
1.0
 40
1.0
 40
1.0
 10
265.9889946901196
 20
217.1400678403964
 30
0.0
 10
265.991081009724
 20
217.1374045599167
 30
0.0
 10
265.993166957662
 20
217.1347410161103
 30
0.0
 10
265.9952525429882
 20
217.1320772434196
 30
0.0
  0
ARC
  5
9E
330
1F
100
AcDbEntity
  8
0
  6
Continuous
 62
     7
370
    25
100
AcDbCircle
 10
237.7127923427
 20
194.9908194538
 30
0.0
 40
36.75438833617343
100
AcDbArc
 50
37.4839270694
 51
142.5160729306
  0
SPLINE
  5
9F
330
1F
100
AcDbEntity
  8
0
  6
Continuous
 62
     7
370
    25
100
AcDbSpline
210
0.0
220
0.0
230
1.0
 70
     8
 71
     3
 72
    32
 73
    28
 74
     0
 42
0.00000001
 43
0.00000001
 40
0.0
 40
0.0
 40
0.0
 40
0.0
 40
0.1250000000000001
 40
0.1250000000000001
 40
0.1875000000000001
 40
0.1875000000000001
 40
0.2500000000000002
 40
0.2500000000000002
 40
0.3125000000000002
 40
0.3125000000000002
 40
0.3750000000000002
 40
0.3750000000000002
 40
0.5000000000000001
 40
0.5000000000000001
 40
0.5625000000000002
 40
0.5625000000000002
 40
0.6250000000000001
 40
0.6250000000000001
 40
0.6875000000000001
 40
0.6875000000000001
 40
0.75
 40
0.75
 40
0.8750000000000001
 40
0.8750000000000001
 40
0.9375
 40
0.9375
 40
1.0
 40
1.0
 40
1.0
 40
1.0
 10
265.9895583825286
 20
117.1422907161579
 30
0.0
 10
264.3048406551274
 20
114.9914125723616
 30
0.0
 10
262.4042275966559
 20
113.0639646258299
 30
0.0
 10
259.2349099566733
 20
110.5023031221686
 30
0.0
 10
258.1185860976801
 20
109.7005684603098
 30
0.0
 10
255.8260661796884
 20
108.2442556387391
 30
0.0
 10
254.6461591871276
 20
107.5856678277742
 30
0.0
 10
252.2203856071815
 20
106.4048702516264
 30
0.0
 10
250.9745185722741
 20
105.8826614111008
 30
0.0
 10
248.4156060775715
 20
104.9771418290359
 30
0.0
 10
247.0956012791519
 20
104.5929439276327
 30
0.0
 10
243.1268915133193
 20
103.6790791712607
 30
0.0
 10
240.4464694415484
 20
103.3737560131096
 30
0.0
 10
236.3739141548634
 20
103.3716410712426
 30
0.0
 10
235.0013134599008
 20
103.4491435478489
 30
0.0
 10
232.3043376309601
 20
103.7559560841413
 30
0.0
 10
230.9729791620418
 20
103.9845652027952
 30
0.0
 10
228.3439113876198
 20
104.5895123592124
 30
0.0
 10
227.0461981713225
 20
104.9658332062595
 30
0.0
 10
224.4850898861939
 20
105.8691407969616
 30
0.0
 10
223.2167537350261
 20
106.3994428059498
 30
0.0
 10
219.5565373610891
 20
108.1805202113711
 30
0.0
 10
217.2789772046462
 20
109.6264677855056
 30
0.0
 10
214.1072505381782
 20
112.1844058795607
 30
0.0
 10
213.0887959603013
 20
113.1058894121285
 30
0.0
 10
211.1746182637824
 20
115.0479565213017
 30
0.0
 10
210.2740192754478
 20
116.0718799906013
 30
0.0
 10
209.4305461757143
 20
117.1492887873471
 30
0.0
  0
SPLINE
  5
A0
330
1F
100
AcDbEntity
  8
0
  6
Continuous
 62
     7
370
    25
100
AcDbSpline
210
0.0
220
0.0
230
1.0
 70
    11
 71
     3
 72
    71
 73
    67
 74
     0
 42
0.00000001
 43
0.00000001
 40
0.0
 40
0.0
 40
0.0
 40
0.0
 40
0.0156362662490012
 40
0.0313111997811283
 40
0.046850315027592
 40
0.0623968156321714
 40
0.078062117462505
 40
0.0936150128493105
 40
0.1091124735811286
 40
0.1247068727817507
 40
0.1403247054697274
 40
0.155826682065644
 40
0.1713657067402378
 40
0.1870307948761956
 40
0.2025849243618041
 40
0.2181179747175577
 40
0.2337800866657547
 40
0.2494225386858255
 40
0.2649830102868242
 40
0.2806114018941337
 40
0.2963443938410472
 40
0.3119563852588564
 40
0.3275687304612585
 40
0.3433184746628004
 40
0.3590012648648969
 40
0.3746127547470344
 40
0.3903030684297072
 40
0.4060561110179678
 40
0.421676704924137
 40
0.4373053277824969
 40
0.4530606832184584
 40
0.4687722754052221
 40
0.4845078292918963
 40
0.5001657361445107
 40
0.5157176887734023
 40
0.5313139435471731
 40
0.5469951115283659
 40
0.5625360897415326
 40
0.5780595622246997
 40
0.5937062159446622
 40
0.6092784809379391
 40
0.6247745754827091
 40
0.640348030082616
 40
0.655987061465205
 40
0.6715039766293902
 40
0.6870413330048121
 40
0.7027127234741002
 40
0.7182909943409134
 40
0.7338309397088147
 40
0.7494812550071149
 40
0.765158776553885
 40
0.7807316475271786
 40
0.7963480872319049
 40
0.8120954577668277
 40
0.8277297639430488
 40
0.8433354765751058
 40
0.8590641642686567
 40
0.8747790651308598
 40
0.8903925479428487
 40
0.9060574913801965
 40
0.9218194626618699
 40
0.9374469337785594
 40
0.9530590137542444
 40
0.9687898719234919
 40
0.9844339985418834
 40
0.9999999999999999
 40
0.9999999999999999
 40
0.9999999999999999
 40
0.9999999999999999
 10
234.6046837357106
 20
102.7457521641515
 30
0.0
 10
234.4997811366534
 20
102.7582094411649
 30
0.0
 10
234.2996452710994
 20
102.7835875849329
 30
0.0
 10
234.0327951283346
 20
102.8217313578933
 30
0.0
 10
233.8014860258425
 20
102.8588628823164
 30
0.0
 10
233.6073582006623
 20
102.8940082386969
 30
0.0
 10
233.45242325239
 20
102.9262142990879
 30
0.0
 10
233.3384902230833
 20
102.9545915289301
 30
0.0
 10
233.2665010575767
 20
102.9784742185166
 30
0.0
 10
233.2371008156042
 20
102.9974218638679
 30
0.0
 10
233.2509275065284
 20
103.0110728036707
 30
0.0
 10
233.3076955225199
 20
103.0193332641545
 30
0.0
 10
233.4068626841984
 20
103.0223497849105
 30
0.0
 10
233.5477475520665
 20
103.0204006332049
 30
0.0
 10
233.7287798378698
 20
103.0139875189229
 30
0.0
 10
233.9479560232774
 20
103.0037886784085
 30
0.0
 10
234.2037005412213
 20
102.9905499608285
 30
0.0
 10
234.4933238351941
 20
102.9751559995771
 30
0.0
 10
234.8134777848394
 20
102.9585650536727
 30
0.0
 10
235.1619324067069
 20
102.9416696444302
 30
0.0
 10
235.535260176299
 20
102.9254016291732
 30
0.0
 10
235.9293106868002
 20
102.9106455091167
 30
0.0
 10
236.3405276036961
 20
102.8981385173299
 30
0.0
 10
236.765561731349
 20
102.8885118469824
 30
0.0
 10
237.1997008536607
 20
102.8822759682618
 30
0.0
 10
237.6381973297196
 20
102.8797276474106
 30
0.0
 10
238.0780748725278
 20
102.8809869843952
 30
0.0
 10
238.5145243305853
 20
102.8860138895708
 30
0.0
 10
238.9426848701436
 20
102.8945379777907
 30
0.0
 10
239.3591059450366
 20
102.9061303824952
 30
0.0
 10
239.7605100233034
 20
102.9202489891714
 30
0.0
 10
240.143021476751
 20
102.936185599243
 30
0.0
 10
240.501303180615
 20
102.9530348654873
 30
0.0
 10
240.8315703430729
 20
102.9698581659794
 30
0.0
 10
241.1310938086411
 20
102.9857253819186
 30
0.0
 10
241.3981295240826
 20
102.9997645496079
 30
0.0
 10
241.6296826778709
 20
103.0110564615553
 30
0.0
 10
241.8232278061094
 20
103.0187697003136
 30
0.0
 10
241.9772494210533
 20
103.0222361739837
 30
0.0
 10
242.0902615695445
 20
103.020890415455
 30
0.0
 10
242.1608916485203
 20
103.0143432393323
 30
0.0
 10
242.1886673436583
 20
103.00245705404
 30
0.0
 10
242.1734360434333
 20
102.9852248603977
 30
0.0
 10
242.1151515749619
 20
102.9628697465831
 30
0.0
 10
242.0146497883437
 20
102.9358773987233
 30
0.0
 10
241.8730109890663
 20
102.9048518305412
 30
0.0
 10
241.6913433472696
 20
102.8705396614983
 30
0.0
 10
241.4716355901056
 20
102.8339119022182
 30
0.0
 10
241.2163440614268
 20
102.7960218391869
 30
0.0
 10
240.9271366754012
 20
102.757854795119
 30
0.0
 10
240.606961053917
 20
102.720591608493
 30
0.0
 10
240.2593897306297
 20
102.6853990629432
 30
0.0
 10
239.8869409199008
 20
102.6532572621184
 30
0.0
 10
239.4929939309645
 20
102.625186863511
 30
0.0
 10
239.0818986009029
 20
102.6021182012578
 30
0.0
 10
238.6577259376006
 20
102.5847506397974
 30
0.0
 10
238.2236011434882
 20
102.5736219383466
 30
0.0
 10
237.7844009549762
 20
102.5691412171149
 30
0.0
 10
237.3451099229206
 20
102.571426418169
 30
0.0
 10
236.9089567519604
 20
102.5803966837491
 30
0.0
 10
236.480524458143
 20
102.5957990665221
 30
0.0
 10
236.0645878016349
 20
102.6171053744531
 30
0.0
 10
235.66483906892
 20
102.6436184480332
 30
0.0
 10
235.2847140431733
 20
102.6745553452311
 30
0.0
 10
234.9283536905886
 20
102.7089154778298
 30
0.0
 10
234.7091149332793
 20
102.7333508664845
 30
0.0
 10
234.6046837357106
 20
102.7457521641515
 30
0.0
  0
SPLINE
  5
A1
330
1F
100
AcDbEntity
  8
0
  6
Continuous
 62
     7
370
    25
100
AcDbSpline
210
0.0
220
0.0
230
1.0
 70
     8
 71
     3
 72
     8
 73
     4
 74
     0
 42
0.00000001
 43
0.00000001
 40
0.0
 40
0.0
 40
0.0
 40
0.0
 40
1.0
 40
1.0
 40
1.0
 40
1.0
 10
265.9952525248122
 20
117.149561668754
 30
0.0
 10
265.9933547853486
 20
117.1471378182961
 30
0.0
 10
265.9914567417262
 20
117.1447141630323
 30
0.0
 10
265.9895583953223
 20
117.1422907047715
 30
0.0
  0
ARC
  5
A2
330
1F
100
AcDbEntity
  8
0
  6
Continuous
 62
     7
370
    25
100
AcDbCircle
 10
237.7127923427
 20
139.2908194538
 30
0.0
 40
36.7543883361742
100
AcDbArc
 50
217.4839270694
 51
322.5160729306
  0
SPLINE
  5
A3
330
1F
100
AcDbEntity
  8
0
  6
Continuous
 62
     7
370
    25
100
AcDbSpline
210
0.0
220
0.0
230
1.0
 70
     8
 71
     3
 72
    10
 73
     6
 74
     0
 42
0.00000001
 43
0.00000001
 40
0.0
 40
0.0
 40
0.0
 40
0.0
 40
0.5
 40
0.5
 40
1.0
 40
1.0
 40
1.0
 40
1.0
 10
209.4303325266688
 20
117.1495617624484
 30
0.0
 10
208.9021734749715
 20
117.8241330558891
 30
0.0
 10
208.497721304229
 20
118.5667365622588
 30
0.0
 10
207.9373771102341
 20
120.1856981589608
 30
0.0
 10
207.7943293270417
 20
121.0364575488088
 30
0.0
 10
207.7943730487199
 20
121.8931955035861
 30
0.0
  0
SPLINE
  5
A4
330
1F
100
AcDbEntity
  8
0
  6
Continuous
 62
     7
370
    25
100
AcDbSpline
210
0.0
220
0.0
230
1.0
 70
     8
 71
     3
 72
     8
 73
     4
 74
     0
 42
0.00000001
 43
0.00000001
 40
0.0
 40
0.0
 40
0.0
 40
0.0
 40
1.0
 40
1.0
 40
1.0
 40
1.0
 10
207.7943730487199
 20
121.8931955035861
 30
0.0
 10
207.7943731681478
 20
121.8955357240321
 30
0.0
 10
207.7943732610862
 20
121.8978759745427
 30
0.0
 10
207.7943733275366
 20
121.9002162551165
 30
0.0
  0
SPLINE
  5
A5
330
1F
100
AcDbEntity
  8
0
  6
Continuous
 62
     7
370
    25
100
AcDbSpline
210
0.0
220
0.0
230
1.0
 70
     8
 71
     3
 72
    10
 73
     6
 74
     0
 42
0.00000001
 43
0.00000001
 40
0.0
 40
0.0
 40
0.0
 40
0.0
 40
0.5
 40
0.5
 40
1.0
 40
1.0
 40
1.0
 40
1.0
 10
212.3418478891449
 20
119.6104556192858
 30
0.0
 10
212.0871660742794
 20
119.9395993286313
 30
0.0
 10
211.8892525806762
 20
120.299259359662
 30
0.0
 10
211.6057903958889
 20
121.0789807944126
 30
0.0
 10
211.5260107051221
 20
121.485349184021
 30
0.0
 10
211.5100695666229
 20
121.9011673583598
 30
0.0
  0
SPLINE
  5
A6
330
1F
100
AcDbEntity
  8
0
  6
Continuous
 62
     7
370
    25
100
AcDbSpline
210
0.0
220
0.0
230
1.0
 70
     8
 71
     3
 72
     8
 73
     4
 74
     0
 42
0.00000001
 43
0.00000001
 40
0.0
 40
0.0
 40
0.0
 40
0.0
 40
1.0
 40
1.0
 40
1.0
 40
1.0
 10
212.3418478891449
 20
119.6104556192857
 30
0.0
 10
212.3728371955904
 20
119.5704058996822
 30
0.0
 10
212.4039724389956
 20
119.5304132222194
 30
0.0
 10
212.4352545192937
 20
119.4904778525413
 30
0.0
  0
SPLINE
  5
A7
330
1F
100
AcDbEntity
  8
0
  6
Continuous
 62
     7
370
    25
100
AcDbSpline
210
0.0
220
0.0
230
1.0
 70
     8
 71
     3
 72
    10
 73
     6
 74
     0
 42
0.00000001
 43
0.00000001
 40
0.0
 40
0.0
 40
0.0
 40
0.0
 40
0.5
 40
0.5
 40
1.0
 40
1.0
 40
1.0
 40
1.0
 10
207.7943733151894
 20
212.3884433120333
 30
0.0
 10
207.7943242535604
 20
213.2477551701187
 30
0.0
 10
207.934474507262
 20
214.0842816568951
 30
0.0
 10
208.4944010933677
 20
215.7085470143349
 30
0.0
 10
208.8990855187842
 20
216.4530350698505
 30
0.0
 10
209.4285758814979
 20
217.1298325665607
 30
0.0
  0
SPLINE
  5
A8
330
1F
100
AcDbEntity
  8
0
  6
Continuous
 62
     7
370
    25
100
AcDbSpline
210
0.0
220
0.0
230
1.0
 70
     8
 71
     3
 72
    10
 73
     6
 74
     0
 42
0.00000001
 43
0.00000001
 40
0.0
 40
0.0
 40
0.0
 40
0.0
 40
0.5
 40
0.5
 40
1.0
 40
1.0
 40
1.0
 40
1.0
 10
267.6312113278973
 20
121.8925713653375
 30
0.0
 10
267.6311910793879
 20
121.0359501539254
 30
0.0
 10
267.4918612731905
 20
120.2019994209798
 30
0.0
 10
266.935106290365
 20
118.5820280944442
 30
0.0
 10
266.5233432019945
 20
117.8240551144005
 30
0.0
 10
265.9952525248122
 20
117.149561668754
 30
0.0
  0
SPLINE
  5
A9
330
1F
100
AcDbEntity
  8
0
  6
Continuous
 62
     7
370
    25
100
AcDbSpline
210
0.0
220
0.0
230
1.0
 70
     8
 71
     3
 72
    10
 73
     6
 74
     0
 42
0.00000001
 43
0.00000001
 40
0.0
 40
0.0
 40
0.0
 40
0.0
 40
0.5
 40
0.5
 40
1.0
 40
1.0
 40
1.0
 40
1.0
 10
265.995252542982
 20
217.1320772434141
 30
0.0
 10
266.5252946614067
 20
216.4550914101399
 30
0.0
 10
266.9306830402527
 20
215.7097472534523
 30
0.0
 10
267.4911357737934
 20
214.0844587158562
 30
0.0
 10
267.6312552246457
 20
213.2482419938574
 30
0.0
 10
267.6312113201926
 20
212.3884432947584
 30
0.0
  0
SPLINE
  5
AA
330
1F
100
AcDbEntity
  8
0
  6
Continuous
 62
     7
370
    25
100
AcDbSpline
210
0.0
220
0.0
230
1.0
 70
     8
 71
     3
 72
     8
 73
     4
 74
     0
 42
0.00000001
 43
0.00000001
 40
0.0
 40
0.0
 40
0.0
 40
0.0
 40
1.0
 40
1.0
 40
1.0
 40
1.0
 10
267.6312113963913
 20
212.3554751391514
 30
0.0
 10
267.6312107843995
 20
212.3664651703233
 30
0.0
 10
267.6312107590676
 20
212.3774545554558
 30
0.0
 10
267.6312113201926
 20
212.3884432947725
 30
0.0
  0
SPLINE
  5
AB
330
1F
100
AcDbEntity
  8
0
  6
Continuous
 62
     7
370
    25
100
AcDbSpline
210
0.0
220
0.0
230
1.0
 70
     8
 71
     3
 72
    12
 73
     8
 74
     0
 42
0.00000001
 43
0.00000001
 40
0.0
 40
0.0
 40
0.0
 40
0.0
 40
0.25
 40
0.25
 40
0.5
 40
0.5
 40
1.0
 40
1.0
 40
1.0
 40
1.0
 10
263.9185582820872
 20
139.1728616311789
 30
0.0
 10
263.9185582820872
 20
139.2728406319069
 30
0.0
 10
263.9172236844285
 20
139.370642737302
 30
0.0
 10
263.9125013645382
 20
139.5461877724941
 30
0.0
 10
263.9091140109709
 20
139.624064858328
 30
0.0
 10
263.8971969609433
 20
139.814203217117
 30
0.0
 10
263.8869948743528
 20
139.8848803065249
 30
0.0
 10
263.8765843950456
 20
139.8950288347511
 30
0.0
  0
SPLINE
  5
AC
330
1F
100
AcDbEntity
  8
0
  6
Continuous
 62
     7
370
    25
100
AcDbSpline
210
0.0
220
0.0
230
1.0
 70
     8
 71
     3
 72
    14
 73
    10
 74
     0
 42
0.00000001
 43
0.00000001
 40
0.0
 40
0.0
 40
0.0
 40
0.0
 40
0.25
 40
0.25
 40
0.5
 40
0.5
 40
0.75
 40
0.75
 40
1.0
 40
1.0
 40
1.0
 40
1.0
 10
211.5490002904318
 20
139.8950288347509
 30
0.0
 10
211.5437813371893
 20
139.8899412021136
 30
0.0
 10
211.5387472268634
 20
139.8701625316817
 30
0.0
 10
211.5290518678941
 20
139.8009707035194
 30
0.0
 10
211.5244803135193
 20
139.7515770113348
 30
0.0
 10
211.5165492814218
 20
139.6255968289651
 30
0.0
 10
211.5131373427177
 20
139.5478591021407
 30
0.0
 10
211.5083566996859
 20
139.3708161974678
 30
0.0
 10
211.5070264033901
 20
139.2732710622173
 30
0.0
 10
211.5070264033901
 20
139.1728616311785
 30
0.0
  0
SPLINE
  5
AD
330
1F
100
AcDbEntity
  8
0
  6
Continuous
 62
     7
370
    25
100
AcDbSpline
210
0.0
220
0.0
230
1.0
 70
     8
 71
     3
 72
     8
 73
     4
 74
     0
 42
0.00000001
 43
0.00000001
 40
0.0
 40
0.0
 40
0.0
 40
0.0
 40
1.0
 40
1.0
 40
1.0
 40
1.0
 10
263.083736882776
 20
119.6104555937721
 30
0.0
 10
263.0527471899441
 20
119.5704054982126
 30
0.0
 10
263.0216116724009
 20
119.530412483443
 30
0.0
 10
262.9903293305965
 20
119.490476783847
 30
0.0
  0
SPLINE
  5
AE
330
1F
100
AcDbEntity
  8
0
  6
Continuous
 62
     7
370
    25
100
AcDbSpline
210
0.0
220
0.0
230
1.0
 70
     8
 71
     3
 72
    10
 73
     6
 74
     0
 42
0.00000001
 43
0.00000001
 40
0.0
 40
0.0
 40
0.0
 40
0.0
 40
0.5
 40
0.5
 40
1.0
 40
1.0
 40
1.0
 40
1.0
 10
263.9155151004182
 20
121.9011668774598
 30
0.0
 10
263.8995739868583
 20
121.4853505964002
 30
0.0
 10
263.8206710408124
 20
121.0824959385277
 30
0.0
 10
263.5379142320839
 20
120.3025167933876
 30
0.0
 10
263.3384183137667
 20
119.9395977928795
 30
0.0
 10
263.0837368827761
 20
119.6104555937721
 30
0.0
  0
SPLINE
  5
AF
330
1F
100
AcDbEntity
  8
0
  6
Continuous
 62
     7
370
    25
100
AcDbSpline
210
0.0
220
0.0
230
1.0
 70
     8
 71
     3
 72
     8
 73
     4
 74
     0
 42
0.00000001
 43
0.00000001
 40
0.0
 40
0.0
 40
0.0
 40
0.0
 40
0.0001588305743053
 40
0.0001588305743053
 40
0.0001588305743053
 40
0.0001588305743053
 10
263.9185582820872
 20
122.0599540070129
 30
0.0
 10
263.9185582820872
 20
122.0070104822445
 30
0.0
 10
263.9175425731825
 20
121.9540525272398
 30
0.0
 10
263.9155151004182
 20
121.9011668774598
 30
0.0
  0
LINE
  5
B0
330
1F
100
AcDbEntity
  8
0
  6
Continuous
 62
     7
370
    25
100
AcDbLine
 10
263.9185582821
 20
139.1728616312
 30
0.0
 11
263.9185582821
 21
122.059954007
 31
0.0
  0
LINE
  5
B1
330
1F
100
AcDbEntity
  8
0
  6
Continuous
 62
     7
370
    25
100
AcDbLine
 10
267.631211412
 20
121.8931955811
 30
0.0
 11
267.6312113445
 21
212.3554751415
 31
0.0
  0
LINE
  5
B2
330
1F
100
AcDbEntity
  8
0
  6
Continuous
 62
     7
370
    25
100
AcDbLine
 10
207.7943734297
 20
121.9002162542
 30
0.0
 11
207.7943732869
 21
212.3879832828
 31
0.0
  0
SPLINE
  5
B3
330
1F
100
AcDbEntity
  8
0
  6
Continuous
 62
     7
370
    25
100
AcDbSpline
210
0.0
220
0.0
230
1.0
 70
     8
 71
     3
 72
     8
 73
     4
 74
     0
 42
0.00000001
 43
0.00000001
 40
0.0
 40
0.0
 40
0.0
 40
0.0
 40
0.0001588300930106
 40
0.0001588300930106
 40
0.0001588300930106
 40
0.0001588300930106
 10
211.5100695666229
 20
121.9011673583598
 30
0.0
 10
211.5080421061349
 20
121.9540528482339
 30
0.0
 10
211.5070264033901
 20
122.0070106426761
 30
0.0
 10
211.5070264033901
 20
122.0599540070129
 30
0.0
  0
LINE
  5
B4
330
1F
100
AcDbEntity
  8
0
  6
Continuous
 62
     7
370
    25
100
AcDbLine
 10
211.5070264034
 20
139.1728616312
 30
0.0
 11
211.5070264034
 21
122.059954007
 31
0.0
  0
SPLINE
  5
B5
330
1F
100
AcDbEntity
  8
0
  6
Continuous
 62
     7
370
    25
100
AcDbSpline
210
0.0
220
0.0
230
1.0
 70
     8
 71
     3
 72
     8
 73
     4
 74
     0
 42
0.00000001
 43
0.00000001
 40
0.0
 40
0.0
 40
0.0
 40
0.0
 40
1.0
 40
1.0
 40
1.0
 40
1.0
 10
208.3302538622538
 20
217.059789868518
 30
0.0
 10
208.3999978592511
 20
217.1603551795689
 30
0.0
 10
208.4723292985833
 20
217.2595320496454
 30
0.0
 10
208.547300070991
 20
217.3572926337868
 30
0.0
  0
SPLINE
  5
B6
330
1F
100
AcDbEntity
  8
0
  6
Continuous
 62
     7
370
    25
100
AcDbSpline
210
0.0
220
0.0
230
1.0
 70
     8
 71
     3
 72
     8
 73
     4
 74
     0
 42
0.00000001
 43
0.00000001
 40
0.0
 40
0.0
 40
0.0
 40
0.0
 40
1.0
 40
1.0
 40
1.0
 40
1.0
 10
206.9584040065655
 20
212.6743979269515
 30
0.0
 10
206.9584040065655
 20
212.7774775070294
 30
0.0
 10
206.9604739431657
 20
212.8802116003915
 30
0.0
 10
206.9645778112505
 20
212.9826062165403
 30
0.0
  0
SPLINE
  5
B7
330
1F
100
AcDbEntity
  8
0
  6
Continuous
 62
     7
370
    25
100
AcDbSpline
210
0.0
220
0.0
230
1.0
 70
     8
 71
     3
 72
    17
 73
    13
 74
     0
 42
0.00000001
 43
0.00000001
 40
0.0
 40
0.0
 40
0.0
 40
0.0
 40
0.062392336113214
 40
0.1247178000263872
 40
0.1870539977708339
 40
0.2494784953450351
 40
0.3747328686963205
 40
0.4999634202326806
 40
0.6251872868642694
 40
0.7498501697636681
 40
0.874579070364055
 40
1.0
 40
1.0
 40
1.0
 40
1.0
 10
208.3302538622541
 20
217.0597898685178
 30
0.0
 10
208.2794332850036
 20
216.9847628199975
 30
0.0
 10
208.1778466000742
 20
216.8347891370605
 30
0.0
 10
208.0356566553284
 20
216.6032255747428
 30
0.0
 10
207.9011334113738
 20
216.367115517753
 30
0.0
 10
207.7328093050652
 20
216.0453306094845
 30
0.0
 10
207.5434085472438
 20
215.6318033358052
 30
0.0
 10
207.3518861986116
 20
215.1204385537411
 30
0.0
 10
207.1966209184829
 20
214.5977589842101
 30
0.0
 10
207.0795852565421
 20
214.0660935620204
 30
0.0
 10
206.9979264435432
 20
213.5272351038053
 30
0.0
 10
206.9757145048144
 20
213.1644836911621
 30
0.0
 10
206.9645778112505
 20
212.9826062165403
 30
0.0
  0
SPLINE
  5
B8
330
1F
100
AcDbEntity
  8
0
  6
Continuous
 62
     7
370
    25
100
AcDbSpline
210
0.0
220
0.0
230
1.0
 70
     8
 71
     3
 72
     8
 73
     4
 74
     0
 42
0.00000001
 43
0.00000001
 40
0.0
 40
0.0
 40
0.0
 40
0.0
 40
1.0
 40
1.0
 40
1.0
 40
1.0
 10
268.4583722725985
 20
213.042508844499
 30
0.0
 10
268.4642252462594
 20
212.9202795891424
 30
0.0
 10
268.4671806789119
 20
212.7975790883878
 30
0.0
 10
268.4671806789119
 20
212.6743979269515
 30
0.0
  0
SPLINE
  5
B9
330
1F
100
AcDbEntity
  8
0
  6
Continuous
 62
     7
370
    25
100
AcDbSpline
210
0.0
220
0.0
230
1.0
 70
     8
 71
     3
 72
     8
 73
     4
 74
     0
 42
0.00000001
 43
0.00000001
 40
0.0
 40
0.0
 40
0.0
 40
0.0
 40
1.0
 40
1.0
 40
1.0
 40
1.0
 10
266.8782846144863
 20
217.3572926337868
 30
0.0
 10
266.9410216437813
 20
217.2754846380278
 30
0.0
 10
267.0019047145587
 20
217.1926916999462
 30
0.0
 10
267.060966188527
 20
217.1089310121682
 30
0.0
  0
SPLINE
  5
BA
330
1F
100
AcDbEntity
  8
0
  6
Continuous
 62
     7
370
    25
100
AcDbSpline
210
0.0
220
0.0
230
1.0
 70
     8
 71
     3
 72
    17
 73
    13
 74
     0
 42
0.00000001
 43
0.00000001
 40
0.0
 40
0.0
 40
0.0
 40
0.0
 40
0.0623923404334735
 40
0.1247178072124033
 40
0.1870540064892853
 40
0.2494785043886869
 40
0.3747328774942404
 40
0.4999634247887827
 40
0.6251872990030772
 40
0.7498501827530111
 40
0.8745790788286892
 40
1.0
 40
1.0
 40
1.0
 40
1.0
 10
268.4583722725981
 20
213.042508844499
 30
0.0
 10
268.4530432803256
 20
213.1329710366932
 30
0.0
 10
268.4423910075264
 20
213.3137984614652
 30
0.0
 10
268.4143082905319
 20
213.584078273864
 30
0.0
 10
268.3773751216632
 20
213.8533003982296
 30
0.0
 10
268.3151277595385
 20
214.2110769472909
 30
0.0
 10
268.2137768765118
 20
214.6544795339262
 30
0.0
 10
268.0545719611672
 20
215.1768100209395
 30
0.0
 10
267.8597105561866
 20
215.6860554087643
 30
0.0
 10
267.6290446259689
 20
216.1791672479232
 30
0.0
 10
267.3659289269128
 20
216.6564588731571
 30
0.0
 10
267.1628077423508
 20
216.9578290580646
 30
0.0
 10
267.060966188527
 20
217.1089310121682
 30
0.0
  0
SPLINE
  5
BB
330
1F
100
AcDbEntity
  8
0
  6
Continuous
 62
     7
370
    25
100
AcDbSpline
210
0.0
220
0.0
230
1.0
 70
     8
 71
     3
 72
     8
 73
     4
 74
     0
 42
0.00000001
 43
0.00000001
 40
0.0
 40
0.0
 40
0.0
 40
0.0
 40
1.0
 40
1.0
 40
1.0
 40
1.0
 10
206.9672124130234
 20
121.239130060003
 30
0.0
 10
206.961358151507
 20
121.3613862089921
 30
0.0
 10
206.9584040065655
 20
121.4840870874516
 30
0.0
 10
206.9584040065655
 20
121.6072409805682
 30
0.0
  0
SPLINE
  5
BC
330
1F
100
AcDbEntity
  8
0
  6
Continuous
 62
     7
370
    25
100
AcDbSpline
210
0.0
220
0.0
230
1.0
 70
     8
 71
     3
 72
     8
 73
     4
 74
     0
 42
0.00000001
 43
0.00000001
 40
0.0
 40
0.0
 40
0.0
 40
0.0
 40
1.0
 40
1.0
 40
1.0
 40
1.0
 10
208.547300070991
 20
116.9243462737329
 30
0.0
 10
208.4845513553169
 20
117.006169508327
 30
0.0
 10
208.4236690382782
 20
117.0889627122596
 30
0.0
 10
208.3646184987003
 20
117.1727078928696
 30
0.0
  0
SPLINE
  5
BD
330
1F
100
AcDbEntity
  8
0
  6
Continuous
 62
     7
370
    25
100
AcDbSpline
210
0.0
220
0.0
230
1.0
 70
     8
 71
     3
 72
    17
 73
    13
 74
     0
 42
0.00000001
 43
0.00000001
 40
0.0
 40
0.0
 40
0.0
 40
0.0
 40
0.0623923404352214
 40
0.1247178072143529
 40
0.1870540064898899
 40
0.2494785043863814
 40
0.3747328774959764
 40
0.4999634247873635
 40
0.625187299000451
 40
0.7498501827502306
 40
0.8745790788267932
 40
0.9999999999999999
 40
0.9999999999999999
 40
0.9999999999999999
 40
0.9999999999999999
 10
206.9672124130237
 20
121.2391300600031
 30
0.0
 10
206.9725414053324
 20
121.1486678678082
 30
0.0
 10
206.9831936782037
 20
120.9678404430369
 30
0.0
 10
207.0112763953048
 20
120.6975606306473
 30
0.0
 10
207.0482095642785
 20
120.4283385063012
 30
0.0
 10
207.110456926545
 20
120.0705619572635
 30
0.0
 10
207.211807809745
 20
119.6271593706693
 30
0.0
 10
207.3710127252935
 20
119.1048288837166
 30
0.0
 10
207.5658741304738
 20
118.5955834959732
 30
0.0
 10
207.7965400608864
 20
118.1024716569042
 30
0.0
 10
208.0596557601331
 20
117.6251800317689
 30
0.0
 10
208.2627769448157
 20
117.3238098469363
 30
0.0
 10
208.3646184987004
 20
117.1727078928696
 30
0.0
  0
SPLINE
  5
BE
330
1F
100
AcDbEntity
  8
0
  6
Continuous
 62
     7
370
    25
100
AcDbSpline
210
0.0
220
0.0
230
1.0
 70
     8
 71
     3
 72
     8
 73
     4
 74
     0
 42
0.00000001
 43
0.00000001
 40
0.0
 40
0.0
 40
0.0
 40
0.0
 40
1.0
 40
1.0
 40
1.0
 40
1.0
 10
267.095330820854
 20
117.2218490355849
 30
0.0
 10
267.0255716399415
 20
117.1212618306487
 30
0.0
 10
266.9532389622103
 20
117.0220854403722
 30
0.0
 10
266.8782846144864
 20
116.924346273733
 30
0.0
  0
SPLINE
  5
BF
330
1F
100
AcDbEntity
  8
0
  6
Continuous
 62
     7
370
    25
100
AcDbSpline
210
0.0
220
0.0
230
1.0
 70
     8
 71
     3
 72
     8
 73
     4
 74
     0
 42
0.00000001
 43
0.00000001
 40
0.0
 40
0.0
 40
0.0
 40
0.0
 40
1.0
 40
1.0
 40
1.0
 40
1.0
 10
268.4671806789119
 20
121.6072409805682
 30
0.0
 10
268.4671806789119
 20
121.5041424084783
 30
0.0
 10
268.465109990875
 20
121.4014085571708
 30
0.0
 10
268.461006874101
 20
121.2990326878409
 30
0.0
  0
SPLINE
  5
C0
330
1F
100
AcDbEntity
  8
0
  6
Continuous
 62
     7
370
    25
100
AcDbSpline
210
0.0
220
0.0
230
1.0
 70
     8
 71
     3
 72
    17
 73
    13
 74
     0
 42
0.00000001
 43
0.00000001
 40
0.0
 40
0.0
 40
0.0
 40
0.0
 40
0.0623923361143903
 40
0.1247178000284077
 40
0.1870539977733999
 40
0.2494784953478815
 40
0.3747328686963622
 40
0.4999634202341398
 40
0.6251872868686293
 40
0.7498501697685582
 40
0.8745790703673869
 40
1.0
 40
1.0
 40
1.0
 40
1.0
 10
267.0953308208536
 20
117.2218490355851
 30
0.0
 10
267.1461513981571
 20
117.2968760840972
 30
0.0
 10
267.2477380831924
 20
117.4468497670171
 30
0.0
 10
267.3899280280956
 20
117.678413329317
 30
0.0
 10
267.5244512722059
 20
117.9145233862938
 30
0.0
 10
267.6927753787184
 20
118.2363082945482
 30
0.0
 10
267.8821761367895
 20
118.6498355682283
 30
0.0
 10
268.0736984857108
 20
119.1612003503228
 30
0.0
 10
268.2289637661203
 20
119.6838799199107
 30
0.0
 10
268.345999428328
 20
120.2155453421747
 30
0.0
 10
268.4276582415787
 20
120.7544038004742
 30
0.0
 10
268.4498701804605
 20
121.117155213186
 30
0.0
 10
268.461006874101
 20
121.2990326878409
 30
0.0
  0
LINE
  5
C1
330
1F
100
AcDbEntity
  8
0
  6
Continuous
 62
     7
370
    25
100
AcDbLine
 10
206.9584040066
 20
121.6072409806
 30
0.0
 11
206.9584040066
 21
212.674397927
 31
0.0
  0
LINE
  5
C2
330
1F
100
AcDbEntity
  8
0
  6
Continuous
 62
     7
370
    25
100
AcDbLine
 10
268.4671806789
 20
121.6072409806
 30
0.0
 11
268.4671806789
 21
212.674397927
 31
0.0
  0
LINE
  5
C3
330
1F
100
AcDbEntity
  8
0
  6
Continuous
 62
     8
370
    18
100
AcDbLine
 10
262.9439273956
 20
139.2908194538
 30
0.0
 11
262.9439273956
 21
140.1638952908
 31
0.0
  0
LINE
  5
C4
330
1F
100
AcDbEntity
  8
0
  6
Continuous
 62
     8
370
    18
100
AcDbLine
 10
212.4816572899
 20
139.2908194538
 30
0.0
 11
262.9439273956
 21
139.2908194538
 31
0.0
  0
LINE
  5
C5
330
1F
100
AcDbEntity
  8
0
  6
Continuous
 62
     8
370
    18
100
AcDbLine
 10
212.4816572899
 20
140.1638668744
 30
0.0
 11
212.4816572899
 21
139.2908194538
 31
0.0
  0
LINE
  5
C6
330
1F
100
AcDbEntity
  8
0
  6
Continuous
 62
     8
370
    18
100
AcDbLine
 10
226.3766161133
 20
140.2908194538
 30
0.0
 11
249.0780414709
 21
140.2908194538
 31
0.0
  0
SPLINE
  5
C7
330
1F
100
AcDbEntity
  8
0
  6
Continuous
 62
     8
370
    18
100
AcDbSpline
210
0.0
220
0.0
230
1.0
 70
     8
 71
     3
 72
    10
 73
     6
 74
     0
 42
0.00000001
 43
0.00000001
 40
0.0
 40
0.0
 40
0.0
 40
0.0
 40
0.3307766973253397
 40
0.6602079005069276
 40
1.0
 40
1.0
 40
1.0
 40
1.0
 10
262.7031381518445
 20
119.8201028765301
 30
0.0
 10
262.8154835463119
 20
119.9877471280314
 30
0.0
 10
263.0397173500008
 20
120.3223537076685
 30
0.0
 10
263.204356892752
 20
120.8828865466712
 30
0.0
 10
263.2138432383979
 20
121.2320113725505
 30
0.0
 10
263.2186598448888
 20
121.4092763558477
 30
0.0
  0
SPLINE
  5
C8
330
1F
100
AcDbEntity
  8
0
  6
Continuous
 62
     8
370
    18
100
AcDbSpline
210
0.0
220
0.0
230
1.0
 70
     8
 71
     3
 72
    24
 73
    20
 74
     0
 42
0.00000001
 43
0.00000001
 40
0.0
 40
0.0
 40
0.0
 40
0.0
 40
0.047397225573563
 40
0.0947874434429518
 40
0.156426049042358
 40
0.2182608570092575
 40
0.2799001846511634
 40
0.3416464600676813
 40
0.4035890782071567
 40
0.4653353889900654
 40
0.527172404656973
 40
0.5892077841446253
 40
0.6510468832229662
 40
0.7128656471769457
 40
0.7748831991098211
 40
0.8367047362934984
 40
0.8910847599760572
 40
0.9456037185783107
 40
0.9999999999999999
 40
0.9999999999999999
 40
0.9999999999999999
 40
0.9999999999999999
 10
212.7224474093126
 20
119.8201012062572
 30
0.0
 10
213.3006773437395
 20
119.1176207118079
 30
0.0
 10
214.4570517210003
 20
117.7127635850117
 30
0.0
 10
216.5999531391498
 20
115.6041098550524
 30
0.0
 10
219.1530002479778
 20
113.5377522300487
 30
0.0
 10
222.153070009553
 20
111.6231810632673
 30
0.0
 10
225.3478535095866
 20
110.0501397804854
 30
0.0
 10
228.70415305259
 20
108.8533011860479
 30
0.0
 10
232.1737738512333
 20
108.0350572599006
 30
0.0
 10
235.7148946140155
 20
107.6055441734212
 30
0.0
 10
239.2837582843929
 20
107.5861599817718
 30
0.0
 10
242.8338997739681
 20
107.9636382542986
 30
0.0
 10
246.3205752346142
 20
108.7316387707325
 30
0.0
 10
249.6956753714238
 20
109.8953856544323
 30
0.0
 10
252.9189274959328
 20
111.427559070926
 30
0.0
 10
255.8337899769587
 20
113.2302092817619
 30
0.0
 10
258.4152042735861
 20
115.2533045942907
 30
0.0
 10
260.6989220327013
 20
117.4087102000025
 30
0.0
 10
262.035567957888
 20
119.0169091184322
 30
0.0
 10
262.7031381518445
 20
119.8201028765301
 30
0.0
  0
SPLINE
  5
C9
330
1F
100
AcDbEntity
  8
0
  6
Continuous
 62
     8
370
    18
100
AcDbSpline
210
0.0
220
0.0
230
1.0
 70
     8
 71
     3
 72
    10
 73
     6
 74
     0
 42
0.00000001
 43
0.00000001
 40
0.0
 40
0.0
 40
0.0
 40
0.0
 40
0.465188588300454
 40
0.8045423008243008
 40
1.0
 40
1.0
 40
1.0
 40
1.0
 10
212.2069248231556
 20
121.4092758374123
 30
0.0
 10
212.2181355799606
 20
121.1637225781686
 30
0.0
 10
212.237524551016
 20
120.7390389355872
 30
0.0
 10
212.4647098486155
 20
120.1806939016807
 30
0.0
 10
212.6534635376757
 20
119.9166144197253
 30
0.0
 10
212.7224474093126
 20
119.8201012062572
 30
0.0
  0
LWPOLYLINE
  5
CA
330
1F
100
AcDbEntity
  8
0
  6
Continuous
 62
     8
370
    18
100
AcDbPolyline
 90
       11
 70
   128
 43
0.0
 10
212.4816572899
 20
139.2908194538
 10
212.4788348313
 20
137.4026639874
 10
212.4703766584
 20
135.5206648655
 10
212.4563103489
 20
133.6509583595
 10
212.4366817662
 20
131.799640661
 10
212.4115549094
 20
129.9727480046
 10
212.3810117049
 20
128.1762369867
 10
212.3451517389
 20
126.4159651446
 10
212.3040919331
 20
124.697671857
 10
212.2579661634
 20
123.0269596315
 10
212.2069248232
 20
121.4092758374
  0
LWPOLYLINE
  5
CB
330
1F
100
AcDbEntity
  8
0
  6
Continuous
 62
     8
370
    18
100
AcDbPolyline
 90
       11
 70
   128
 43
0.0
 10
263.2186598449
 20
121.4092763558
 10
263.1676185078
 20
123.0269601145
 10
263.1214927409
 20
124.6976722994
 10
263.0804329378
 20
126.4159655419
 10
263.0445729741
 20
128.176237335
 10
263.0140297715
 20
129.9727483002
 10
262.9889029164
 20
131.7996409011
 10
262.969274335
 20
133.6509585417
 10
262.9552080264
 20
135.5206649879
 10
262.9467498539
 20
137.4026640489
 10
262.9439273956
 20
139.2908194538
  0
LINE
  5
CC
330
1F
100
AcDbEntity
  8
0
  6
Continuous
 62
     8
370
    18
100
AcDbLine
 10
212.0739208477
 20
139.2908194538
 30
0.0
 11
212.0739208477
 21
140.1585798818
 31
0.0
  0
LINE
  5
CD
330
1F
100
AcDbEntity
  8
0
  6
Continuous
 62
     8
370
    18
100
AcDbLine
 10
212.0739208477
 20
139.2908194538
 30
0.0
 11
212.4816572899
 21
139.2908194538
 31
0.0
  0
ARC
  5
CE
330
1F
100
AcDbEntity
  8
0
  6
Continuous
 62
     8
370
    18
100
AcDbCircle
 10
212.3664730797
 20
121.9638353146
 30
0.0
 40
0.5770544686959599
100
AcDbArc
 50
193.6100273523
 51
253.9493303125
  0
LINE
  5
CF
330
1F
100
AcDbEntity
  8
0
  6
Continuous
 62
     8
370
    18
100
AcDbLine
 10
263.3516638378
 20
140.1585798818
 30
0.0
 11
263.3516638378
 21
139.2908194538
 31
0.0
  0
LINE
  5
D0
330
1F
100
AcDbEntity
  8
0
  6
Continuous
 62
     8
370
    18
100
AcDbLine
 10
262.9439273956
 20
139.2908194538
 30
0.0
 11
263.3516638378
 21
139.2908194538
 31
0.0
  0
ARC
  5
D1
330
1F
100
AcDbEntity
  8
0
  6
Continuous
 62
     8
370
    18
100
AcDbCircle
 10
263.0591115999
 20
121.9638358265
 30
0.0
 40
0.5770544592349248
100
AcDbArc
 50
286.0506687697
 51
346.3899718476
  0
LWPOLYLINE
  5
D2
330
1F
100
AcDbEntity
  8
0
  6
Continuous
 62
     8
370
    18
100
AcDbPolyline
 90
        3
 70
   128
 43
0.0
 10
211.7478350211
 20
121.8080720399
 10
211.7692681487
 20
121.8154799105
 10
211.8056223966
 20
121.8280473507
  0
LWPOLYLINE
  5
D3
330
1F
100
AcDbEntity
  8
0
  6
Continuous
 62
     8
370
    18
100
AcDbPolyline
 90
        3
 70
   128
 43
0.0
 10
263.6199622719
 20
121.828047857
 10
263.6563165369
 20
121.8154804237
 10
263.6777496644
 20
121.8080725582
  0
ARC
  5
D4
330
1F
100
AcDbEntity
  8
0
  6
Continuous
 62
     8
370
    18
100
AcDbCircle
 10
256.1517527092
 20
111.4541665418
 30
0.0
 40
10.62589017329733
100
AcDbArc
 50
50.5510819025
 51
51.9354163449
  0
SPLINE
  5
D5
330
1F
100
AcDbEntity
  8
0
  6
Continuous
 62
     8
370
    18
100
AcDbSpline
210
0.0
220
0.0
230
1.0
 70
     8
 71
     3
 72
    24
 73
    20
 74
     0
 42
0.00000001
 43
0.00000001
 40
0.0
 40
0.0
 40
0.0
 40
0.0
 40
0.054382679900303
 40
0.1088882436923642
 40
0.1632551561396543
 40
0.2250850476821822
 40
0.2871110236370567
 40
0.3489382286143148
 40
0.410784553023078
 40
0.472827213710408
 40
0.534671519778425
 40
0.5964245704786931
 40
0.6583739509935808
 40
0.7201269674504968
 40
0.7817755173664389
 40
0.8436195876567112
 40
0.9052674380679792
 40
0.9526303208178756
 40
0.9999999999999999
 40
0.9999999999999999
 40
0.9999999999999999
 40
0.9999999999999999
 10
262.9033373606665
 20
119.659387237731
 30
0.0
 10
262.2305856078064
 20
118.8500110205478
 30
0.0
 10
260.8835619424742
 20
117.2294297079493
 30
0.0
 10
258.5819612714856
 20
115.0576153623998
 30
0.0
 10
255.9801516161649
 20
113.0187319857033
 30
0.0
 10
253.041988535143
 20
111.2016614328669
 30
0.0
 10
249.7925652352206
 20
109.6571137168555
 30
0.0
 10
246.3901069059977
 20
108.4839474780229
 30
0.0
 10
242.8751901884586
 20
107.709735207187
 30
0.0
 10
239.2963141877999
 20
107.3292412888106
 30
0.0
 10
235.6985794076597
 20
107.3487970730126
 30
0.0
 10
232.1288198915495
 20
107.7817785656515
 30
0.0
 10
228.6311496207067
 20
108.6066393375528
 30
0.0
 10
225.2476704505263
 20
109.8131696021319
 30
0.0
 10
222.0269776472594
 20
111.3989808337093
 30
0.0
 10
219.002528365353
 20
113.3291092240998
 30
0.0
 10
216.4292921889041
 20
115.4118748833139
 30
0.0
 10
214.2697714113618
 20
117.5365533498113
 30
0.0
 10
213.1047840169164
 20
118.9517407139785
 30
0.0
 10
212.5222485296391
 20
119.6593851612098
 30
0.0
  0
ARC
  5
D6
330
1F
100
AcDbEntity
  8
0
  6
Continuous
 62
     8
370
    18
100
AcDbCircle
 10
219.2729457378
 20
111.4553044895
 30
0.0
 40
10.62444598391738
100
AcDbArc
 50
128.0646062579
 51
129.4491288704
  0
LWPOLYLINE
  5
D7
330
1F
100
AcDbEntity
  8
0
  6
Continuous
 62
     8
370
    18
100
AcDbPolyline
 90
        3
 70
   128
 43
0.0
 10
212.5222485296
 20
119.6593851612
 10
212.5153252614
 20
119.6570912548
 10
212.4937045946
 20
119.6499223056
  0
LWPOLYLINE
  5
D8
330
1F
100
AcDbEntity
  8
0
  6
Continuous
 62
     8
370
    18
100
AcDbPolyline
 90
        3
 70
   128
 43
0.0
 10
262.9318808776
 20
119.6499238261
 10
262.9102605408
 20
119.6570931904
 10
262.9033373607
 20
119.6593872377
  0
SPLINE
  5
D9
330
1F
100
AcDbEntity
  8
0
  6
Continuous
 62
     8
370
    18
100
AcDbSpline
210
0.0
220
0.0
230
1.0
 70
     8
 71
     3
 72
    10
 73
     6
 74
     0
 42
0.00000001
 43
0.00000001
 40
0.0
 40
0.0
 40
0.0
 40
0.0
 40
0.2017128232758904
 40
0.5465479964410427
 40
1.0
 40
1.0
 40
1.0
 40
1.0
 10
212.5222485296391
 20
119.6593851612098
 30
0.0
 10
212.4280509761382
 20
119.79110788039
 30
0.0
 10
212.1728193884807
 20
120.1480152256173
 30
0.0
 10
211.8605624629436
 20
120.893169527825
 30
0.0
 10
211.8255248519533
 20
121.489380774977
 30
0.0
 10
211.8056223965879
 20
121.8280473506758
 30
0.0
  0
SPLINE
  5
DA
330
1F
100
AcDbEntity
  8
0
  6
Continuous
 62
     8
370
    18
100
AcDbSpline
210
0.0
220
0.0
230
1.0
 70
     8
 71
     3
 72
    10
 73
     6
 74
     0
 42
0.00000001
 43
0.00000001
 40
0.0
 40
0.0
 40
0.0
 40
0.0
 40
0.328880470833233
 40
0.6593955019505525
 40
1.0
 40
1.0
 40
1.0
 40
1.0
 10
263.6199622718647
 20
121.8280478569698
 30
0.0
 10
263.6106472403232
 20
121.5843759200052
 30
0.0
 10
263.5919708808439
 20
121.0958209785125
 30
0.0
 10
263.3588063899
 20
120.3363326016214
 30
0.0
 10
263.0566744327394
 20
119.8872859825194
 30
0.0
 10
262.9033373606665
 20
119.659387237731
 30
0.0
  0
SPLINE
  5
DB
330
1F
100
AcDbEntity
  8
0
  6
Continuous
 62
     8
370
    18
100
AcDbSpline
210
0.0
220
0.0
230
1.0
 70
     8
 71
     3
 72
    11
 73
     7
 74
     0
 42
0.00000001
 43
0.00000001
 40
0.0000670191731656
 40
0.0000670191731656
 40
0.0000670191731656
 40
0.0000670191731656
 40
0.0005955101399782
 40
0.0005955101399782
 40
0.0005955101399782
 40
0.0020607333342215
 40
0.0020607333342215
 40
0.0020607333342215
 40
0.0020607333342215
 10
263.8765843950455
 20
139.8950288347511
 30
0.0
 10
264.0206664450118
 20
139.9039940457869
 30
0.0
 10
264.1647458397908
 20
139.913006082819
 30
0.0
 10
264.308822440359
 20
139.9220663184908
 30
0.0
 10
264.7082698745399
 20
139.9471855111836
 30
0.0
 10
265.1079903767151
 20
139.9723268891796
 30
0.0
 10
265.5075795454151
 20
139.997457252323
 30
0.0
  0
SPLINE
  5
DC
330
1F
100
AcDbEntity
  8
0
  6
Continuous
 62
     8
370
    18
100
AcDbSpline
210
0.0
220
0.0
230
1.0
 70
     8
 71
     3
 72
    11
 73
     7
 74
     0
 42
0.00000001
 43
0.00000001
 40
0.0000167170509908
 40
0.0000167170509908
 40
0.0000167170509908
 40
0.0000167170509908
 40
0.0014819397392548
 40
0.0014819397392548
 40
0.0014819397392548
 40
0.0020104310600263
 40
0.0020104310600263
 40
0.0020104310600263
 40
0.0020104310600263
 10
209.9180051400623
 20
139.9974572523237
 30
0.0
 10
210.3175942012425
 20
139.972326895942
 30
0.0
 10
210.7173145959856
 20
139.9471855249012
 30
0.0
 10
211.1167619226733
 20
139.9220663387677
 30
0.0
 10
211.260838630719
 20
139.9130060962649
 30
0.0
 10
211.4049181329798
 20
139.9039940524748
 30
0.0
 10
211.5490002904318
 20
139.8950288347509
 30
0.0
  0
SPLINE
  5
DD
330
1F
100
AcDbEntity
  8
0
  6
Continuous
 62
     8
370
    18
100
AcDbSpline
210
0.0
220
0.0
230
1.0
 70
     8
 71
     3
 72
    18
 73
    14
 74
     0
 42
0.00000001
 43
0.00000001
 40
0.0
 40
0.0
 40
0.0
 40
0.0
 40
0.2500000000000008
 40
0.2500000000000008
 40
0.3750000000000012
 40
0.3750000000000012
 40
0.5000000000000017
 40
0.5000000000000017
 40
0.7500000000000008
 40
0.7500000000000008
 40
0.8750000000000004
 40
0.8750000000000004
 40
1.0
 40
1.0
 40
1.0
 40
1.0
 10
210.8497204736699
 20
215.4134420528107
 30
0.0
 10
210.9023138168761
 20
213.9815805319883
 30
0.0
 10
210.9486297576231
 20
212.4880865618671
 30
0.0
 10
211.0089476636318
 20
210.1579506184162
 30
0.0
 10
211.0275208023854
 20
209.3661890904735
 30
0.0
 10
211.0615636705714
 20
207.7521963110325
 30
0.0
 10
211.0770687008872
 20
206.9275185412441
 30
0.0
 10
211.1183934490871
 20
204.432128186003
 30
0.0
 10
211.1391718392457
 20
202.7368358673681
 30
0.0
 10
211.1601338088871
 20
200.1461224482683
 30
0.0
 10
211.1653839605933
 20
199.2774509443768
 30
0.0
 10
211.1723796596293
 20
197.5377247729874
 30
0.0
 10
211.1741352767195
 20
196.6654747505457
 30
0.0
 10
211.1741352767195
 20
195.7908194537597
 30
0.0
  0
SPLINE
  5
DE
330
1F
100
AcDbEntity
  8
0
  6
Continuous
 62
     8
370
    18
100
AcDbSpline
210
0.0
220
0.0
230
1.0
 70
     8
 71
     3
 72
    18
 73
    14
 74
     0
 42
0.00000001
 43
0.00000001
 40
0.0
 40
0.0
 40
0.0
 40
0.0
 40
0.2500000000000011
 40
0.2500000000000011
 40
0.5000000000000022
 40
0.5000000000000022
 40
0.6250000000000017
 40
0.6250000000000017
 40
0.7500000000000011
 40
0.7500000000000011
 40
0.8750000000000006
 40
0.8750000000000006
 40
1.0
 40
1.0
 40
1.0
 40
1.0
 10
264.2514494087578
 20
195.7908194537598
 30
0.0
 10
264.2514494087578
 20
197.5432743223276
 30
0.0
 10
264.2584648614448
 20
199.2729006821886
 30
0.0
 10
264.2859428567366
 20
202.6883961387705
 30
0.0
 10
264.3064065913863
 20
204.3742613565392
 30
0.0
 10
264.3474698753189
 20
206.8693224126073
 30
0.0
 10
264.3629302861428
 20
207.6965686135954
 30
0.0
 10
264.3969896428603
 20
209.3189335562017
 30
0.0
 10
264.4156233223082
 20
210.116548830939
 30
0.0
 10
264.4561009764817
 20
211.6846255914557
 30
0.0
 10
264.477979336969
 20
212.4560187857681
 30
0.0
 10
264.5246771704299
 20
213.9612634653454
 30
0.0
 10
264.5495202312691
 20
214.6962232344051
 30
0.0
 10
264.5758641678679
 20
215.41344085655
 30
0.0
  0
LINE
  5
DF
330
1F
100
AcDbEntity
  8
0
  6
Continuous
 62
     8
370
    18
100
AcDbLine
 10
211.1741352767
 20
195.7908194538
 30
0.0
 11
264.2514494088
 21
195.7908194538
 31
0.0
  0
LINE
  5
E0
330
1F
100
AcDbEntity
  8
0
  6
Continuous
 62
     8
370
    18
100
AcDbLine
 10
264.2514494088
 20
140.2443611284
 30
0.0
 11
264.2514494088
 21
195.7908194538
 31
0.0
  0
LINE
  5
E1
330
1F
100
AcDbEntity
  8
0
  6
Continuous
 62
     8
370
    18
100
AcDbLine
 10
211.1741352767
 20
195.7908194538
 30
0.0
 11
211.1741352767
 21
140.2443611284
 31
0.0
  0
SPLINE
  5
E2
330
1F
100
AcDbEntity
  8
0
  6
Continuous
 62
     8
370
    18
100
AcDbSpline
210
0.0
220
0.0
230
1.0
 70
     8
 71
     3
 72
    16
 73
    12
 74
     0
 42
0.00000001
 43
0.00000001
 40
0.0
 40
0.0
 40
0.0
 40
0.0
 40
0.2500000000000002
 40
0.2500000000000002
 40
0.375
 40
0.375
 40
0.4999999999999999
 40
0.4999999999999999
 40
0.7499999999999999
 40
0.7499999999999999
 40
1.0
 40
1.0
 40
1.0
 40
1.0
 10
265.5495708660341
 20
211.5200715337817
 30
0.0
 10
265.5141648820792
 20
210.3175049503093
 30
0.0
 10
265.4830020985106
 20
209.0782542849159
 30
0.0
 10
265.442565888182
 20
207.1648435289441
 30
0.0
 10
265.4301125945842
 20
206.516147236116
 30
0.0
 10
265.4075060580228
 20
205.2099136405622
 30
0.0
 10
265.3973561353969
 20
204.5530438189255
 30
0.0
 10
265.3702880069511
 20
202.5714303905277
 30
0.0
 10
265.3567380854128
 20
201.2357262783679
 30
0.0
 10
265.3385506129767
 20
198.5353169133038
 30
0.0
 10
265.3339118985805
 20
197.1706154464603
 30
0.0
 10
265.3339118985805
 20
195.7908194537598
 30
0.0
  0
LINE
  5
E3
330
1F
100
AcDbEntity
  8
0
  6
Continuous
 62
     8
370
    18
100
AcDbLine
 10
264.2514494088
 20
195.7908194538
 30
0.0
 11
265.3339118986
 21
195.7908194538
 31
0.0
  0
SPLINE
  5
E4
330
1F
100
AcDbEntity
  8
0
  6
Continuous
 62
     8
370
    18
100
AcDbSpline
210
0.0
220
0.0
230
1.0
 70
     8
 71
     3
 72
    16
 73
    12
 74
     0
 42
0.00000001
 43
0.00000001
 40
0.0
 40
0.0
 40
0.0
 40
0.0
 40
0.2499999999999998
 40
0.2499999999999998
 40
0.4999999999999996
 40
0.4999999999999996
 40
0.6249999999999997
 40
0.6249999999999997
 40
0.7499999999999998
 40
0.7499999999999998
 40
1.0
 40
1.0
 40
1.0
 40
1.0
 10
210.0916727868968
 20
195.7908194537598
 30
0.0
 10
210.0916727868968
 20
197.1706154464602
 30
0.0
 10
210.0870340725007
 20
198.5353169133038
 30
0.0
 10
210.0688466000645
 20
201.2357262783679
 30
0.0
 10
210.0552966785262
 20
202.5714303905277
 30
0.0
 10
210.0282285500804
 20
204.5530438189255
 30
0.0
 10
210.0180786274545
 20
205.2099136405622
 30
0.0
 10
209.9954720908931
 20
206.516147236116
 30
0.0
 10
209.9830187972953
 20
207.1648435289441
 30
0.0
 10
209.9425825869668
 20
209.0782542849159
 30
0.0
 10
209.9114198033982
 20
210.3175049503093
 30
0.0
 10
209.8760138194432
 20
211.5200715337818
 30
0.0
  0
LINE
  5
E5
330
1F
100
AcDbEntity
  8
0
  6
Continuous
 62
     8
370
    18
100
AcDbLine
 10
210.0916727869
 20
195.7908194538
 30
0.0
 11
211.1741352767
 21
195.7908194538
 31
0.0
  0
LINE
  5
E6
330
1F
100
AcDbEntity
  8
0
  6
Continuous
 62
     8
370
    18
100
AcDbLine
 10
210.0916727869
 20
140.1666356756
 30
0.0
 11
210.0916727869
 21
195.7908194538
 31
0.0
  0
LINE
  5
E7
330
1F
100
AcDbEntity
  8
0
  6
Continuous
 62
     8
370
    18
100
AcDbLine
 10
265.3339118986
 20
195.7908194538
 30
0.0
 11
265.3339118986
 21
140.1666356756
 31
0.0
  0
SPLINE
  5
E8
330
1F
100
AcDbEntity
  8
0
  6
Continuous
 62
     8
370
    18
100
AcDbSpline
210
0.0
220
0.0
230
1.0
 70
     8
 71
     3
 72
    34
 73
    30
 74
     0
 42
0.00000001
 43
0.00000001
 40
0.0
 40
0.0
 40
0.0
 40
0.0
 40
0.1250000000000001
 40
0.1250000000000001
 40
0.1875000000000002
 40
0.1875000000000002
 40
0.2500000000000003
 40
0.2500000000000003
 40
0.3125000000000004
 40
0.3125000000000004
 40
0.3750000000000005
 40
0.3750000000000005
 40
0.5000000000000008
 40
0.5000000000000008
 40
0.6250000000000011
 40
0.6250000000000011
 40
0.6562500000000011
 40
0.6562500000000011
 40
0.6875000000000011
 40
0.6875000000000011
 40
0.7500000000000012
 40
0.7500000000000012
 40
0.8125000000000012
 40
0.8125000000000012
 40
0.843750000000001
 40
0.843750000000001
 40
0.8750000000000008
 40
0.8750000000000008
 40
1.0
 40
1.0
 40
1.0
 40
1.0
 10
210.0072576954509
 20
216.6930936250176
 30
0.0
 10
211.6594480839461
 20
218.8022694428027
 30
0.0
 10
213.522612109162
 20
220.6909239265974
 30
0.0
 10
216.6273523547526
 20
223.1998825317199
 30
0.0
 10
217.720279422428
 20
223.9846665578933
 30
0.0
 10
219.9643707401877
 20
225.4101816254133
 30
0.0
 10
221.119391506914
 20
226.0549504216581
 30
0.0
 10
223.4940980700073
 20
227.2111603612865
 30
0.0
 10
224.7136300675035
 20
227.722918604593
 30
0.0
 10
227.2188825734831
 20
228.6099663055718
 30
0.0
 10
228.5107532710765
 20
228.9860068829084
 30
0.0
 10
232.4020812236787
 20
229.8830080943683
 30
0.0
 10
235.0385882666516
 20
230.1847721495288
 30
0.0
 10
240.3971959727356
 20
230.183937152817
 30
0.0
 10
243.0259258783116
 20
229.8813802408926
 30
0.0
 10
246.2508784666267
 20
229.1389974505178
 30
0.0
 10
246.8927879442586
 20
228.9721141113591
 30
0.0
 10
248.1703361239158
 20
228.6008844961095
 30
0.0
 10
248.8073252809973
 20
228.39605383146
 30
0.0
 10
250.6994802562189
 20
227.7273886924788
 30
0.0
 10
251.9239873599142
 20
227.2140525775672
 30
0.0
 10
254.3017142708887
 20
226.0569665120167
 30
0.0
 10
255.4549233025233
 20
225.4131968483435
 30
0.0
 10
257.1311011138454
 20
224.3494204929947
 30
0.0
 10
257.6808709234058
 20
223.9784439271614
 30
0.0
 10
258.7621794432148
 20
223.2031386038476
 30
0.0
 10
259.2948285083961
 20
222.7978933406599
 30
0.0
 10
261.8982364599659
 20
220.6970015746569
 30
0.0
 10
263.7660961706349
 20
218.802366112969
 30
0.0
 10
265.4183460645638
 20
216.6930687035722
 30
0.0
  0
SPLINE
  5
E9
330
1F
100
AcDbEntity
  8
0
  6
Continuous
 62
     8
370
    18
100
AcDbSpline
210
0.0
220
0.0
230
1.0
 70
     8
 71
     3
 72
    10
 73
     6
 74
     0
 42
0.00000001
 43
0.00000001
 40
0.0
 40
0.0
 40
0.0
 40
0.0
 40
0.5
 40
0.5
 40
1.0
 40
1.0
 40
1.0
 40
1.0
 10
265.2377482296838
 20
216.5516032452109
 30
0.0
 10
265.2640135777337
 20
216.5721688949976
 30
0.0
 10
265.2960011871493
 20
216.5972169782567
 30
0.0
 10
265.3601147303777
 20
216.6474345810158
 30
0.0
 10
265.3920945003527
 20
216.6724897445741
 30
0.0
 10
265.4183455543765
 20
216.6930683042083
 30
0.0
  0
SPLINE
  5
EA
330
1F
100
AcDbEntity
  8
0
  6
Continuous
 62
     8
370
    18
100
AcDbSpline
210
0.0
220
0.0
230
1.0
 70
     8
 71
     3
 72
    49
 73
    45
 74
     0
 42
0.00000001
 43
0.00000001
 40
0.0
 40
0.0
 40
0.0
 40
0.0
 40
0.0078125
 40
0.0078125
 40
0.015625
 40
0.0312499999999999
 40
0.0312499999999999
 40
0.0624999999999995
 40
0.0624999999999995
 40
0.1249999999999993
 40
0.1249999999999993
 40
0.1562499999999993
 40
0.1562499999999993
 40
0.1874999999999993
 40
0.1874999999999993
 40
0.2499999999999993
 40
0.2499999999999993
 40
0.3124999999999992
 40
0.3124999999999992
 40
0.3437499999999992
 40
0.3437499999999992
 40
0.3749999999999993
 40
0.3749999999999993
 40
0.4999999999999993
 40
0.4999999999999993
 40
0.6249999999999993
 40
0.6249999999999993
 40
0.6874999999999993
 40
0.6874999999999993
 40
0.7499999999999992
 40
0.7499999999999992
 40
0.8124999999999992
 40
0.8124999999999992
 40
0.8749999999999992
 40
0.8749999999999992
 40
0.9374999999999993
 40
0.9374999999999993
 40
0.9687499999999994
 40
0.9687499999999994
 40
0.9843749999999998
 40
0.9843749999999998
 40
0.9921874999999999
 40
0.9921874999999999
 40
1.0
 40
1.0
 40
1.0
 40
1.0
 10
265.2377484364184
 20
216.5516034594284
 30
0.0
 10
265.1358778866617
 20
216.6816534191959
 30
0.0
 10
265.0317216899331
 20
216.8127083937173
 30
0.0
 10
264.8231727890408
 20
217.0713028501917
 30
0.0
 10
264.5078294661165
 20
217.4566856344723
 30
0.0
 10
264.1849431828285
 20
217.8345585975112
 30
0.0
 10
263.5291471534358
 20
218.5803250979774
 30
0.0
 10
263.0785890515834
 20
219.0642007153474
 30
0.0
 10
261.6869604552425
 20
220.4760488133593
 30
0.0
 10
260.7060069660753
 20
221.3643135233096
 30
0.0
 10
259.1541424450595
 20
222.616629677646
 30
0.0
 10
258.6249648775591
 20
223.0192325761437
 30
0.0
 10
257.5507036176546
 20
223.7894823596646
 30
0.0
 10
257.0045167454531
 20
224.1580396106699
 30
0.0
 10
255.3392632244801
 20
225.2148789180707
 30
0.0
 10
254.1935702781066
 20
225.8544503806945
 30
0.0
 10
251.8313411710955
 20
227.0039915462872
 30
0.0
 10
250.614815672588
 20
227.5139807546798
 30
0.0
 10
248.7349950523997
 20
228.1782874256515
 30
0.0
 10
248.1021582157847
 20
228.3817830874175
 30
0.0
 10
246.8329380111301
 20
228.7505939455303
 30
0.0
 10
246.195212993201
 20
228.916390368037
 30
0.0
 10
242.9912830132354
 20
229.6539386163483
 30
0.0
 10
240.37968923422
 20
229.954530367721
 30
0.0
 10
235.0560103563342
 20
229.9553626121765
 30
0.0
 10
232.4366901154272
 20
229.6555599572362
 30
0.0
 10
228.57072719195
 20
228.7644082637731
 30
0.0
 10
227.2872765476652
 20
228.3908227710668
 30
0.0
 10
224.7983543357649
 20
227.5095600877564
 30
0.0
 10
223.5867729733988
 20
227.0011367315196
 30
0.0
 10
221.2275471701636
 20
225.8524637640815
 30
0.0
 10
220.0800565401917
 20
225.2118970286317
 30
0.0
 10
217.8505961927717
 20
223.7956714144039
 30
0.0
 10
216.7647951357695
 20
223.016001136515
 30
0.0
 10
214.7084628348761
 20
221.3542627521687
 30
0.0
 10
213.7321301427288
 20
220.4692142958137
 30
0.0
 10
212.3446728457961
 20
219.0611132230415
 30
0.0
 10
211.8950887874369
 20
218.5782606043757
 30
0.0
 10
211.240165248127
 20
217.8336487716641
 30
0.0
 10
211.0251033973032
 20
217.5820519290553
 30
0.0
 10
210.7074281537002
 20
217.1995165816948
 30
0.0
 10
210.6023562501194
 20
217.0711478515891
 30
0.0
 10
210.393863370333
 20
216.8126847486607
 30
0.0
 10
210.2897256989924
 20
216.681675350766
 30
0.0
 10
210.1878538032507
 20
216.551626445345
 30
0.0
  0
SPLINE
  5
EB
330
1F
100
AcDbEntity
  8
0
  6
Continuous
 62
     8
370
    18
100
AcDbSpline
210
0.0
220
0.0
230
1.0
 70
     8
 71
     3
 72
    10
 73
     6
 74
     0
 42
0.00000001
 43
0.00000001
 40
0.0
 40
0.0
 40
0.0
 40
0.0
 40
0.5
 40
0.5
 40
1.0
 40
1.0
 40
1.0
 40
1.0
 10
210.0072576954509
 20
216.6930936250176
 30
0.0
 10
210.0335161446516
 20
216.6725244264229
 30
0.0
 10
210.0654980563021
 20
216.6474718628081
 30
0.0
 10
210.129609406682
 20
216.5972512238711
 30
0.0
 10
210.16159274774
 20
216.5721975919096
 30
0.0
 10
210.1878538032468
 20
216.5516264453481
 30
0.0
  0
LINE
  5
EC
330
1F
100
AcDbEntity
  8
0
  6
Continuous
 62
     8
370
    18
100
AcDbLine
 10
265.9889946914
 20
217.1400678455
 30
0.0
 11
265.4183460646
 21
216.6930687036
 31
0.0
  0
SPLINE
  5
ED
330
1F
100
AcDbEntity
  8
0
  6
Continuous
 62
     8
370
    18
100
AcDbSpline
210
0.0
220
0.0
230
1.0
 70
     8
 71
     3
 72
     8
 73
     4
 74
     0
 42
0.00000001
 43
0.00000001
 40
0.0
 40
0.0
 40
0.0
 40
0.0
 40
0.000011084434126
 40
0.000011084434126
 40
0.000011084434126
 40
0.000011084434126
 10
210.0004267606289
 20
216.6843641917166
 30
0.0
 10
210.0027024127991
 20
216.6872750396112
 30
0.0
 10
210.0049794552732
 20
216.6901848017415
 30
0.0
 10
210.0072578920659
 20
216.6930934710044
 30
0.0
  0
LINE
  5
EE
330
1F
100
AcDbEntity
  8
0
  6
Continuous
 62
     8
370
    18
100
AcDbLine
 10
209.4285774323
 20
217.1298313556
 30
0.0
 11
210.0004276483
 21
216.6843634613
 31
0.0
  0
LWPOLYLINE
  5
EF
330
1F
100
AcDbEntity
  8
0
  6
Continuous
 62
     8
370
    18
100
AcDbPolyline
 90
        9
 70
   128
 43
0.0
 10
210.1878379809
 20
117.7300368044
 10
210.1671694902
 20
117.7138436403
 10
210.1448807991
 20
117.6963814177
 10
210.1214906028
 20
117.6780565121
 10
210.0975432309
 20
117.6592953749
 10
210.073595979
 20
117.6405346095
 10
210.0502061402
 20
117.6222108106
 10
210.0279180354
 20
117.6047504038
 10
210.0072501143
 20
117.5885595405
  0
SPLINE
  5
F0
330
1F
100
AcDbEntity
  8
0
  6
Continuous
 62
     8
370
    18
100
AcDbSpline
210
0.0
220
0.0
230
1.0
 70
     8
 71
     3
 72
    40
 73
    36
 74
     0
 42
0.00000001
 43
0.00000001
 40
0.0
 40
0.0
 40
0.0
 40
0.0
 40
0.0156250000000001
 40
0.0156250000000001
 40
0.0312500000000003
 40
0.0312500000000003
 40
0.0625000000000003
 40
0.0625000000000003
 40
0.1250000000000003
 40
0.1250000000000003
 40
0.1875000000000003
 40
0.1875000000000003
 40
0.2500000000000002
 40
0.2500000000000002
 40
0.3125000000000003
 40
0.3125000000000003
 40
0.3750000000000003
 40
0.3750000000000003
 40
0.5000000000000003
 40
0.5000000000000003
 40
0.6250000000000003
 40
0.6250000000000003
 40
0.6562500000000003
 40
0.6562500000000003
 40
0.6875000000000004
 40
0.6875000000000004
 40
0.7500000000000004
 40
0.7500000000000004
 40
0.8125000000000003
 40
0.8125000000000003
 40
0.8437500000000002
 40
0.8437500000000002
 40
0.8750000000000002
 40
0.8750000000000002
 40
1.0
 40
1.0
 40
1.0
 40
1.0
 10
210.1878378418513
 20
117.7300366954469
 30
0.0
 10
210.3916641019771
 20
117.4698642269529
 30
0.0
 10
210.601621830198
 20
117.209516744503
 30
0.0
 10
211.0255039053107
 20
116.6989961088942
 30
0.0
 10
211.2408059485502
 20
116.4470641110794
 30
0.0
 10
211.896763124056
 20
115.7012214188168
 30
0.0
 10
212.3474653171719
 20
115.217260079573
 30
0.0
 10
213.7396542868177
 20
113.8050686637873
 30
0.0
 10
214.7211569301971
 20
112.9164653159541
 30
0.0
 10
216.7918625483489
 20
111.2459115533921
 30
0.0
 10
217.8671218454356
 20
110.4759029379275
 30
0.0
 10
220.0867941507668
 20
109.067376026862
 30
0.0
 10
221.2324775836163
 20
108.4278541209966
 30
0.0
 10
223.5954383229913
 20
107.2781115648575
 30
0.0
 10
224.8127077606156
 20
106.7678767031011
 30
0.0
 10
227.3215518383672
 20
105.8816049980176
 30
0.0
 10
228.590983896959
 20
105.5135241968109
 30
0.0
 10
232.4333934618219
 20
104.6291261907029
 30
0.0
 10
235.044162747093
 20
104.3284173689055
 30
0.0
 10
240.3678645246443
 20
104.3273285869869
 30
0.0
 10
242.9856561698097
 20
104.6269923544519
 30
0.0
 10
246.2035305182083
 20
105.3680904943952
 30
0.0
 10
246.8443647624795
 20
105.5348530999789
 30
0.0
 10
248.120444926048
 20
105.9061887283081
 30
0.0
 10
248.753479229022
 20
106.1102242461237
 30
0.0
 10
250.6227688335306
 20
106.7716575155235
 30
0.0
 10
251.8353959959101
 20
107.2799971291319
 30
0.0
 10
254.1949991240498
 20
108.4284721926281
 30
0.0
 10
255.3419719435518
 20
109.0686139588478
 30
0.0
 10
257.0123971589456
 20
110.129270698279
 30
0.0
 10
257.5608481707374
 20
110.4996005466266
 30
0.0
 10
258.6406492531623
 20
111.2745906588599
 30
0.0
 10
259.1696617530678
 20
111.6776794079913
 30
0.0
 10
261.7438106852736
 20
113.7569715218161
 30
0.0
 10
263.5960702778604
 20
115.6345738928328
 30
0.0
 10
265.2377280460012
 20
117.7300088318416
 30
0.0
  0
SPLINE
  5
F1
330
1F
100
AcDbEntity
  8
0
  6
Continuous
 62
     8
370
    18
100
AcDbSpline
210
0.0
220
0.0
230
1.0
 70
     8
 71
     3
 72
    10
 73
     6
 74
     0
 42
0.00000001
 43
0.00000001
 40
0.0
 40
0.0
 40
0.0
 40
0.0
 40
0.5
 40
0.5
 40
1.0
 40
1.0
 40
1.0
 40
1.0
 10
265.4184047989115
 20
117.5886445887023
 30
0.0
 10
265.392132012519
 20
117.6091954871316
 30
0.0
 10
265.3601363781589
 20
117.6342305348677
 30
0.0
 10
265.2959983438362
 20
117.6844171140161
 30
0.0
 10
265.2640020128368
 20
117.7094541654173
 30
0.0
 10
265.2377280459755
 20
117.7300088318088
 30
0.0
  0
SPLINE
  5
F2
330
1F
100
AcDbEntity
  8
0
  6
Continuous
 62
     8
370
    18
100
AcDbSpline
210
0.0
220
0.0
230
1.0
 70
     8
 71
     3
 72
    34
 73
    30
 74
     0
 42
0.00000001
 43
0.00000001
 40
0.0
 40
0.0
 40
0.0
 40
0.0
 40
0.1250000000000001
 40
0.1250000000000001
 40
0.1562500000000001
 40
0.1562500000000001
 40
0.1875000000000001
 40
0.1875000000000001
 40
0.2500000000000001
 40
0.2500000000000001
 40
0.3124999999999999
 40
0.3124999999999999
 40
0.3437499999999999
 40
0.3437499999999999
 40
0.3749999999999999
 40
0.3749999999999999
 40
0.4999999999999999
 40
0.4999999999999999
 40
0.6249999999999998
 40
0.6249999999999998
 40
0.6874999999999999
 40
0.6874999999999999
 40
0.7499999999999999
 40
0.7499999999999999
 40
0.875
 40
0.875
 40
0.9375000000000001
 40
0.9375000000000001
 40
1.0
 40
1.0
 40
1.0
 40
1.0
 10
265.4184047990155
 20
117.588644588835
 30
0.0
 10
263.7666289861824
 20
115.480292709698
 30
0.0
 10
261.9030520510029
 20
113.5910129712687
 30
0.0
 10
259.3132485846001
 20
111.4986826822168
 30
0.0
 10
258.7810353008431
 20
111.0930663046699
 30
0.0
 10
257.6946467956029
 20
110.3131591316491
 30
0.0
 10
257.1428520266508
 20
109.9404712236818
 30
0.0
 10
255.4622506337153
 20
108.8730312159031
 30
0.0
 10
254.3083002811711
 20
108.2287555660825
 30
0.0
 10
251.9343638339982
 20
107.0727721083548
 30
0.0
 10
250.7143817871733
 20
106.561056174166
 30
0.0
 10
248.8337728613321
 20
105.8951345888557
 30
0.0
 10
248.196933092631
 20
105.6897014587207
 30
0.0
 10
246.9130365433057
 20
105.315739748839
 30
0.0
 10
246.2682776084369
 20
105.147775705334
 30
0.0
 10
243.0306999230635
 20
104.401210769809
 30
0.0
 10
240.3970476951996
 20
104.0988875017945
 30
0.0
 10
235.0405022900333
 20
104.098041543723
 30
0.0
 10
232.4133082569484
 20
104.3995474977753
 30
0.0
 10
228.5469141610623
 20
105.2876459478505
 30
0.0
 10
227.2697512694849
 20
105.6572985908317
 30
0.0
 10
224.7447860784921
 20
106.547850760736
 30
0.0
 10
223.5196788667907
 20
107.0606280416334
 30
0.0
 10
219.952359057924
 20
108.7940148034504
 30
0.0
 10
217.7153501160909
 20
110.2083016531822
 30
0.0
 10
214.5870137359629
 20
112.7288486131633
 30
0.0
 10
213.5916530874186
 20
113.6288279565967
 30
0.0
 10
211.7150947587047
 20
115.5315436133389
 30
0.0
 10
210.833113845395
 20
116.534390112381
 30
0.0
 10
210.0072497615018
 20
117.5885592640764
 30
0.0
  0
LINE
  5
F3
330
1F
100
AcDbEntity
  8
0
  6
Continuous
 62
     8
370
    18
100
AcDbLine
 10
265.237728046
 20
117.7300088318
 30
0.0
 11
262.9903294288
 21
119.4904767069
 31
0.0
  0
LINE
  5
F4
330
1F
100
AcDbEntity
  8
0
  6
Continuous
 62
     8
370
    18
100
AcDbLine
 10
210.1878379809
 20
117.7300368044
 30
0.0
 11
212.4352545183
 21
119.4904778518
 31
0.0
  0
LINE
  5
F5
330
1F
100
AcDbEntity
  8
0
  6
Continuous
 62
     8
370
    18
100
AcDbLine
 10
210.1878538731
 20
216.5516263906
 30
0.0
 11
211.1378702642
 21
215.8074283344
 31
0.0
  0
LINE
  5
F6
330
1F
100
AcDbEntity
  8
0
  6
Continuous
 62
     8
370
    18
100
AcDbLine
 10
264.287715656
 20
215.8074261025
 30
0.0
 11
265.2377482297
 21
216.5516032451
 31
0.0
  0
LINE
  5
F7
330
1F
100
AcDbEntity
  8
0
  6
Continuous
 62
     8
370
    18
100
AcDbLine
 10
265.995252543
 20
217.1320772434
 30
0.0
 11
266.8782846145
 21
217.3572926338
 31
0.0
  0
LINE
  5
F8
330
1F
100
AcDbEntity
  8
0
  6
Continuous
 62
     8
370
    18
100
AcDbLine
 10
208.547300071
 20
217.3572926338
 30
0.0
 11
209.4303325606
 21
217.1320771364
 31
0.0
  0
LINE
  5
F9
330
1F
100
AcDbEntity
  8
0
  6
Continuous
 62
     8
370
    18
100
AcDbLine
 10
265.989558396
 20
117.1422907057
 30
0.0
 11
265.4184047749
 21
117.5886446078
 31
0.0
  0
LINE
  5
FA
330
1F
100
AcDbEntity
  8
0
  6
Continuous
 62
     8
370
    18
100
AcDbLine
 10
209.430546873
 20
117.1492893334
 30
0.0
 11
210.0012601026
 21
117.5962119181
 31
0.0
  0
SPLINE
  5
FB
330
1F
100
AcDbEntity
  8
0
  6
Continuous
 62
     8
370
    18
100
AcDbSpline
210
0.0
220
0.0
230
1.0
 70
     8
 71
     3
 72
    11
 73
     7
 74
     0
 42
0.00000001
 43
0.00000001
 40
0.0
 40
0.0
 40
0.0
 40
0.0
 40
0.0000096579797684
 40
0.0000096579797684
 40
0.0000096579797684
 40
0.0000097179797684
 40
0.0000097179797684
 40
0.0000097179797684
 40
0.0000097179797684
 10
210.0072501143464
 20
117.5885595404856
 30
0.0
 10
210.0052647314773
 20
117.5910937698615
 30
0.0
 10
210.003280396353
 20
117.5936288204613
 30
0.0
 10
210.0012971132184
 20
117.5961646930365
 30
0.0
 10
210.0012847921128
 20
117.5961804470925
 30
0.0
 10
210.0012724710662
 20
117.5961962011945
 30
0.0
 10
210.0012601500235
 20
117.5962119552998
 30
0.0
  0
LINE
  5
FC
330
1F
100
AcDbEntity
  8
0
  6
Continuous
 62
     8
370
    18
100
AcDbLine
 10
209.4303326771
 20
117.1495618009
 30
0.0
 11
208.547300071
 21
116.9243462737
 31
0.0
  0
LINE
  5
FD
330
1F
100
AcDbEntity
  8
0
  6
Continuous
 62
     8
370
    18
100
AcDbLine
 10
266.8782846145
 20
116.9243462737
 30
0.0
 11
265.9952525248
 21
117.1495616688
 31
0.0
  0
SPLINE
  5
FE
330
1F
100
AcDbEntity
  8
0
  6
Continuous
 62
     8
370
    18
100
AcDbSpline
210
0.0
220
0.0
230
1.0
 70
     8
 71
     3
 72
    12
 73
     8
 74
     0
 42
0.00000001
 43
0.00000001
 40
0.0
 40
0.0
 40
0.0
 40
0.0
 40
0.5000000000000044
 40
0.5000000000000044
 40
0.7500000000000022
 40
0.7500000000000022
 40
1.0
 40
1.0
 40
1.0
 40
1.0
 10
266.6769319197582
 20
212.3804715491598
 30
0.0
 10
266.6764992822359
 20
213.1293588007212
 30
0.0
 10
266.5504387467657
 20
213.8805446447957
 30
0.0
 10
266.1824216049097
 20
214.945147478257
 30
0.0
 10
266.0305086750909
 20
215.289397056921
 30
0.0
 10
265.6744445653617
 20
215.9434067482815
 30
0.0
 10
265.4684773339259
 20
216.2566928245615
 30
0.0
 10
265.2377479335178
 20
216.5516030131076
 30
0.0
  0
LINE
  5
FF
330
1F
100
AcDbEntity
  8
0
  6
Continuous
 62
     8
370
    18
100
AcDbLine
 10
265.5188193179
 20
212.3804715492
 30
0.0
 11
266.6769319197
 21
212.3804715492
 31
0.0
  0
SPLINE
  5
100
330
1F
100
AcDbEntity
  8
0
  6
Continuous
 62
     8
370
    18
100
AcDbSpline
210
0.0
220
0.0
230
1.0
 70
     8
 71
     3
 72
    12
 73
     8
 74
     0
 42
0.00000001
 43
0.00000001
 40
0.0
 40
0.0
 40
0.0
 40
0.0
 40
0.25
 40
0.25
 40
0.5
 40
0.5
 40
1.0
 40
1.0
 40
1.0
 40
1.0
 10
265.4183455544176
 20
216.6930683041557
 30
0.0
 10
265.6579305267511
 20
216.3868431903487
 30
0.0
 10
265.869541241512
 20
216.0647235539353
 30
0.0
 10
266.2374971948632
 20
215.3890835362075
 30
0.0
 10
266.3945166519301
 20
215.0334707362599
 30
0.0
 10
266.775007982973
 20
213.9336559733928
 30
0.0
 10
266.9058929029579
 20
213.1582864109651
 30
0.0
 10
266.906339602501
 20
212.3806011918165
 30
0.0
  0
LWPOLYLINE
  5
101
330
1F
100
AcDbEntity
  8
0
  6
Continuous
 62
     8
370
    18
100
AcDbPolyline
 90
        9
 70
   128
 43
0.0
 10
266.6769319197
 20
212.3804715492
 10
266.7031884996
 20
212.3804925352
 10
266.7315031308
 20
212.3805130329
 10
266.7612168842
 20
212.3805325652
 10
266.7916382712
 20
212.3805506775
 10
266.8220593351
 20
212.3805669484
 10
266.8517721268
 20
212.3805809992
 10
266.88008518
 20
212.3805925029
 10
266.9063396025
 20
212.3806011918
  0
LINE
  5
102
330
1F
100
AcDbEntity
  8
0
  6
Continuous
 62
     8
370
    18
100
AcDbLine
 10
207.7943734297
 20
121.9002162542
 30
0.0
 11
208.5192513468
 21
121.9010374237
 31
0.0
  0
SPLINE
  5
103
330
1F
100
AcDbEntity
  8
0
  6
Continuous
 62
     8
370
    18
100
AcDbSpline
210
0.0
220
0.0
230
1.0
 70
     8
 71
     3
 72
    12
 73
     8
 74
     0
 42
0.00000001
 43
0.00000001
 40
0.0
 40
0.0
 40
0.0
 40
0.0
 40
0.2499999999999998
 40
0.2499999999999998
 40
0.4999999999999996
 40
0.4999999999999996
 40
1.0
 40
1.0
 40
1.0
 40
1.0
 10
210.0012596680651
 20
117.5962122896508
 30
0.0
 10
209.7627488787804
 20
117.9019415477386
 30
0.0
 10
209.5500036507582
 20
118.2272826779736
 30
0.0
 10
209.1832185309449
 20
118.9035358585553
 30
0.0
 10
209.0279987311897
 20
119.2557130321503
 30
0.0
 10
208.6489279620126
 20
120.3554288463932
 30
0.0
 10
208.5196998145975
 20
121.1259750104606
 30
0.0
 10
208.5192513961257
 20
121.9010374239581
 30
0.0
  0
SPLINE
  5
104
330
1F
100
AcDbEntity
  8
0
  6
Continuous
 62
     8
370
    18
100
AcDbSpline
210
0.0
220
0.0
230
1.0
 70
     8
 71
     3
 72
    10
 73
     6
 74
     0
 42
0.00000001
 43
0.00000001
 40
0.0
 40
0.0
 40
0.0
 40
0.0
 40
0.5
 40
0.5
 40
1.0
 40
1.0
 40
1.0
 40
1.0
 10
208.5192513472319
 20
121.9010374237846
 30
0.0
 10
208.5526069776661
 20
121.9010590798007
 30
0.0
 10
208.5932329958718
 20
121.9010807356418
 30
0.0
 10
208.6746723991368
 20
121.9011240471075
 30
0.0
 10
208.7153001992403
 20
121.9011457027344
 30
0.0
 10
208.7486590786928
 20
121.9011673583599
 30
0.0
  0
SPLINE
  5
105
330
1F
100
AcDbEntity
  8
0
  6
Continuous
 62
     8
370
    18
100
AcDbSpline
210
0.0
220
0.0
230
1.0
 70
     8
 71
     3
 72
    14
 73
    10
 74
     0
 42
0.00000001
 43
0.00000001
 40
0.0
 40
0.0
 40
0.0
 40
0.0
 40
0.25
 40
0.25
 40
0.5
 40
0.5
 40
0.75
 40
0.75
 40
1.0
 40
1.0
 40
1.0
 40
1.0
 10
208.7486590786695
 20
121.9011673583598
 30
0.0
 10
208.7488755867116
 20
121.5272863774742
 30
0.0
 10
208.7800886271255
 20
121.1531148782387
 30
0.0
 10
208.9041907779799
 20
120.4137813090296
 30
0.0
 10
208.9963084993764
 20
120.0516084075136
 30
0.0
 10
209.2407465393075
 20
119.3424741903638
 30
0.0
 10
209.3908835542775
 20
119.0018305845921
 30
0.0
 10
209.7456575892576
 20
118.3477240851311
 30
0.0
 10
209.9514393529445
 20
118.0330400820163
 30
0.0
 10
210.1821361500241
 20
117.7373207835536
 30
0.0
  0
SPLINE
  5
106
330
1F
100
AcDbEntity
  8
0
  6
Continuous
 62
     8
370
    18
100
AcDbSpline
210
0.0
220
0.0
230
1.0
 70
     8
 71
     3
 72
    10
 73
     6
 74
     0
 42
0.00000001
 43
0.00000001
 40
0.0
 40
0.0
 40
0.0
 40
0.0
 40
0.5
 40
0.5
 40
1.0
 40
1.0
 40
1.0
 40
1.0
 10
210.0012596680652
 20
117.5962122896507
 30
0.0
 10
210.0275527052107
 20
117.6167372595827
 30
0.0
 10
210.0595808794815
 20
117.6417306484154
 30
0.0
 10
210.1237917615333
 20
117.6918239538599
 30
0.0
 10
210.1558281448814
 20
117.7168097173208
 30
0.0
 10
210.1821361500241
 20
117.7373207835536
 30
0.0
  0
SPLINE
  5
107
330
1F
100
AcDbEntity
  8
0
  6
Continuous
 62
     8
370
    18
100
AcDbSpline
210
0.0
220
0.0
230
1.0
 70
     8
 71
     3
 72
    11
 73
     7
 74
     0
 42
0.00000001
 43
0.00000001
 40
0.0
 40
0.0
 40
0.0
 40
0.0
 40
0.0000091902144317
 40
0.0000091902144317
 40
0.0000091902144317
 40
0.000009250214431
 40
0.000009250214431
 40
0.000009250214431
 40
0.000009250214431
 10
210.182136421652
 20
117.7373209961374
 30
0.0
 10
210.1840237149803
 20
117.7349079956949
 30
0.0
 10
210.1859119707402
 20
117.7324957472955
 30
0.0
 10
210.1878011851785
 20
117.7300842502884
 30
0.0
 10
210.1878135192612
 20
117.7300685063882
 30
0.0
 10
210.1878258534331
 20
117.7300527625578
 30
0.0
 10
210.1878381875491
 20
117.7300370186837
 30
0.0
  0
LINE
  5
108
330
1F
100
AcDbEntity
  8
0
  6
Continuous
 62
     8
370
    18
100
AcDbLine
 10
208.7486590787
 20
121.9011673584
 30
0.0
 11
211.5100695666
 21
121.9011673584
 31
0.0
  0
SPLINE
  5
109
330
1F
100
AcDbEntity
  8
0
  6
Continuous
 62
     8
370
    18
100
AcDbSpline
210
0.0
220
0.0
230
1.0
 70
     8
 71
     3
 72
    14
 73
    10
 74
     0
 42
0.00000001
 43
0.00000001
 40
0.0
 40
0.0
 40
0.0
 40
0.0
 40
0.25
 40
0.25
 40
0.5
 40
0.5
 40
0.75
 40
0.75
 40
1.0
 40
1.0
 40
1.0
 40
1.0
 10
208.5192547659092
 20
212.3879837621186
 30
0.0
 10
208.5198994617992
 20
212.7747083215706
 30
0.0
 10
208.5523417569821
 20
213.1610537182084
 30
0.0
 10
208.6804892747463
 20
213.9211829003328
 30
0.0
 10
208.7756921564655
 20
214.2940304707803
 30
0.0
 10
209.027774490424
 20
215.0251739546551
 30
0.0
 10
209.1828347708505
 20
215.3773387654925
 30
0.0
 10
209.5504296219776
 20
216.0551150700398
 30
0.0
 10
209.763060588211
 20
216.3799976550367
 30
0.0
 10
210.0004281112959
 20
216.6843631032735
 30
0.0
  0
LINE
  5
10A
330
1F
100
AcDbEntity
  8
0
  6
Continuous
 62
     8
370
    18
100
AcDbLine
 10
207.7943740573
 20
212.3879832828
 30
0.0
 11
208.5192548634
 21
212.3879832655
 31
0.0
  0
SPLINE
  5
10B
330
1F
100
AcDbEntity
  8
0
  6
Continuous
 62
     8
370
    18
100
AcDbSpline
210
0.0
220
0.0
230
1.0
 70
     8
 71
     3
 72
    10
 73
     6
 74
     0
 42
0.00000001
 43
0.00000001
 40
0.0
 40
0.0
 40
0.0
 40
0.0
 40
0.5
 40
0.5
 40
1.0
 40
1.0
 40
1.0
 40
1.0
 10
210.0005109775518
 20
216.6844719147441
 30
0.0
 10
210.0267954735695
 20
216.6639360144571
 30
0.0
 10
210.0588047708001
 20
216.6389184639286
 30
0.0
 10
210.1229638990688
 20
216.5887589067266
 30
0.0
 10
210.1549675236857
 20
216.5637312041209
 30
0.0
 10
210.1812416765594
 20
216.5431767930731
 30
0.0
  0
SPLINE
  5
10C
330
1F
100
AcDbEntity
  8
0
  6
Continuous
 62
     8
370
    18
100
AcDbSpline
210
0.0
220
0.0
230
1.0
 70
     8
 71
     3
 72
    14
 73
    10
 74
     0
 42
0.00000001
 43
0.00000001
 40
0.0
 40
0.0
 40
0.0
 40
0.0
 40
0.25
 40
0.25
 40
0.5
 40
0.5
 40
0.75
 40
0.75
 40
1.0
 40
1.0
 40
1.0
 40
1.0
 10
210.1813257382204
 20
216.543281741723
 30
0.0
 10
209.951297580534
 20
216.2483287602354
 30
0.0
 10
209.746066436792
 20
215.9346398418462
 30
0.0
 10
209.3905121076537
 20
215.2790588244737
 30
0.0
 10
209.2405283208855
 20
214.9384276451875
 30
0.0
 10
208.9966987721429
 20
214.2312292525325
 30
0.0
 10
208.9046048597881
 20
213.8705938598921
 30
0.0
 10
208.7806537702163
 20
213.1353570572058
 30
0.0
 10
208.7492897051031
 20
212.7616615220048
 30
0.0
 10
208.7486621842494
 20
212.3876013313405
 30
0.0
  0
SPLINE
  5
10D
330
1F
100
AcDbEntity
  8
0
  6
Continuous
 62
     8
370
    18
100
AcDbSpline
210
0.0
220
0.0
230
1.0
 70
     8
 71
     3
 72
    10
 73
     6
 74
     0
 42
0.00000001
 43
0.00000001
 40
0.0
 40
0.0
 40
0.0
 40
0.0
 40
0.5
 40
0.5
 40
1.0
 40
1.0
 40
1.0
 40
1.0
 10
208.5192547659092
 20
212.3879837621186
 30
0.0
 10
208.5526103671192
 20
212.3879381452362
 30
0.0
 10
208.5932363391059
 20
212.3878758981401
 30
0.0
 10
208.6746756315065
 20
212.3877401357825
 30
0.0
 10
208.7153033671964
 20
212.3876669298978
 30
0.0
 10
208.7486621842494
 20
212.3876013313405
 30
0.0
  0
SPLINE
  5
10E
330
1F
100
AcDbEntity
  8
0
  6
Continuous
 62
     8
370
    18
100
AcDbSpline
210
0.0
220
0.0
230
1.0
 70
     8
 71
     3
 72
    11
 73
     7
 74
     0
 42
0.00000001
 43
0.00000001
 40
-0.00000006
 40
-0.00000006
 40
-0.00000006
 40
-0.00000006
 40
0.0
 40
0.0
 40
0.0
 40
0.0000105215334256
 40
0.0000105215334256
 40
0.0000105215334256
 40
0.0000105215334256
 10
210.1878458235196
 20
216.5516158480932
 30
0.0
 10
210.1878334903898
 20
216.5516001034462
 30
0.0
 10
210.1878211572271
 20
216.551584358825
 30
0.0
 10
210.1878088241428
 20
216.5515686141423
 30
0.0
 10
210.1856461081675
 20
216.5488076440608
 30
0.0
 10
210.1834846631763
 20
216.5460456778175
 30
0.0
 10
210.1813244909178
 20
216.5432827175367
 30
0.0
  0
LINE
  5
10F
330
1F
100
AcDbEntity
  8
0
  6
Continuous
 62
     8
370
    18
100
AcDbLine
 10
208.7486603361
 20
212.3804715492
 30
0.0
 11
209.9067653675
 21
212.3804715492
 31
0.0
  0
SPLINE
  5
110
330
1F
100
AcDbEntity
  8
0
  6
Continuous
 62
     8
370
    18
100
AcDbSpline
210
0.0
220
0.0
230
1.0
 70
     8
 71
     3
 72
     8
 73
     4
 74
     0
 42
0.00000001
 43
0.00000001
 40
0.0
 40
0.0
 40
0.0
 40
0.0
 40
0.0000071297824705
 40
0.0000071297824705
 40
0.0000071297824705
 40
0.0000071297824705
 10
208.74866248131
 20
212.3876013312644
 30
0.0
 10
208.7486612475155
 20
212.3852247375957
 30
0.0
 10
208.7486606307318
 20
212.3828481433167
 30
0.0
 10
208.7486606308798
 20
212.3804715491599
 30
0.0
  0
SPLINE
  5
111
330
1F
100
AcDbEntity
  8
0
  6
Continuous
 62
     8
370
    18
100
AcDbSpline
210
0.0
220
0.0
230
1.0
 70
     8
 71
     3
 72
    12
 73
     8
 74
     0
 42
0.00000001
 43
0.00000001
 40
0.0
 40
0.0
 40
0.0
 40
0.0
 40
0.499999999999999
 40
0.499999999999999
 40
0.7499999999999994
 40
0.7499999999999994
 40
1.0
 40
1.0
 40
1.0
 40
1.0
 10
266.906329054404
 20
121.8925894670836
 30
0.0
 10
266.904940707011
 20
121.117793606864
 30
0.0
 10
266.7749854951268
 20
120.3484994494188
 30
0.0
 10
266.3954997045846
 20
119.250742325592
 30
0.0
 10
266.2394341335716
 20
118.897116219287
 30
0.0
 10
265.8693669791266
 20
118.2169814490457
 30
0.0
 10
265.6562337975295
 20
117.8926230703918
 30
0.0
 10
265.4184045364294
 20
117.5886447939216
 30
0.0
  0
LINE
  5
112
330
1F
100
AcDbEntity
  8
0
  6
Continuous
 62
     8
370
    18
100
AcDbLine
 10
267.6312105642
 20
121.8925899893
 30
0.0
 11
266.9063289485
 21
121.8925900109
 31
0.0
  0
SPLINE
  5
113
330
1F
100
AcDbEntity
  8
0
  6
Continuous
 62
     8
370
    18
100
AcDbSpline
210
0.0
220
0.0
230
1.0
 70
     8
 71
     3
 72
    12
 73
     8
 74
     0
 42
0.00000001
 43
0.00000001
 40
0.0
 40
0.0
 40
0.0
 40
0.0
 40
0.4999999999999986
 40
0.4999999999999986
 40
0.7499999999999992
 40
0.7499999999999992
 40
1.0
 40
1.0
 40
1.0
 40
1.0
 10
266.6769211973469
 20
121.8927332981945
 30
0.0
 10
266.6755562823627
 20
121.1433595695957
 30
0.0
 10
266.5498397256093
 20
120.3993117646362
 30
0.0
 10
266.1827810373395
 20
119.3375805143695
 30
0.0
 10
266.0318302136237
 20
118.9955612178852
 30
0.0
 10
265.6739025393215
 20
118.3377441046824
 30
0.0
 10
265.4677641649663
 20
118.0240282004469
 30
0.0
 10
265.2377388582141
 20
117.7300230623356
 30
0.0
  0
SPLINE
  5
114
330
1F
100
AcDbEntity
  8
0
  6
Continuous
 62
     8
370
    18
100
AcDbSpline
210
0.0
220
0.0
230
1.0
 70
     8
 71
     3
 72
    10
 73
     6
 74
     0
 42
0.00000001
 43
0.00000001
 40
0.0
 40
0.0
 40
0.0
 40
0.0
 40
0.5
 40
0.5
 40
1.0
 40
1.0
 40
1.0
 40
1.0
 10
266.6769211973733
 20
121.8927332981946
 30
0.0
 10
266.7102800771202
 20
121.8927226749711
 30
0.0
 10
266.7509078736092
 20
121.8927029000164
 30
0.0
 10
266.8323472625748
 20
121.8926520332513
 30
0.0
 10
266.8729732701137
 20
121.8926210573566
 30
0.0
 10
266.9063288879838
 20
121.892590010932
 30
0.0
  0
LINE
  5
115
330
1F
100
AcDbEntity
  8
0
  6
Continuous
 62
     8
370
    18
100
AcDbLine
 10
267.6312113445
 20
212.3554751415
 30
0.0
 11
266.9063333626
 21
212.3570856037
 31
0.0
  0
SPLINE
  5
116
330
1F
100
AcDbEntity
  8
0
  6
Continuous
 62
     8
370
    18
100
AcDbSpline
210
0.0
220
0.0
230
1.0
 70
     8
 71
     3
 72
    11
 73
     7
 74
     0
 42
0.00000001
 43
0.00000001
 40
0.0
 40
0.0
 40
0.0
 40
0.0
 40
0.0000234555891809
 40
0.0000234555891809
 40
0.0000234555891809
 40
0.0000235155891809
 40
0.0000235155891809
 40
0.0000235155891809
 40
0.0000235155891809
 10
266.9063396024571
 20
212.3806011918165
 30
0.0
 10
266.9063440933909
 20
212.3727826639712
 30
0.0
 10
266.9063419415928
 20
212.3649641264423
 30
0.0
 10
266.9063331470925
 20
212.3571456039317
 30
0.0
 10
266.906333124596
 20
212.3571256039501
 30
0.0
 10
266.9063331020129
 20
212.3571056039687
 30
0.0
 10
266.9063330794724
 20
212.3570856039872
 30
0.0
  0
SPLINE
  5
117
330
1F
100
AcDbEntity
  8
0
  6
Continuous
 62
     8
370
    18
100
AcDbSpline
210
0.0
220
0.0
230
1.0
 70
     8
 71
     3
 72
     8
 73
     4
 74
     0
 42
0.00000001
 43
0.00000001
 40
0.0
 40
0.0
 40
0.0
 40
0.0
 40
1.0
 40
1.0
 40
1.0
 40
1.0
 10
265.5495708660341
 20
139.2749002573536
 30
0.0
 10
265.00590724103
 20
139.2407089794252
 30
0.0
 10
264.4622497788541
 20
139.2063657643984
 30
0.0
 10
263.9185582820872
 20
139.1728616311789
 30
0.0
  0
SPLINE
  5
118
330
1F
100
AcDbEntity
  8
0
  6
Continuous
 62
     8
370
    18
100
AcDbSpline
210
0.0
220
0.0
230
1.0
 70
     8
 71
     3
 72
     8
 73
     4
 74
     0
 42
0.00000001
 43
0.00000001
 40
0.0
 40
0.0
 40
0.0
 40
0.0
 40
1.0
 40
1.0
 40
1.0
 40
1.0
 10
211.5070264033901
 20
139.1728616311785
 30
0.0
 10
210.9633355378747
 20
139.2063657254983
 30
0.0
 10
210.4196776416652
 20
139.2407089670222
 30
0.0
 10
209.8760138194433
 20
139.2749002573541
 30
0.0
  0
SPLINE
  5
119
330
1F
100
AcDbEntity
  8
0
  6
Continuous
 62
     8
370
    18
100
AcDbSpline
210
0.0
220
0.0
230
1.0
 70
     8
 71
     3
 72
     8
 73
     4
 74
     0
 42
0.00000001
 43
0.00000001
 40
0.0
 40
0.0
 40
0.0
 40
0.0
 40
0.0000084335798712
 40
0.0000084335798712
 40
0.0000084335798712
 40
0.0000084335798712
 10
266.6769211973733
 20
121.8927332981945
 30
0.0
 10
266.6769229237914
 20
121.8955444906769
 30
0.0
 10
266.6769237870156
 20
121.8983556841695
 30
0.0
 10
266.6769237868759
 20
121.9011668774599
 30
0.0
  0
LINE
  5
11A
330
1F
100
AcDbEntity
  8
0
  6
Continuous
 62
     8
370
    18
100
AcDbLine
 10
266.6769240817
 20
121.9011668775
 30
0.0
 11
266.9063315663
 21
121.901166874
 31
0.0
  0
SPLINE
  5
11B
330
1F
100
AcDbEntity
  8
0
  6
Continuous
 62
     8
370
    18
100
AcDbSpline
210
0.0
220
0.0
230
1.0
 70
     8
 71
     3
 72
     8
 73
     4
 74
     0
 42
0.00000001
 43
0.00000001
 40
0.0
 40
0.0
 40
0.0
 40
0.0
 40
0.0000085768637323
 40
0.0000085768637323
 40
0.0000085768637323
 40
0.0000085768637323
 10
266.9063315662684
 20
121.901166874041
 30
0.0
 10
266.9063315664028
 20
121.8983079194636
 30
0.0
 10
266.9063306735895
 20
121.8954489646783
 30
0.0
 10
266.9063288879838
 20
121.8925900109319
 30
0.0
  0
SPLINE
  5
11C
330
1F
100
AcDbEntity
  8
0
  6
Continuous
 62
     8
370
    18
100
AcDbSpline
210
0.0
220
0.0
230
1.0
 70
     8
 71
     3
 72
     8
 73
     4
 74
     0
 42
0.00000001
 43
0.00000001
 40
0.0
 40
0.0
 40
0.0
 40
0.0
 40
0.0000075117140079
 40
0.0000075117140079
 40
0.0000075117140079
 40
0.0000075117140079
 10
208.5192528514826
 20
212.3804715518999
 30
0.0
 10
208.5192528513267
 20
212.3829754565692
 30
0.0
 10
208.5192535359879
 20
212.3854793613782
 30
0.0
 10
208.5192549055334
 20
212.3879832654893
 30
0.0
  0
LINE
  5
11D
330
1F
100
AcDbEntity
  8
0
  6
Continuous
 62
     8
370
    18
100
AcDbLine
 10
208.5192528515
 20
212.3804715519
 30
0.0
 11
208.7486603361
 21
212.3804715492
 31
0.0
  0
LINE
  5
11E
330
1F
100
AcDbEntity
  8
0
  6
Continuous
 62
     8
370
    18
100
AcDbLine
 10
266.6769242583
 20
121.9011668775
 30
0.0
 11
266.6769256064
 21
212.3573404687
 31
0.0
  0
SPLINE
  5
11F
330
1F
100
AcDbEntity
  8
0
  6
Continuous
 62
     8
370
    18
100
AcDbSpline
210
0.0
220
0.0
230
1.0
 70
     8
 71
     3
 72
    10
 73
     6
 74
     0
 42
0.00000001
 43
0.00000001
 40
0.0
 40
0.0
 40
0.0
 40
0.0
 40
0.5
 40
0.5
 40
1.0
 40
1.0
 40
1.0
 40
1.0
 10
266.676925606446
 20
212.3573404687376
 30
0.0
 10
266.7102844357441
 20
212.3572852461428
 30
0.0
 10
266.7509121771665
 20
212.3572301493895
 30
0.0
 10
266.8323514826228
 20
212.3571396735481
 30
0.0
 10
266.8729774623532
 20
212.3571045006368
 30
0.0
 10
266.9063330794748
 20
212.3570856061251
 30
0.0
  0
LINE
  5
120
330
1F
100
AcDbEntity
  8
0
  6
Continuous
 62
     8
370
    18
100
AcDbLine
 10
266.9063333626
 20
212.3570856037
 30
0.0
 11
266.9063320145
 21
121.901166874
 31
0.0
  0
SPLINE
  5
121
330
1F
100
AcDbEntity
  8
0
  6
Continuous
 62
     8
370
    18
100
AcDbSpline
210
0.0
220
0.0
230
1.0
 70
     8
 71
     3
 72
     8
 73
     4
 74
     0
 42
0.00000001
 43
0.00000001
 40
0.0
 40
0.0
 40
0.0
 40
0.0
 40
0.000023131081706
 40
0.000023131081706
 40
0.000023131081706
 40
0.000023131081706
 10
266.676925606446
 20
212.3573404687375
 30
0.0
 10
266.6769341727609
 20
212.3650508222158
 30
0.0
 10
266.6769362771928
 20
212.3727611904258
 30
0.0
 10
266.6769319197096
 20
212.3804715491598
 30
0.0
  0
LINE
  5
122
330
1F
100
AcDbEntity
  8
0
  6
Continuous
 62
     8
370
    18
100
AcDbLine
 10
208.5192513468
 20
121.9010374237
 30
0.0
 11
208.5192528515
 21
212.3804715519
 31
0.0
  0
LINE
  5
123
330
1F
100
AcDbEntity
  8
0
  6
Continuous
 62
     8
370
    18
100
AcDbLine
 10
208.7486603361
 20
212.3804715492
 30
0.0
 11
208.7486590787
 21
121.9011673584
 31
0.0
  0
LINE
  5
124
330
1F
100
AcDbEntity
  8
0
  6
Continuous
 62
     8
370
    18
100
AcDbLine
 10
266.6769240817
 20
121.9011668775
 30
0.0
 11
263.9155151004
 21
121.9011668775
 31
0.0
  0
LINE
  5
125
330
1F
100
AcDbEntity
  8
0
  6
Continuous
 62
     8
370
    18
100
AcDbLine
 10
207.7943734801
 20
212.3884432552
 30
0.0
 11
206.9584040066
 21
212.674397927
 31
0.0
  0
LINE
  5
126
330
1F
100
AcDbEntity
  8
0
  6
Continuous
 62
     8
370
    18
100
AcDbLine
 10
268.4671806789
 20
212.674397927
 30
0.0
 11
267.6312113202
 21
212.3884432948
 31
0.0
  0
LINE
  5
127
330
1F
100
AcDbEntity
  8
0
  6
Continuous
 62
     8
370
    18
100
AcDbLine
 10
206.9584040066
 20
121.6072409806
 30
0.0
 11
207.7943730487
 21
121.8931955036
 31
0.0
  0
LINE
  5
128
330
1F
100
AcDbEntity
  8
0
  6
Continuous
 62
     8
370
    18
100
AcDbLine
 10
267.631211412
 20
121.8931955811
 30
0.0
 11
268.4671806789
 21
121.6072409806
 31
0.0
  0
ARC
  5
129
330
1F
100
AcDbEntity
  8
0
  6
Continuous
 62
     7
370
    25
100
AcDbCircle
 10
388.5324606881
 20
139.2908194538
 30
0.0
 40
42.70000000000005
100
AcDbArc
 50
180.0
 51
224.8855145811
  0
LINE
  5
12A
330
1F
100
AcDbEntity
  8
0
  6
Continuous
 62
     7
370
    25
100
AcDbLine
 10
345.8324606881
 20
139.4414374642
 30
0.0
 11
345.8324606881
 21
139.2908194538
 31
0.0
  0
LINE
  5
12B
330
1F
100
AcDbEntity
  8
0
  6
Continuous
 62
     7
370
    25
100
AcDbLine
 10
345.8324606881
 20
140.2908194538
 30
0.0
 11
345.8324606881
 21
140.1363305791
 31
0.0
  0
LINE
  5
12C
330
1F
100
AcDbEntity
  8
0
  6
Continuous
 62
     7
370
    25
100
AcDbLine
 10
345.7824909128
 20
139.4408194537
 30
0.0
 11
345.832465502
 21
139.4408194537
 31
0.0
  0
LINE
  5
12D
330
1F
100
AcDbEntity
  8
0
  6
Continuous
 62
     7
370
    25
100
AcDbLine
 10
345.8324970446
 20
140.1408194537
 30
0.0
 11
345.7824909128
 21
140.1408194537
 31
0.0
  0
SPLINE
  5
12E
330
1F
100
AcDbEntity
  8
0
  6
Continuous
 62
     7
370
    25
100
AcDbSpline
210
0.0
220
0.0
230
1.0
 70
     8
 71
     3
 72
    10
 73
     6
 74
     0
 42
0.00000001
 43
0.00000001
 40
0.0
 40
0.0
 40
0.0
 40
0.0
 40
0.296043167438207
 40
0.7376864042487161
 40
1.0
 40
1.0
 40
1.0
 40
1.0
 10
358.2501309760304
 20
214.2067756219819
 30
0.0
 10
358.2501151504268
 20
214.0305277316157
 30
0.0
 10
358.2500757158649
 20
213.5913496427386
 30
0.0
 10
358.2498382884645
 20
212.9764681808976
 30
0.0
 10
358.2498439333336
 20
212.5423193032361
 30
0.0
 10
358.2498460367665
 20
212.380543540969
 30
0.0
  0
SPLINE
  5
12F
330
1F
100
AcDbEntity
  8
0
  6
Continuous
 62
     7
370
    25
100
AcDbSpline
210
0.0
220
0.0
230
1.0
 70
     8
 71
     3
 72
     9
 73
     5
 74
     0
 42
0.00000001
 43
0.00000001
 40
0.0
 40
0.0
 40
0.0
 40
0.0
 40
0.5671656974846175
 40
1.0
 40
1.0
 40
1.0
 40
1.0
 10
358.2501091917648
 20
214.7194272832425
 30
0.0
 10
358.2501348310394
 20
214.6250772287297
 30
0.0
 10
358.2501800370077
 20
214.4587236305991
 30
0.0
 10
358.2501457964977
 20
214.2828847299147
 30
0.0
 10
358.2501309760304
 20
214.2067756219819
 30
0.0
  0
SPLINE
  5
130
330
1F
100
AcDbEntity
  8
0
  6
Continuous
 62
     7
370
    25
100
AcDbSpline
210
0.0
220
0.0
230
1.0
 70
     8
 71
     3
 72
    11
 73
     7
 74
     0
 42
0.00000001
 43
0.00000001
 40
0.0
 40
0.0
 40
0.0
 40
0.0
 40
0.045923085129724
 40
0.4243647672904206
 40
0.7696158640382869
 40
1.0
 40
1.0
 40
1.0
 40
1.0
 10
358.2496754051394
 20
216.6187515830336
 30
0.0
 10
358.2496883555111
 20
216.5924197597099
 30
0.0
 10
358.2498080269457
 20
216.3490933794046
 30
0.0
 10
358.2498784609549
 20
215.8780680356734
 30
0.0
 10
358.2500135189961
 20
215.271282762963
 30
0.0
 10
358.2500818456624
 20
214.8771638747102
 30
0.0
 10
358.2501091917648
 20
214.7194272832425
 30
0.0
  0
SPLINE
  5
131
330
1F
100
AcDbEntity
  8
0
  6
Continuous
 62
     7
370
    25
100
AcDbSpline
210
0.0
220
0.0
230
1.0
 70
     8
 71
     3
 72
    10
 73
     6
 74
     0
 42
0.00000001
 43
0.00000001
 40
0.0
 40
0.0
 40
0.0
 40
0.0
 40
0.351840452815851
 40
0.7184838011432199
 40
1.0
 40
1.0
 40
1.0
 40
1.0
 10
358.2501432348931
 20
119.6021610919613
 30
0.0
 10
358.2501312368295
 20
119.358877418759
 30
0.0
 10
358.2501067359108
 20
118.8620744591233
 30
0.0
 10
358.2499311333949
 20
118.2150665987612
 30
0.0
 10
358.2497591418993
 20
117.8291894419519
 30
0.0
 10
358.2496844405511
 20
117.6615907837472
 30
0.0
  0
SPLINE
  5
132
330
1F
100
AcDbEntity
  8
0
  6
Continuous
 62
     7
370
    25
100
AcDbSpline
210
0.0
220
0.0
230
1.0
 70
     8
 71
     3
 72
     9
 73
     5
 74
     0
 42
0.00000001
 43
0.00000001
 40
0.0
 40
0.0
 40
0.0
 40
0.0
 40
0.6051739737112121
 40
1.0
 40
1.0
 40
1.0
 40
1.0
 10
358.2501423001511
 20
119.6881631397076
 30
0.0
 10
358.2501443355526
 20
119.6703138369193
 30
0.0
 10
358.2501476988854
 20
119.6408193385375
 30
0.0
 10
358.2501444984917
 20
119.6131038773634
 30
0.0
 10
358.2501432348931
 20
119.6021610919613
 30
0.0
  0
SPLINE
  5
133
330
1F
100
AcDbEntity
  8
0
  6
Continuous
 62
     7
370
    25
100
AcDbSpline
210
0.0
220
0.0
230
1.0
 70
     8
 71
     3
 72
    10
 73
     6
 74
     0
 42
0.00000001
 43
0.00000001
 40
0.0
 40
0.0
 40
0.0
 40
0.0
 40
0.2899695502361653
 40
0.6598903855529303
 40
1.0
 40
1.0
 40
1.0
 40
1.0
 10
358.2496790173196
 20
121.8926849437834
 30
0.0
 10
358.2497652851965
 20
121.6757148937176
 30
0.0
 10
358.2499616069912
 20
121.1819511524048
 30
0.0
 10
358.2501087009102
 20
120.4393717384546
 30
0.0
 10
358.2501314183409
 20
119.931457606414
 30
0.0
 10
358.2501423001511
 20
119.6881631397076
 30
0.0
  0
LINE
  5
134
330
1F
100
AcDbEntity
  8
0
  6
Continuous
 62
     7
370
    25
100
AcDbLine
 10
358.2496964715
 20
212.3598404687
 30
0.0
 11
358.2496974152
 21
121.9011668722
 31
0.0
  0
LINE
  5
135
330
1F
100
AcDbEntity
  8
0
  6
Continuous
 62
     7
370
    25
100
AcDbLine
 10
381.7597047445
 20
102.5704005037
 30
0.0
 11
382.7324606881
 21
102.5364311176
 31
0.0
  0
LINE
  5
136
330
1F
100
AcDbEntity
  8
0
  6
Continuous
 62
     7
370
    25
100
AcDbLine
 10
358.7938125552
 20
103.372387131
 30
0.0
 11
372.8918695921
 21
102.8800721309
 31
0.0
  0
LINE
  5
137
330
1F
100
AcDbEntity
  8
0
  6
Continuous
 62
     7
370
    25
100
AcDbLine
 10
382.7324606881
 20
231.7452077899
 30
0.0
 11
358.7923779813
 21
230.9092016801
 31
0.0
  0
LINE
  5
138
330
1F
100
AcDbEntity
  8
0
  6
Continuous
 62
     7
370
    25
100
AcDbLine
 10
382.7324606881
 20
102.7364311176
 30
0.0
 11
383.5324606881
 21
103.5364311176
 31
0.0
  0
LINE
  5
139
330
1F
100
AcDbEntity
  8
0
  6
Continuous
 62
     7
370
    25
100
AcDbLine
 10
383.5324606881
 20
230.7452077899
 30
0.0
 11
382.7324606881
 21
231.5452077899
 31
0.0
  0
SPLINE
  5
13A
330
1F
100
AcDbEntity
  8
0
  6
Continuous
 62
     7
370
    25
100
AcDbSpline
210
0.0
220
0.0
230
1.0
 70
     8
 71
     3
 72
    28
 73
    24
 74
     0
 42
0.00000001
 43
0.00000001
 40
0.0
 40
0.0
 40
0.0
 40
0.0
 40
0.0135248069907399
 40
0.0432032629227046
 40
0.0763865837246913
 40
0.1080385470032134
 40
0.1333689649927788
 40
0.1526959548757357
 40
0.1814702253558094
 40
0.2145261795733107
 40
0.2375134859578981
 40
0.2955328087468859
 40
0.3303548515696858
 40
0.3679349999166182
 40
0.4181165710906819
 40
0.4718086761387221
 40
0.558781293181346
 40
0.6438854578395488
 40
0.7276306062165361
 40
0.8103849874533008
 40
0.8924705020470792
 40
0.9741840645902463
 40
1.0
 40
1.0
 40
1.0
 40
1.0
 10
358.2857295303003
 20
228.2914699890889
 30
0.0
 10
358.1651327614459
 20
228.1796948301692
 30
0.0
 10
357.7799018360795
 20
227.8226434073768
 30
0.0
 10
357.1167236359952
 20
227.1720020971475
 30
0.0
 10
356.3141435803897
 20
226.3493765129705
 30
0.0
 10
355.5704971997748
 20
225.5435777943791
 30
0.0
 10
354.9570902091734
 20
224.8472758502728
 30
0.0
 10
354.3792975178404
 20
224.1665320955977
 30
0.0
 10
353.7558753645466
 20
223.4019166433164
 30
0.0
 10
353.1246268808268
 20
222.5862520737058
 30
0.0
 10
352.301359388905
 20
221.4702704708724
 30
0.0
 10
351.5024589676459
 20
220.3086906850986
 30
0.0
 10
350.66143661335
 20
218.9784543883382
 30
0.0
 10
349.9022898140924
 20
217.6983061266764
 30
0.0
 10
349.0807017384935
 20
216.1896233089095
 30
0.0
 10
348.0578020581341
 20
214.1048309359026
 30
0.0
 10
346.9923473763093
 20
211.5724957975991
 30
0.0
 10
345.9903569271842
 20
208.6247818275755
 30
0.0
 10
345.2093639547986
 20
205.6645029701582
 30
0.0
 10
344.6355475318009
 20
202.6937874192939
 30
0.0
 10
344.281613502181
 20
199.715941666008
 30
0.0
 10
344.1225859031973
 20
197.4118004079944
 30
0.0
 10
344.1479635268599
 20
196.1043231229426
 30
0.0
 10
344.1540562465862
 20
195.7904208934781
 30
0.0
  0
LINE
  5
13B
330
1F
100
AcDbEntity
  8
0
  6
Continuous
 62
     7
370
    25
100
AcDbLine
 10
358.2826330733
 20
104.104259243
 30
0.0
 11
358.7986388817
 21
103.3673265791
 31
0.0
  0
LINE
  5
13C
330
1F
100
AcDbEntity
  8
0
  6
Continuous
 62
     7
370
    25
100
AcDbLine
 10
358.7971526025
 20
230.9145497904
 30
0.0
 11
358.2822610665
 21
230.1792084729
 31
0.0
  0
LINE
  5
13D
330
1F
100
AcDbEntity
  8
0
  6
Continuous
 62
     7
370
    25
100
AcDbLine
 10
344.1709707178
 20
140.3960210651
 30
0.0
 11
345.6532578271
 21
140.3183376895
 31
0.0
  0
LINE
  5
13E
330
1F
100
AcDbEntity
  8
0
  6
Continuous
 62
     7
370
    25
100
AcDbLine
 10
358.2496950884
 20
230.0696557554
 30
0.0
 11
358.2496938979
 21
230.0629422603
 31
0.0
  0
ARC
  5
13F
330
1F
100
AcDbEntity
  8
0
  6
Continuous
 62
     7
370
    25
100
AcDbCircle
 10
358.4496950809
 20
230.0696397908
 30
0.0
 40
0.2000000000000055
100
AcDbArc
 50
145.0050144132
 51
179.995424968
  0
ARC
  5
140
330
1F
100
AcDbEntity
  8
0
  6
Continuous
 62
     7
370
    25
100
AcDbCircle
 10
358.4505212633
 20
104.2131793776
 30
0.0
 40
0.199999999999994
100
AcDbArc
 50
180.0090855207
 51
215.0099951522
  0
LINE
  5
141
330
1F
100
AcDbEntity
  8
0
  6
Continuous
 62
     7
370
    25
100
AcDbLine
 10
358.2505172906
 20
104.2280654406
 30
0.0
 11
358.2505214275
 21
104.2131476655
 31
0.0
  0
LINE
  5
142
330
1F
100
AcDbEntity
  8
0
  6
Continuous
 62
     7
370
    25
100
AcDbLine
 10
358.2496930195
 20
117.6598506222
 30
0.0
 11
358.2496955179
 21
117.1655511806
 31
0.0
  0
LINE
  5
143
330
1F
100
AcDbEntity
  8
0
  6
Continuous
 62
     7
370
    25
100
AcDbLine
 10
344.132460688
 20
195.7908194538
 30
0.0
 11
344.132460688
 21
140.3973776664
 31
0.0
  0
LINE
  5
144
330
1F
100
AcDbEntity
  8
0
  6
Continuous
 62
     7
370
    25
100
AcDbLine
 10
386.3222648508
 20
229.8933973457
 30
0.0
 11
383.6762980527
 21
229.9857965423
 31
0.0
  0
LINE
  5
145
330
1F
100
AcDbEntity
  8
0
  6
Continuous
 62
     7
370
    25
100
AcDbLine
 10
383.5324606881
 20
104.2908194538
 30
0.0
 11
386.3222648521
 21
104.3882415619
 31
0.0
  0
ARC
  5
146
330
1F
100
AcDbEntity
  8
0
  6
Continuous
 62
     7
370
    25
100
AcDbCircle
 10
386.2734055554
 20
228.4942501878
 30
0.0
 40
1.400000000000007
100
AcDbArc
 50
45.0
 51
88.0
  0
ARC
  5
147
330
1F
100
AcDbEntity
  8
0
  6
Continuous
 62
     7
370
    25
100
AcDbCircle
 10
386.2734055567
 20
105.7873887197
 30
0.0
 40
1.399999999999997
100
AcDbArc
 50
272.0
 51
315.0
  0
LINE
  5
148
330
1F
100
AcDbEntity
  8
0
  6
Continuous
 62
     7
370
    25
100
AcDbLine
 10
388.3483862463
 20
228.3991684843
 30
0.0
 11
387.2633550491
 21
229.4841996815
 31
0.0
  0
LINE
  5
149
330
1F
100
AcDbEntity
  8
0
  6
Continuous
 62
     7
370
    25
100
AcDbLine
 10
387.2633550503
 20
104.7974392261
 30
0.0
 11
394.3295169629
 21
111.8636011386
 31
0.0
  0
ARC
  5
14A
330
1F
100
AcDbEntity
  8
0
  6
Continuous
 62
     7
370
    25
100
AcDbCircle
 10
392.632460688
 20
113.5606574134
 30
0.0
 40
2.400000000000005
100
AcDbArc
 50
315.0
 51
0.0
  0
LINE
  5
14B
330
1F
100
AcDbEntity
  8
0
  6
Continuous
 62
     7
370
    25
100
AcDbLine
 10
389.4916521459
 20
226.6618259133
 30
0.0
 11
389.4479509826
 21
226.8026340532
 31
0.0
  0
SPLINE
  5
14C
330
1F
100
AcDbEntity
  8
0
  6
Continuous
 62
     7
370
    25
100
AcDbSpline
210
0.0
220
0.0
230
1.0
 70
     8
 71
     3
 72
    12
 73
     8
 74
     0
 42
0.00000001
 43
0.00000001
 40
0.0
 40
0.0
 40
0.0
 40
0.0
 40
0.2148327160542062
 40
0.4296652573001318
 40
0.6445023350556481
 40
0.8593423643830951
 40
1.0
 40
1.0
 40
1.0
 40
1.0
 10
345.8338951383758
 20
139.7908194537284
 30
0.0
 10
345.8338626859872
 20
139.8301537020504
 30
0.0
 10
345.8337977812365
 20
139.9088221666885
 30
0.0
 10
345.8333415953014
 20
140.0139076450092
 30
0.0
 10
345.8328480475976
 20
140.0922986104066
 30
0.0
 10
345.8324946989411
 20
140.1367167457956
 30
0.0
 10
345.8324964515051
 20
140.1364400555214
 30
0.0
 10
345.8324971449315
 20
140.1363305791349
 30
0.0
  0
SPLINE
  5
14D
330
1F
100
AcDbEntity
  8
0
  6
Continuous
 62
     7
370
    25
100
AcDbSpline
210
0.0
220
0.0
230
1.0
 70
     8
 71
     3
 72
    13
 73
     9
 74
     0
 42
0.00000001
 43
0.00000001
 40
0.0
 40
0.0
 40
0.0
 40
0.0
 40
0.0069426874418911
 40
0.2216027435753788
 40
0.4362628574122833
 40
0.6509292552301077
 40
0.8655983549309718
 40
1.0
 40
1.0
 40
1.0
 40
1.0
 10
345.8324656240111
 20
139.4414374642416
 30
0.0
 10
345.8324639840906
 20
139.4412320843419
 30
0.0
 10
345.8324116396782
 20
139.4346765898576
 30
0.0
 10
345.8326069929161
 20
139.4583882669156
 30
0.0
 10
345.8330188869012
 20
139.5139186743327
 30
0.0
 10
345.8335303624563
 20
139.605166373135
 30
0.0
 10
345.8338491473716
 20
139.7024474763173
 30
0.0
 10
345.8338823532267
 20
139.7662527165337
 30
0.0
 10
345.8338951383758
 20
139.7908194537284
 30
0.0
  0
LINE
  5
14E
330
1F
100
AcDbEntity
  8
0
  6
Continuous
 62
     7
370
    25
100
AcDbLine
 10
345.7824909128
 20
139.7908194537
 30
0.0
 11
345.7824909128
 21
140.1408194537
 31
0.0
  0
LINE
  5
14F
330
1F
100
AcDbEntity
  8
0
  6
Continuous
 62
     7
370
    25
100
AcDbLine
 10
345.7824909128
 20
139.4408194537
 30
0.0
 11
345.7824909128
 21
139.7908194537
 31
0.0
  0
SPLINE
  5
150
330
1F
100
AcDbEntity
  8
0
  6
Continuous
 62
     7
370
    25
100
AcDbSpline
210
0.0
220
0.0
230
1.0
 70
    24
 71
     3
 72
     8
 73
     4
 74
     0
 42
0.00000001
 43
0.00000001
 40
0.0
 40
0.0
 40
0.0
 40
0.0
 40
1.0
 40
1.0
 40
1.0
 40
1.0
 10
382.7324606880784
 20
213.042508844499
 30
0.0
 10
382.7324606880784
 20
212.9202795891423
 30
0.0
 10
382.7324606880784
 20
212.7975790883877
 30
0.0
 10
382.7324606880784
 20
212.6743979269515
 30
0.0
  0
SPLINE
  5
151
330
1F
100
AcDbEntity
  8
0
  6
Continuous
 62
     7
370
    25
100
AcDbSpline
210
0.0
220
0.0
230
1.0
 70
     8
 71
     3
 72
    10
 73
     6
 74
     0
 42
0.00000001
 43
0.00000001
 40
0.0
 40
0.0
 40
0.0
 40
0.0
 40
0.5
 40
0.5
 40
1.0
 40
1.0
 40
1.0
 40
1.0
 10
358.7934422131536
 20
217.132077243414
 30
0.0
 10
358.794699700028
 20
216.4550914101399
 30
0.0
 10
358.7953260086057
 20
215.7097472534523
 30
0.0
 10
358.7953330987012
 20
214.0844587158562
 30
0.0
 10
358.7946876540796
 20
213.2482419938573
 30
0.0
 10
358.7934303950416
 20
212.3884432947584
 30
0.0
  0
SPLINE
  5
152
330
1F
100
AcDbEntity
  8
0
  6
Continuous
 62
     7
370
    25
100
AcDbSpline
210
0.0
220
0.0
230
1.0
 70
    24
 71
     3
 72
     8
 73
     4
 74
     0
 42
0.00000001
 43
0.00000001
 40
0.0
 40
0.0
 40
0.0
 40
0.0
 40
1.0
 40
1.0
 40
1.0
 40
1.0
 10
382.7324606880783
 20
217.3572926337868
 30
0.0
 10
382.7324606880783
 20
217.2754846380278
 30
0.0
 10
382.7324606880784
 20
217.1926916999462
 30
0.0
 10
382.7324606880784
 20
217.1089310121682
 30
0.0
  0
SPLINE
  5
153
330
1F
100
AcDbEntity
  8
0
  6
Continuous
 62
     7
370
    25
100
AcDbSpline
210
0.0
220
0.0
230
1.0
 70
    24
 71
     3
 72
    17
 73
    13
 74
     0
 42
0.00000001
 43
0.00000001
 40
0.0
 40
0.0
 40
0.0
 40
0.0
 40
0.0623923404334735
 40
0.1247178072124033
 40
0.1870540064892853
 40
0.2494785043886869
 40
0.3747328774942404
 40
0.4999634247887827
 40
0.6251872990030772
 40
0.7498501827530111
 40
0.8745790788286892
 40
1.0
 40
1.0
 40
1.0
 40
1.0
 10
382.7324606880784
 20
213.042508844499
 30
0.0
 10
382.7324606880784
 20
213.1329710366931
 30
0.0
 10
382.7324606880784
 20
213.3137984614652
 30
0.0
 10
382.7324606880784
 20
213.584078273864
 30
0.0
 10
382.7324606880784
 20
213.8533003982296
 30
0.0
 10
382.7324606880784
 20
214.2110769472909
 30
0.0
 10
382.7324606880784
 20
214.6544795339262
 30
0.0
 10
382.7324606880784
 20
215.1768100209395
 30
0.0
 10
382.7324606880784
 20
215.6860554087643
 30
0.0
 10
382.7324606880784
 20
216.1791672479231
 30
0.0
 10
382.7324606880784
 20
216.6564588731571
 30
0.0
 10
382.7324606880784
 20
216.9578290580646
 30
0.0
 10
382.7324606880784
 20
217.1089310121682
 30
0.0
  0
SPLINE
  5
154
330
1F
100
AcDbEntity
  8
0
  6
Continuous
 62
     7
370
    25
100
AcDbSpline
210
0.0
220
0.0
230
1.0
 70
     8
 71
     3
 72
    10
 73
     6
 74
     0
 42
0.00000001
 43
0.00000001
 40
0.0
 40
0.0
 40
0.0
 40
0.0
 40
0.5
 40
0.5
 40
1.0
 40
1.0
 40
1.0
 40
1.0
 10
358.7934313406035
 20
121.8925713653374
 30
0.0
 10
358.7948410556641
 20
121.0359501539253
 30
0.0
 10
358.7953107102002
 20
120.2019994209798
 30
0.0
 10
358.7953521133385
 20
118.5820280944442
 30
0.0
 10
358.7946936521595
 20
117.8240551144005
 30
0.0
 10
358.7934417211827
 20
117.149561668754
 30
0.0
  0
SPLINE
  5
155
330
1F
100
AcDbEntity
  8
0
  6
Continuous
 62
     7
370
    25
100
AcDbSpline
210
0.0
220
0.0
230
1.0
 70
    24
 71
     3
 72
    17
 73
    13
 74
     0
 42
0.00000001
 43
0.00000001
 40
0.0
 40
0.0
 40
0.0
 40
0.0
 40
0.0623923361143903
 40
0.1247178000284077
 40
0.1870539977733999
 40
0.2494784953478815
 40
0.3747328686963622
 40
0.4999634202341398
 40
0.6251872868686293
 40
0.7498501697685582
 40
0.8745790703673869
 40
1.0
 40
1.0
 40
1.0
 40
1.0
 10
382.7324606880784
 20
117.2218490355851
 30
0.0
 10
382.7324606880784
 20
117.2968760840971
 30
0.0
 10
382.7324606880784
 20
117.4468497670171
 30
0.0
 10
382.7324606880784
 20
117.678413329317
 30
0.0
 10
382.7324606880784
 20
117.9145233862938
 30
0.0
 10
382.7324606880784
 20
118.2363082945482
 30
0.0
 10
382.7324606880784
 20
118.6498355682282
 30
0.0
 10
382.7324606880784
 20
119.1612003503228
 30
0.0
 10
382.7324606880784
 20
119.6838799199107
 30
0.0
 10
382.7324606880784
 20
120.2155453421747
 30
0.0
 10
382.7324606880784
 20
120.7544038004742
 30
0.0
 10
382.7324606880784
 20
121.117155213186
 30
0.0
 10
382.7324606880784
 20
121.2990326878409
 30
0.0
  0
SPLINE
  5
156
330
1F
100
AcDbEntity
  8
0
  6
Continuous
 62
     7
370
    25
100
AcDbSpline
210
0.0
220
0.0
230
1.0
 70
    24
 71
     3
 72
     8
 73
     4
 74
     0
 42
0.00000001
 43
0.00000001
 40
0.0
 40
0.0
 40
0.0
 40
0.0
 40
1.0
 40
1.0
 40
1.0
 40
1.0
 10
382.7324606880784
 20
121.6072409805681
 30
0.0
 10
382.7324606880784
 20
121.5041424084783
 30
0.0
 10
382.7324606880784
 20
121.4014085571707
 30
0.0
 10
382.7324606880784
 20
121.2990326878409
 30
0.0
  0
SPLINE
  5
157
330
1F
100
AcDbEntity
  8
0
  6
Continuous
 62
     7
370
    25
100
AcDbSpline
210
0.0
220
0.0
230
1.0
 70
    24
 71
     3
 72
     8
 73
     4
 74
     0
 42
0.00000001
 43
0.00000001
 40
0.0
 40
0.0
 40
0.0
 40
0.0
 40
1.0
 40
1.0
 40
1.0
 40
1.0
 10
382.7324606880784
 20
117.2218490355848
 30
0.0
 10
382.7324606880784
 20
117.1212618306487
 30
0.0
 10
382.7324606880784
 20
117.0220854403721
 30
0.0
 10
382.7324606880784
 20
116.9243462737329
 30
0.0
  0
LINE
  5
158
330
1F
100
AcDbEntity
  8
0
  6
Continuous
 62
     7
370
    25
100
AcDbLine
 10
358.793433025
 20
121.8931955811
 30
0.0
 11
358.7934310899
 21
212.3554751415
 31
0.0
  0
SPLINE
  5
159
330
1F
100
AcDbEntity
  8
0
  6
Continuous
 62
     7
370
    25
100
AcDbSpline
210
0.0
220
0.0
230
1.0
 70
     8
 71
     3
 72
     8
 73
     4
 74
     0
 42
0.00000001
 43
0.00000001
 40
0.0
 40
0.0
 40
0.0
 40
0.0
 40
1.0
 40
1.0
 40
1.0
 40
1.0
 10
358.7934325770845
 20
212.3554751391514
 30
0.0
 10
358.7934150519309
 20
212.3664651703233
 30
0.0
 10
358.7934143265225
 20
212.3774545554558
 30
0.0
 10
358.7934303950416
 20
212.3884432947725
 30
0.0
  0
LINE
  5
15A
330
1F
100
AcDbEntity
  8
0
  6
Continuous
 62
     7
370
    25
100
AcDbLine
 10
382.7324606881
 20
121.6072409806
 30
0.0
 11
382.7324606881
 21
212.674397927
 31
0.0
  0
LINE
  5
15B
330
1F
100
AcDbEntity
  8
0
  6
Continuous
 62
     7
370
    25
100
AcDbLine
 10
383.5324606881
 20
121.3391785303
 30
0.0
 11
383.5324606881
 21
121.6072409806
 31
0.0
  0
SPLINE
  5
15C
330
1F
100
AcDbEntity
  8
0
  6
Continuous
 62
     7
370
    25
100
AcDbSpline
210
0.0
220
0.0
230
1.0
 70
    24
 71
     3
 72
    14
 73
    10
 74
     0
 42
0.00000001
 43
0.00000001
 40
0.0002161632894514
 40
0.0002161632894514
 40
0.0002161632894514
 40
0.0002161632894514
 40
0.2502046437405873
 40
0.2502046437405873
 40
0.5001931241917235
 40
0.5001931241917235
 40
0.7501816046428594
 40
0.7501816046428594
 40
0.9999798966542067
 40
0.9999798966542067
 40
0.9999798966542067
 40
0.9999798966542067
 10
383.5324606880772
 20
117.791200809601
 30
0.0
 10
383.5324606880775
 20
118.051210117134
 30
0.0
 10
383.5324606880772
 20
118.3218166108017
 30
0.0
 10
383.5324606880772
 20
118.8861379577274
 30
0.0
 10
383.5324606880772
 20
119.1814233777844
 30
0.0
 10
383.5324606880772
 20
119.7810454433614
 30
0.0
 10
383.532460688077
 20
120.0878828992461
 30
0.0
 10
383.5324606880773
 20
120.7073028644758
 30
0.0
 10
383.5324606880787
 20
121.0207487509915
 30
0.0
 10
383.5324606880772
 20
121.3391785884142
 30
0.0
  0
LINE
  5
15D
330
1F
100
AcDbEntity
  8
0
  6
Continuous
 62
     7
370
    25
100
AcDbLine
 10
383.5324606881
 20
212.6743981526
 30
0.0
 11
383.5324606881
 21
212.9940329556
 31
0.0
  0
SPLINE
  5
15E
330
1F
100
AcDbEntity
  8
0
  6
Continuous
 62
     7
370
    25
100
AcDbSpline
210
0.0
220
0.0
230
1.0
 70
    24
 71
     3
 72
    14
 73
    10
 74
     0
 42
0.00000001
 43
0.00000001
 40
0.0002161546454185
 40
0.0002161546454185
 40
0.0002161546454185
 40
0.0002161546454185
 40
0.2502046351088637
 40
0.2502046351088637
 40
0.500193115572309
 40
0.500193115572309
 40
0.7501815960357543
 40
0.7501815960357543
 40
0.9999798959654668
 40
0.9999798959654668
 40
0.9999798959654668
 40
0.9999798959654668
 10
383.5324606880783
 20
212.9940329555894
 30
0.0
 10
383.5324606880783
 20
213.3099254494519
 30
0.0
 10
383.5324606880783
 20
213.622249081871
 30
0.0
 10
383.5324606880783
 20
214.2420048532042
 30
0.0
 10
383.5324606880782
 20
214.5510498245978
 30
0.0
 10
383.5324606880785
 20
215.1492904972336
 30
0.0
 10
383.5324606880785
 20
215.4410583943609
 30
0.0
 10
383.5324606880782
 20
216.002031109088
 30
0.0
 10
383.5324606880783
 20
216.2721000609742
 30
0.0
 10
383.5324606880783
 20
216.5327436654932
 30
0.0
  0
LINE
  5
15F
330
1F
100
AcDbEntity
  8
0
  6
Continuous
 62
     7
370
    25
100
AcDbLine
 10
383.5324606881
 20
121.6072409806
 30
0.0
 11
383.5324606881
 21
212.6743981526
 31
0.0
  0
SPLINE
  5
160
330
1F
100
AcDbEntity
  8
0
  6
Continuous
 62
     7
370
    25
100
AcDbSpline
210
0.0
220
0.0
230
1.0
 70
     8
 71
     3
 72
     8
 73
     4
 74
     0
 42
0.00000001
 43
0.00000001
 40
0.0
 40
0.0
 40
0.0
 40
0.0
 40
1.0
 40
1.0
 40
1.0
 40
1.0
 10
358.7934309702734
 20
217.1400678403964
 30
0.0
 10
358.7934337881241
 20
217.1374045599167
 30
0.0
 10
358.7934372652734
 20
217.1347410161103
 30
0.0
 10
358.7934422131749
 20
217.1320772434196
 30
0.0
  0
SPLINE
  5
161
330
1F
100
AcDbEntity
  8
0
  6
Continuous
 62
     7
370
    25
100
AcDbSpline
210
0.0
220
0.0
230
1.0
 70
     8
 71
     3
 72
     8
 73
     4
 74
     0
 42
0.00000001
 43
0.00000001
 40
0.0
 40
0.0
 40
0.0
 40
0.0
 40
1.0
 40
1.0
 40
1.0
 40
1.0
 10
358.7934417211827
 20
117.149561668754
 30
0.0
 10
358.7934372222605
 20
117.147137818296
 30
0.0
 10
358.7934337521993
 20
117.1447141630323
 30
0.0
 10
358.7934313108454
 20
117.1422907047715
 30
0.0
  0
LINE
  5
162
330
1F
100
AcDbEntity
  8
0
  6
Continuous
 62
     7
370
    25
100
AcDbLine
 10
358.2496972264
 20
139.9986855406
 30
0.0
 11
354.9599801697
 21
140.1666356756
 31
0.0
  0
LINE
  5
163
330
1F
100
AcDbEntity
  8
0
  6
Continuous
 62
     7
370
    25
100
AcDbLine
 10
358.249890209
 20
212.3805455612
 30
0.0
 11
358.2496920683
 21
212.3805506775
 31
0.0
  0
SPLINE
  5
164
330
1F
100
AcDbEntity
  8
0
  6
Continuous
 62
     7
370
    25
100
AcDbSpline
210
0.0
220
0.0
230
1.0
 70
     8
 71
     3
 72
     9
 73
     5
 74
     0
 42
0.00000001
 43
0.00000001
 40
0.0
 40
0.0
 40
0.0
 40
0.0
 40
0.0855882200890078
 40
1.0
 40
1.0
 40
1.0
 40
1.0
 10
358.2504632884066
 20
121.8926802491872
 30
0.0
 10
358.250185352493
 20
121.8926793312549
 30
0.0
 10
358.2469379907253
 20
121.8926686062711
 30
0.0
 10
358.2526683824065
 20
121.8926539556618
 30
0.0
 10
358.2579083200633
 20
121.8926405589719
 30
0.0
  0
LINE
  5
165
330
1F
100
AcDbEntity
  8
0
  6
Continuous
 62
     7
370
    25
100
AcDbLine
 10
383.5324606881
 20
117.532885302
 30
0.0
 11
383.5324606881
 21
117.7912008096
 31
0.0
  0
LINE
  5
166
330
1F
100
AcDbEntity
  8
0
  6
Continuous
 62
     7
370
    25
100
AcDbLine
 10
383.5324606881
 20
216.5327438432
 30
0.0
 11
383.5324606881
 21
216.7487537846
 31
0.0
  0
SPLINE
  5
167
330
1F
100
AcDbEntity
  8
0
  6
Continuous
 62
     7
370
    25
100
AcDbSpline
210
0.0
220
0.0
230
1.0
 70
     8
 71
     3
 72
    24
 73
    20
 74
     0
 42
0.00000001
 43
0.00000001
 40
0.0
 40
0.0
 40
0.0
 40
0.0
 40
0.0574937113575814
 40
0.1199934466062157
 40
0.182927557069507
 40
0.2457146927846283
 40
0.3080117495142916
 40
0.370455314986648
 40
0.4327941868730838
 40
0.4949296395661453
 40
0.5573529684121274
 40
0.6194616055390028
 40
0.6819612302642684
 40
0.7443432107564021
 40
0.8068454512315448
 40
0.8695736775933669
 40
0.9320543065861778
 40
0.9949405971100294
 40
1.0
 40
1.0
 40
1.0
 40
1.0
 10
372.8918984687049
 20
102.8808990476111
 30
0.0
 10
372.9030940809809
 20
102.8819072343186
 30
0.0
 10
372.9264601165373
 20
102.8840113913646
 30
0.0
 10
373.1724428533385
 20
102.9051088489008
 30
0.0
 10
373.5709519521942
 20
102.9356056321949
 30
0.0
 10
374.1188178890465
 20
102.970280883621
 30
0.0
 10
374.7884246873892
 20
103.0011336615132
 30
0.0
 10
375.5554014717671
 20
103.0209311806808
 30
0.0
 10
376.3907991501143
 20
103.0235105742642
 30
0.0
 10
377.262328614173
 20
103.0051469083887
 30
0.0
 10
378.1345752290858
 20
102.9652447432614
 30
0.0
 10
378.9758815103256
 20
102.9064443126586
 30
0.0
 10
379.7521725641679
 20
102.8345913406867
 30
0.0
 10
380.4362611984355
 20
102.757330444803
 30
0.0
 10
381.0004427385413
 20
102.6839012112254
 30
0.0
 10
381.4290110683949
 20
102.6222045826051
 30
0.0
 10
381.6827746507445
 20
102.5833426618257
 30
0.0
 10
381.7897645015026
 20
102.5664696348206
 30
0.0
 10
381.7618129455707
 20
102.5708439420658
 30
0.0
 10
381.7597316041971
 20
102.5711696637062
 30
0.0
  0
SPLINE
  5
168
330
1F
100
AcDbEntity
  8
0
  6
Continuous
 62
     7
370
    25
100
AcDbSpline
210
0.0
220
0.0
230
1.0
 70
     8
 71
     3
 72
    19
 73
    15
 74
     0
 42
0.00000001
 43
0.00000001
 40
0.0
 40
0.0
 40
0.0
 40
0.0
 40
0.0784744670439544
 40
0.1569489647939898
 40
0.2370692325503881
 40
0.3171894946071604
 40
0.4087581555335498
 40
0.5003268166422186
 40
0.5945462990818402
 40
0.6887657817776146
 40
0.7804893879892302
 40
0.8722130156896013
 40
0.9666013643561724
 40
1.0
 40
1.0
 40
1.0
 40
1.0
 10
358.7934308213635
 20
117.1422907161579
 30
0.0
 10
358.7934182488066
 20
116.4827759429287
 30
0.0
 10
358.7933931036877
 20
115.1637461384104
 30
0.0
 10
358.7933376844006
 20
113.3240557209991
 30
0.0
 10
358.7940798988433
 20
111.5983326876388
 30
0.0
 10
358.794396301388
 20
109.9326070059245
 30
0.0
 10
358.7945494633594
 20
108.3722465540511
 30
0.0
 10
358.7947381798265
 20
106.9424876744676
 30
0.0
 10
358.794860066076
 20
105.7300034177808
 30
0.0
 10
358.7950492328679
 20
104.7592758269362
 30
0.0
 10
358.794855621031
 20
104.0379335875788
 30
0.0
 10
358.7944084033367
 20
103.5778365521207
 30
0.0
 10
358.7948894789931
 20
103.3637566772383
 30
0.0
 10
358.7948708168371
 20
103.3945134567616
 30
0.0
 10
358.7948659392625
 20
103.4025521038775
 30
0.0
  0
LINE
  5
169
330
1F
100
AcDbEntity
  8
0
  6
Continuous
 62
     7
370
    25
100
AcDbLine
 10
382.7324606881
 20
116.9243462737
 30
0.0
 11
382.7324606881
 21
102.5364311176
 31
0.0
  0
SPLINE
  5
16A
330
1F
100
AcDbEntity
  8
0
  6
Continuous
 62
     7
370
    25
100
AcDbSpline
210
0.0
220
0.0
230
1.0
 70
     8
 71
     3
 72
    18
 73
    14
 74
     0
 42
0.00000001
 43
0.00000001
 40
0.0
 40
0.0
 40
0.0
 40
0.0
 40
0.0603356402142506
 40
0.152062574008374
 40
0.2437895071767275
 40
0.3381811892952183
 40
0.4325728699485461
 40
0.5243015389933322
 40
0.6160302027020328
 40
0.7104238333997753
 40
0.8048174442749036
 40
0.9020265478269118
 40
1.0
 40
1.0
 40
1.0
 40
1.0
 10
358.7934404916217
 20
230.8787753666074
 30
0.0
 10
358.793443848321
 20
230.8804932117688
 30
0.0
 10
358.7934523081356
 20
230.8848226587768
 30
0.0
 10
358.7934789420577
 20
230.6028410883161
 30
0.0
 10
358.7935751443311
 20
230.0733297789944
 30
0.0
 10
358.79367986529
 20
229.2762244639175
 30
0.0
 10
358.7936637250654
 20
228.2348761000985
 30
0.0
 10
358.7936816632159
 20
226.9663647701467
 30
0.0
 10
358.7935936834644
 20
225.4759827483542
 30
0.0
 10
358.7936223972902
 20
223.7530567610896
 30
0.0
 10
358.7932511153948
 20
221.78183090156
 30
0.0
 10
358.7927761993593
 20
219.5940521408572
 30
0.0
 10
358.7932122235564
 20
217.9601953766011
 30
0.0
 10
358.7934310894057
 20
217.1400678454503
 30
0.0
  0
LINE
  5
16B
330
1F
100
AcDbEntity
  8
0
  6
Continuous
 62
     7
370
    25
100
AcDbLine
 10
382.7324606881
 20
231.7452077899
 30
0.0
 11
382.7324606881
 21
217.3572926338
 31
0.0
  0
SPLINE
  5
16C
330
1F
100
AcDbEntity
  8
0
  6
Continuous
 62
     7
370
    25
100
AcDbSpline
210
0.0
220
0.0
230
1.0
 70
     8
 71
     3
 72
    15
 73
    11
 74
     0
 42
0.00000001
 43
0.00000001
 40
0.0
 40
0.0
 40
0.0
 40
0.0
 40
0.1221439083798154
 40
0.2678949461250342
 40
0.4136459830766935
 40
0.554417129832423
 40
0.6951882737150121
 40
0.840939457784679
 40
0.9866906379534295
 40
0.9999999999999999
 40
0.9999999999999999
 40
0.9999999999999999
 40
0.9999999999999999
 10
345.6532818326942
 20
140.3190518987974
 30
0.0
 10
345.6707992128364
 20
140.3187276795205
 30
0.0
 10
345.7092196111327
 20
140.3180165781086
 30
0.0
 10
346.221533345658
 20
140.3084962520605
 30
0.0
 10
347.0912664444493
 20
140.2922033465148
 30
0.0
 10
348.3176750359067
 20
140.2692042722693
 30
0.0
 10
349.8776395950203
 20
140.2398631955764
 30
0.0
 10
351.7946044245583
 20
140.2035295896385
 30
0.0
 10
353.3708519897626
 20
140.1733527564774
 30
0.0
 10
354.2571303864703
 20
140.156271417858
 30
0.0
 10
354.3312895707126
 20
140.1548421399443
 30
0.0
  0
LINE
  5
16D
330
1F
100
AcDbEntity
  8
0
  6
Continuous
 62
     7
370
    25
100
AcDbLine
 10
383.5324606881
 20
103.5364311176
 30
0.0
 11
383.5324606881
 21
117.532885302
 31
0.0
  0
LINE
  5
16E
330
1F
100
AcDbEntity
  8
0
  6
Continuous
 62
     7
370
    25
100
AcDbLine
 10
383.5324606881
 20
216.7487537846
 30
0.0
 11
383.5324606881
 21
230.7452077899
 31
0.0
  0
SPLINE
  5
16F
330
1F
100
AcDbEntity
  8
0
  6
Continuous
 62
     7
370
    25
100
AcDbSpline
210
0.0
220
0.0
230
1.0
 70
     8
 71
     3
 72
    19
 73
    15
 74
     0
 42
0.00000001
 43
0.00000001
 40
0.0
 40
0.0
 40
0.0
 40
0.0
 40
0.057784413325314
 40
0.1364870644683269
 40
0.2167045091678354
 40
0.2969221386232736
 40
0.3928516684598394
 40
0.4887811395204998
 40
0.5874974620352889
 40
0.6862137453815931
 40
0.7699649458773858
 40
0.8537161272761364
 40
0.9393004921254917
 40
1.0
 40
1.0
 40
1.0
 40
1.0
 10
358.2858537262891
 20
117.1002254391218
 30
0.0
 10
358.2858430478383
 20
116.6457433911295
 30
0.0
 10
358.2858178252857
 20
115.5722545900095
 30
0.0
 10
358.2857563686936
 20
113.9943000835069
 30
0.0
 10
358.2860935406184
 20
112.3605285283782
 30
0.0
 10
358.2862699008978
 20
110.7508627081787
 30
0.0
 10
358.286324890777
 20
109.2123453017521
 30
0.0
 10
358.2864323704854
 20
107.7785119994748
 30
0.0
 10
358.2865160060426
 20
106.5568071489829
 30
0.0
 10
358.286567392701
 20
105.6125627472816
 30
0.0
 10
358.2865928678073
 20
104.9226337117656
 30
0.0
 10
358.286389177813
 20
104.4546604175827
 30
0.0
 10
358.2865126221412
 20
104.1768591848144
 30
0.0
 10
358.2866057300141
 20
104.1413145873647
 30
0.0
 10
358.2866443644989
 20
104.1265655960191
 30
0.0
  0
SPLINE
  5
170
330
1F
100
AcDbEntity
  8
0
  6
Continuous
 62
     7
370
    25
100
AcDbSpline
210
0.0
220
0.0
230
1.0
 70
     8
 71
     3
 72
     9
 73
     5
 74
     0
 42
0.00000001
 43
0.00000001
 40
0.0
 40
0.0
 40
0.0
 40
0.0
 40
0.1087718867819355
 40
1.0
 40
1.0
 40
1.0
 40
1.0
 10
358.2865330158959
 20
104.2157689655416
 30
0.0
 10
358.286531109564
 20
104.2169938942235
 30
0.0
 10
358.286513583602
 20
104.228255339788
 30
0.0
 10
358.2865108084389
 20
104.2772067841532
 30
0.0
 10
358.2865083351354
 20
104.3208336875541
 30
0.0
  0
SPLINE
  5
171
330
1F
100
AcDbEntity
  8
0
  6
Continuous
 62
     7
370
    25
100
AcDbSpline
210
0.0
220
0.0
230
1.0
 70
     8
 71
     3
 72
    19
 73
    15
 74
     0
 42
0.00000001
 43
0.00000001
 40
0.0
 40
0.0
 40
0.0
 40
0.0
 40
0.076096011232048
 40
0.1676955731689904
 40
0.2618648754392423
 40
0.3560342288526565
 40
0.4491729960130147
 40
0.5423117101168834
 40
0.6381540844902466
 40
0.7339963410139819
 40
0.8000266894680722
 40
0.8660567116900559
 40
0.9330281576059005
 40
1.0
 40
1.0
 40
1.0
 40
1.0
 10
358.2858606231242
 20
230.164412493046
 30
0.0
 10
358.2858555652106
 20
230.1442963020695
 30
0.0
 10
358.2858444189009
 20
230.09996551362
 30
0.0
 10
358.2857914445915
 20
229.7460857915648
 30
0.0
 10
358.2857418153757
 20
229.1520304358402
 30
0.0
 10
358.2857293549988
 20
228.3087408414171
 30
0.0
 10
358.2857194270355
 20
227.2371181564797
 30
0.0
 10
358.2857333551851
 20
225.9349904251164
 30
0.0
 10
358.2857429446689
 20
224.3984246760867
 30
0.0
 10
358.285843932708
 20
222.8159095789658
 30
0.0
 10
358.2857415032379
 20
221.2816519929538
 30
0.0
 10
358.2855311410413
 20
219.8489155045035
 30
0.0
 10
358.2857451667241
 20
218.3264994495327
 30
0.0
 10
358.2858257637689
 20
217.2375466933423
 30
0.0
 10
358.2858660624105
 20
216.6930687035722
 30
0.0
  0
SPLINE
  5
172
330
1F
100
AcDbEntity
  8
0
  6
Continuous
 62
     7
370
    25
100
AcDbSpline
210
0.0
220
0.0
230
1.0
 70
     8
 71
     3
 72
    12
 73
     8
 74
     0
 42
0.00000001
 43
0.00000001
 40
0.0
 40
0.0
 40
0.0
 40
0.0
 40
0.2500000000000005
 40
0.2500000000000005
 40
0.500000000000001
 40
0.500000000000001
 40
1.0
 40
1.0
 40
1.0
 40
1.0
 10
354.9599801696984
 20
140.1666356755867
 30
0.0
 10
354.7612763790343
 20
140.1767801129024
 30
0.0
 10
354.5673672608422
 20
140.1861098547922
 30
0.0
 10
354.1887808509447
 20
140.2032006961142
 30
0.0
 10
354.0023090334039
 20
140.2110212013806
 30
0.0
 10
353.481741729534
 20
140.2310262956847
 30
0.0
 10
353.1748460016096
 20
140.2402035933603
 30
0.0
 10
352.9366788995515
 20
140.2443611283669
 30
0.0
  0
LINE
  5
173
330
1F
100
AcDbEntity
  8
0
  6
Continuous
 62
     7
370
    25
100
AcDbLine
 10
354.3312895707
 20
140.1548421399
 30
0.0
 11
358.2496972268
 21
139.9546154099
 31
0.0
  0
SPLINE
  5
174
330
1F
100
AcDbEntity
  8
0
  6
Continuous
 62
     7
370
    25
100
AcDbSpline
210
0.0
220
0.0
230
1.0
 70
     8
 71
     3
 72
    15
 73
    11
 74
     0
 42
0.00000001
 43
0.00000001
 40
0.0
 40
0.0
 40
0.0
 40
0.0
 40
0.1367247846627409
 40
0.2734495555886174
 40
0.4146100487651639
 40
0.5557705326680058
 40
0.6855278835807603
 40
0.8152852294421069
 40
0.9488129833245352
 40
1.0
 40
1.0
 40
1.0
 40
1.0
 10
352.9366788995515
 20
140.2443611283669
 30
0.0
 10
352.1882828645291
 20
140.2574329322672
 30
0.0
 10
350.6914908696763
 20
140.2835765387547
 30
0.0
 10
348.7879675310636
 20
140.3168377515285
 30
0.0
 10
347.1615306581679
 20
140.3451756936366
 30
0.0
 10
345.8962047113749
 20
140.3672505490459
 30
0.0
 10
344.9774813789039
 20
140.3833310207014
 30
0.0
 10
344.3987615015474
 20
140.3934371501356
 30
0.0
 10
344.1257953932781
 20
140.3981631787792
 30
0.0
 10
344.161224042333
 20
140.397548058862
 30
0.0
 10
344.1710418108011
 20
140.3973776006286
 30
0.0
  0
SPLINE
  5
175
330
1F
100
AcDbEntity
  8
0
  6
Continuous
 62
     7
370
    25
100
AcDbSpline
210
0.0
220
0.0
230
1.0
 70
     8
 71
     3
 72
     9
 73
     5
 74
     0
 42
0.00000001
 43
0.00000001
 40
0.0
 40
0.0
 40
0.0
 40
0.0
 40
0.877884488005261
 40
1.0
 40
1.0
 40
1.0
 40
1.0
 10
358.285715393058
 20
218.1352121686625
 30
0.0
 10
358.2856361946957
 20
218.6489640418673
 30
0.0
 10
358.2855459796806
 20
219.2341798421511
 30
0.0
 10
358.2855962720222
 20
219.7701094895946
 30
0.0
 10
358.2856024134973
 20
219.8355548128854
 30
0.0
  0
SPLINE
  5
176
330
1F
100
AcDbEntity
  8
0
  6
Continuous
 62
     7
370
    25
100
AcDbSpline
210
0.0
220
0.0
230
1.0
 70
     8
 71
     3
 72
    15
 73
    11
 74
     0
 42
0.00000001
 43
0.00000001
 40
0.0
 40
0.0
 40
0.0
 40
0.0
 40
0.0181890425050108
 40
0.1228692995422917
 40
0.268450401752379
 40
0.4140316763865355
 40
0.5638398139050033
 40
0.7136480397661557
 40
0.8568240472318797
 40
1.0
 40
1.0
 40
1.0
 40
1.0
 10
358.2856844595906
 20
220.825740999535
 30
0.0
 10
358.2856913608829
 20
220.90931542704
 30
0.0
 10
358.2857379799917
 20
221.4738713328478
 30
0.0
 10
358.2858382900004
 20
222.6034155421018
 30
0.0
 10
358.2857323372301
 20
224.1603851004291
 30
0.0
 10
358.2857279814576
 20
225.6783544863067
 30
0.0
 10
358.2857141286336
 20
226.9957686457273
 30
0.0
 10
358.2857235040586
 20
228.0710806773634
 30
0.0
 10
358.285736752474
 20
228.9166341494237
 30
0.0
 10
358.2857660356105
 20
229.2801452429044
 30
0.0
 10
358.2857806771761
 20
229.4619007549267
 30
0.0
  0
LINE
  5
177
330
1F
100
AcDbEntity
  8
0
  6
Continuous
 62
     7
370
    25
100
AcDbLine
 10
383.6762980527
 20
229.9857965423
 30
0.0
 11
383.5324606881
 21
229.4489881893
 31
0.0
  0
LINE
  5
178
330
1F
100
AcDbEntity
  8
0
  6
Continuous
 62
     7
370
    25
100
AcDbLine
 10
383.5324606881
 20
216.25868981
 30
0.0
 11
383.5324606881
 21
216.5327438432
 31
0.0
  0
LINE
  5
179
330
1F
100
AcDbEntity
  8
0
  6
Continuous
 62
     7
370
    25
100
AcDbLine
 10
383.5324606881
 20
117.7912008096
 30
0.0
 11
383.5324606881
 21
118.0229490975
 31
0.0
  0
LINE
  5
17A
330
1F
100
AcDbEntity
  8
0
  6
Continuous
 62
     7
370
    25
100
AcDbLine
 10
388.3483862463
 20
228.3991684843
 30
0.0
 11
388.3483862463
 21
227.9748817471
 31
0.0
  0
SPLINE
  5
17B
330
1F
100
AcDbEntity
  8
0
  6
Continuous
 62
     7
370
    25
100
AcDbSpline
210
0.0
220
0.0
230
1.0
 70
     8
 71
     3
 72
     8
 73
     4
 74
     0
 42
0.00000001
 43
0.00000001
 40
0.0
 40
0.0
 40
0.0
 40
0.0
 40
1.0
 40
1.0
 40
1.0
 40
1.0
 10
388.3483862463362
 20
227.9748817470691
 30
0.0
 10
388.6948380536658
 20
227.6230003150283
 30
0.0
 10
389.0412031205272
 20
227.2710330712632
 30
0.0
 10
389.3874726978297
 20
226.918971360361
 30
0.0
  0
SPLINE
  5
17C
330
1F
100
AcDbEntity
  8
0
  6
Continuous
 62
     7
370
    25
100
AcDbSpline
210
0.0
220
0.0
230
1.0
 70
     8
 71
     3
 72
    27
 73
    23
 74
     0
 42
0.00000001
 43
0.00000001
 40
0.0
 40
0.0
 40
0.0
 40
0.0
 40
0.0384770856955447
 40
0.076596238701276
 40
0.1144451082475295
 40
0.15211479268912
 40
0.1896991857075771
 40
0.2272942366813996
 40
0.2649971494891453
 40
0.3029055490389698
 40
0.3411166473804393
 40
0.3797264409667347
 40
0.4188289675647116
 40
0.458515645955606
 40
0.4988747147393492
 40
0.5717164546455085
 40
0.6433061010230131
 40
0.7141414806743577
 40
0.7847301243244754
 40
0.8555779711725148
 40
0.9271780066520361
 40
1.0
 40
1.0
 40
1.0
 40
1.0
 10
391.877630246182
 20
223.4702920161519
 30
0.0
 10
391.8288654696018
 20
223.5219341733277
 30
0.0
 10
391.7317895502686
 20
223.624738087049
 30
0.0
 10
391.589029633992
 20
223.7797203985506
 30
0.0
 10
391.449394600601
 20
223.9341661627248
 30
0.0
 10
391.3130243133582
 20
224.0881615615806
 30
0.0
 10
391.1798853650939
 20
224.2416297650567
 30
0.0
 10
391.0499904076989
 20
224.3945241260249
 30
0.0
 10
390.9233396448477
 20
224.5467768846623
 30
0.0
 10
390.7999362760577
 20
224.6983129491801
 30
0.0
 10
390.6797821016618
 20
224.8490463069314
 30
0.0
 10
390.5628789484494
 20
224.9988810910152
 30
0.0
 10
390.4492268473711
 20
225.1477113092944
 30
0.0
 10
390.3388297519805
 20
225.2954210873287
 30
0.0
 10
390.2036158124798
 20
225.48023461931
 30
0.0
 10
390.0512064895652
 20
225.6950390124435
 30
0.0
 10
389.8925508806501
 20
225.9292470067493
 30
0.0
 10
389.7558695216601
 20
226.1425025172893
 30
0.0
 10
389.6410698710972
 20
226.3343261829858
 30
0.0
 10
389.5486824539437
 20
226.5034839951745
 30
0.0
 10
389.4767399965501
 20
226.6516343884441
 30
0.0
 10
389.4477097072849
 20
226.7293318743022
 30
0.0
 10
389.4330717497039
 20
226.7685093172744
 30
0.0
  0
SPLINE
  5
17D
330
1F
100
AcDbEntity
  8
0
  6
Continuous
 62
     7
370
    25
100
AcDbSpline
210
0.0
220
0.0
230
1.0
 70
     8
 71
     3
 72
     9
 73
     5
 74
     0
 42
0.00000001
 43
0.00000001
 40
0.0
 40
0.0
 40
0.0
 40
0.0
 40
0.4891460490169981
 40
1.0
 40
1.0
 40
1.0
 40
1.0
 10
394.3295176354858
 20
220.8733345145795
 30
0.0
 10
393.9305683336258
 20
221.2975468607256
 30
0.0
 10
393.1149646858774
 20
222.1647977503088
 30
0.0
 10
392.2960010534948
 20
223.0288748273784
 30
0.0
 10
391.8776302461807
 20
223.4702920161532
 30
0.0
  0
SPLINE
  5
17E
330
1F
100
AcDbEntity
  8
0
  6
Continuous
 62
     7
370
    25
100
AcDbSpline
210
0.0
220
0.0
230
1.0
 70
    24
 71
     3
 72
    14
 73
    10
 74
     0
 42
0.00000001
 43
0.00000001
 40
0.0
 40
0.0
 40
0.0
 40
0.0
 40
0.25
 40
0.25
 40
0.5
 40
0.5
 40
0.75
 40
0.75
 40
1.0
 40
1.0
 40
1.0
 40
1.0
 10
395.0324606880371
 20
124.066996249261
 30
0.0
 10
395.0324606880371
 20
123.8511601964032
 30
0.0
 10
395.0324606880371
 20
123.6386315375103
 30
0.0
 10
395.0324606880371
 20
123.2203358637563
 30
0.0
 10
395.0324606880371
 20
123.0129700200069
 30
0.0
 10
395.0324606880371
 20
122.6128855005074
 30
0.0
 10
395.0324606880371
 20
122.4233731032878
 30
0.0
 10
395.0324606880371
 20
122.0642940466778
 30
0.0
 10
395.0324606880371
 20
121.8938127401057
 30
0.0
 10
395.0324606880371
 20
121.735981854225
 30
0.0
  0
SPLINE
  5
17F
330
1F
100
AcDbEntity
  8
0
  6
Continuous
 62
     7
370
    25
100
AcDbSpline
210
0.0
220
0.0
230
1.0
 70
    24
 71
     3
 72
    14
 73
    10
 74
     0
 42
0.00000001
 43
0.00000001
 40
0.0
 40
0.0
 40
0.0
 40
0.0
 40
0.25
 40
0.25
 40
0.5
 40
0.5
 40
0.75
 40
0.75
 40
1.0
 40
1.0
 40
1.0
 40
1.0
 10
395.0324606880371
 20
212.5456470040806
 30
0.0
 10
395.0324606880371
 20
212.3878471976443
 30
0.0
 10
395.0324606880371
 20
212.2193804253036
 30
0.0
 10
395.0324606880371
 20
211.8606569577622
 30
0.0
 10
395.0324606880371
 20
211.6687947099547
 30
0.0
 10
395.0324606880371
 20
211.2687088555146
 30
0.0
 10
395.0324606880371
 20
211.0639497073459
 30
0.0
 10
395.0324606880371
 20
210.6454965348041
 30
0.0
 10
395.0324606880371
 20
210.4304863510052
 30
0.0
 10
395.0324606880371
 20
210.2146025954839
 30
0.0
  0
LINE
  5
180
330
1F
100
AcDbEntity
  8
0
  6
Continuous
 62
     7
370
    25
100
AcDbLine
 10
395.032460688
 20
210.2146025955
 30
0.0
 11
395.032460688
 21
124.0669962493
 31
0.0
  0
SPLINE
  5
181
330
1F
100
AcDbEntity
  8
0
  6
Continuous
 62
     7
370
    25
100
AcDbSpline
210
0.0
220
0.0
230
1.0
 70
     8
 71
     3
 72
    22
 73
    18
 74
     0
 42
0.00000001
 43
0.00000001
 40
0.0
 40
0.0
 40
0.0
 40
0.0
 40
0.0821303924043058
 40
0.1620675570784592
 40
0.2398067178104156
 40
0.3153433198164626
 40
0.38867310431097
 40
0.4597921778632041
 40
0.5286970772434652
 40
0.5953848306897577
 40
0.6598530167717056
 40
0.7220998223001466
 40
0.7821241010420098
 40
0.8399254353705881
 40
0.8955042034367112
 40
0.9488616550238652
 40
1.0
 40
1.0
 40
1.0
 40
1.0
 10
395.0324606880371
 20
219.080477096847
 30
0.0
 10
395.0315174787626
 20
219.1344502253858
 30
0.0
 10
395.0296562478777
 20
219.2409551723865
 30
0.0
 10
395.0149066253216
 20
219.3979782940403
 30
0.0
 10
394.9923247529283
 20
219.5496200997965
 30
0.0
 10
394.961864700439
 20
219.6954773847953
 30
0.0
 10
394.9245389194811
 20
219.8352277023189
 30
0.0
 10
394.8810745267751
 20
219.9686241678856
 30
0.0
 10
394.8322502504556
 20
220.095489970288
 30
0.0
 10
394.7788035909781
 20
220.2157129491163
 30
0.0
 10
394.72144821924
 20
220.3292389901051
 30
0.0
 10
394.6608680223179
 20
220.4360692416411
 30
0.0
 10
394.5977047325628
 20
220.5362437867122
 30
0.0
 10
394.5325954007023
 20
220.6298735190989
 30
0.0
 10
394.4660311811668
 20
220.7170026004263
 30
0.0
 10
394.3988493862024
 20
220.7980680368707
 30
0.0
 10
394.3522982456225
 20
220.8486038981681
 30
0.0
 10
394.3295169628885
 20
220.8733352308503
 30
0.0
  0
LINE
  5
182
330
1F
100
AcDbEntity
  8
0
  6
Continuous
 62
     7
370
    25
100
AcDbLine
 10
395.032460688
 20
219.0804770968
 30
0.0
 11
395.032460688
 21
212.5456148823
 31
0.0
  0
LINE
  5
183
330
1F
100
AcDbEntity
  8
0
  6
Continuous
 62
     7
370
    25
100
AcDbLine
 10
395.032460688
 20
121.7360139763
 30
0.0
 11
395.032460688
 21
113.5606574134
 31
0.0
  0
SPLINE
  5
184
330
1F
100
AcDbEntity
  8
0
  6
Continuous
 62
     7
370
    25
100
AcDbSpline
210
0.0
220
0.0
230
1.0
 70
     8
 71
     3
 72
    10
 73
     6
 74
     0
 42
0.00000001
 43
0.00000001
 40
0.0
 40
0.0
 40
0.0
 40
0.0
 40
0.6121135067909196
 40
0.9407043261611321
 40
1.0
 40
1.0
 40
1.0
 40
1.0
 10
389.4330717497039
 20
226.7685093172744
 30
0.0
 10
389.4494406900222
 20
226.7488150309797
 30
0.0
 10
389.4745966991631
 20
226.7185485851121
 30
0.0
 10
389.4893594468883
 20
226.6789096547234
 30
0.0
 10
389.4910093141075
 20
226.6629032071778
 30
0.0
 10
389.4912615270363
 20
226.6604563235931
 30
0.0
  0
SPLINE
  5
185
330
1F
100
AcDbEntity
  8
0
  6
Continuous
 62
     7
370
    25
100
AcDbSpline
210
0.0
220
0.0
230
1.0
 70
     8
 71
     3
 72
     9
 73
     5
 74
     0
 42
0.00000001
 43
0.00000001
 40
0.0
 40
0.0
 40
0.0
 40
0.0
 40
0.5946845188419506
 40
1.0
 40
1.0
 40
1.0
 40
1.0
 10
389.3874726979889
 20
226.9189713605176
 30
0.0
 10
389.4061068202902
 20
226.897074267183
 30
0.0
 10
389.4374412870721
 20
226.8602529062079
 30
0.0
 10
389.4441262002009
 20
226.8128417805939
 30
0.0
 10
389.4468356989822
 20
226.7936253174033
 30
0.0
  0
SPLINE
  5
186
330
1F
100
AcDbEntity
  8
0
  6
Continuous
 62
     7
370
    25
100
AcDbSpline
210
0.0
220
0.0
230
1.0
 70
     8
 71
     3
 72
     9
 73
     5
 74
     0
 42
0.00000001
 43
0.00000001
 40
0.0
 40
0.0
 40
0.0
 40
0.0
 40
0.401356843957274
 40
1.0
 40
1.0
 40
1.0
 40
1.0
 10
389.4469195741096
 20
226.7936581099119
 30
0.0
 10
389.4443114239209
 20
226.81271070273
 30
0.0
 10
389.4378130915065
 20
226.8601811597682
 30
0.0
 10
389.4063236416424
 20
226.8969562214965
 30
0.0
 10
389.3874726979937
 20
226.9189713605132
 30
0.0
  0
ARC
  5
187
330
1F
100
AcDbEntity
  8
0
  6
Continuous
 62
     8
370
    18
100
AcDbCircle
 10
387.1800618524
 20
139.2898667237
 30
0.0
 40
32.34140672411629
100
AcDbArc
 50
179.9983121511
 51
206.5518531142
  0
LINE
  5
188
330
1F
100
AcDbEntity
  8
0
  6
Continuous
 62
     8
370
    18
100
AcDbLine
 10
354.8386551423
 20
140.1289162644
 30
0.0
 11
354.8386551423
 21
139.2908194538
 31
0.0
  0
ARC
  5
189
330
1F
100
AcDbEntity
  8
0
  6
Continuous
 62
     8
370
    18
100
AcDbCircle
 10
387.2001733698
 20
139.2897161366
 30
0.0
 40
33.11593215979921
100
AcDbArc
 50
179.9980910875
 51
209.0476814925
  0
LINE
  5
18A
330
1F
100
AcDbEntity
  8
0
  6
Continuous
 62
     8
370
    18
100
AcDbLine
 10
354.0842412283
 20
139.2908194538
 30
0.0
 11
354.8386551423
 21
139.2908194538
 31
0.0
  0
LINE
  5
18B
330
1F
100
AcDbEntity
  8
0
  6
Continuous
 62
     8
370
    18
100
AcDbLine
 10
345.8324606881
 20
140.2908194538
 30
0.0
 11
347.1249758514
 21
140.2908194538
 31
0.0
  0
LINE
  5
18C
330
1F
100
AcDbEntity
  8
0
  6
Continuous
 62
     8
370
    18
100
AcDbLine
 10
354.0842412283
 20
139.2908194538
 30
0.0
 11
354.0842412283
 21
140.1595999522
 31
0.0
  0
LINE
  5
18D
330
1F
100
AcDbEntity
  8
0
  6
Continuous
 62
     8
370
    18
100
AcDbLine
 10
345.8324606881
 20
139.2908194538
 30
0.0
 11
354.0842412283
 21
139.2908194538
 31
0.0
  0
LINE
  5
18E
330
1F
100
AcDbEntity
  8
0
  6
Continuous
 62
     8
370
    18
100
AcDbLine
 10
382.7324606881
 20
212.674397927
 30
0.0
 11
358.793430395
 21
212.3884432948
 31
0.0
  0
LINE
  5
18F
330
1F
100
AcDbEntity
  8
0
  6
Continuous
 62
     8
370
    18
100
AcDbLine
 10
358.7934422132
 20
217.1320772434
 30
0.0
 11
382.7324606881
 21
217.3572926338
 31
0.0
  0
LINE
  5
190
330
1F
100
AcDbEntity
  8
0
  6
Continuous
 62
     8
370
    18
100
AcDbLine
 10
382.7324606881
 20
116.9243462737
 30
0.0
 11
358.7934417212
 21
117.1495616688
 31
0.0
  0
LINE
  5
191
330
1F
100
AcDbEntity
  8
0
  6
Continuous
 62
     8
370
    18
100
AcDbLine
 10
358.793433025
 20
121.8931955811
 30
0.0
 11
382.7324606881
 21
121.6072409806
 31
0.0
  0
LINE
  5
192
330
1F
100
AcDbEntity
  8
0
  6
Continuous
 62
     8
370
    18
100
AcDbLine
 10
383.5324606881
 20
121.3391785303
 30
0.0
 11
382.7324606881
 21
121.3071530711
 31
0.0
  0
LINE
  5
193
330
1F
100
AcDbEntity
  8
0
  6
Continuous
 62
     8
370
    18
100
AcDbLine
 10
383.5324606881
 20
121.6072409806
 30
0.0
 11
382.7324606881
 21
121.6072409806
 31
0.0
  0
LINE
  5
194
330
1F
100
AcDbEntity
  8
0
  6
Continuous
 62
     8
370
    18
100
AcDbLine
 10
383.5324606881
 20
117.7912008096
 30
0.0
 11
382.7324606881
 21
117.3357555936
 31
0.0
  0
LINE
  5
195
330
1F
100
AcDbEntity
  8
0
  6
Continuous
 62
     8
370
    18
100
AcDbLine
 10
383.5324606881
 20
212.6743981526
 30
0.0
 11
382.7324606881
 21
212.6743979721
 31
0.0
  0
LINE
  5
196
330
1F
100
AcDbEntity
  8
0
  6
Continuous
 62
     8
370
    18
100
AcDbLine
 10
383.5324606881
 20
212.9940329556
 30
0.0
 11
382.7324606881
 21
213.0328576469
 31
0.0
  0
LINE
  5
197
330
1F
100
AcDbEntity
  8
0
  6
Continuous
 62
     8
370
    18
100
AcDbLine
 10
383.5324606881
 20
216.5327438432
 30
0.0
 11
382.7324606881
 21
216.993768182
 31
0.0
  0
LINE
  5
198
330
1F
100
AcDbEntity
  8
0
  6
Continuous
 62
     8
370
    18
100
AcDbLine
 10
358.7934310899
 20
212.3554751415
 30
0.0
 11
358.2858660626
 21
212.3570856037
 31
0.0
  0
SPLINE
  5
199
330
1F
100
AcDbEntity
  8
0
  6
Continuous
 62
     8
370
    18
100
AcDbSpline
210
0.0
220
0.0
230
1.0
 70
     8
 71
     3
 72
    11
 73
     7
 74
     0
 42
0.00000001
 43
0.00000001
 40
0.0
 40
0.0
 40
0.0
 40
0.0
 40
0.0000234555891809
 40
0.0000234555891809
 40
0.0000234555891809
 40
0.0000235155891809
 40
0.0000235155891809
 40
0.0000235155891809
 40
0.0000235155891809
 10
358.2858616432484
 20
212.3806011918165
 30
0.0
 10
358.2858586008566
 20
212.3727826639712
 30
0.0
 10
358.285860058722
 20
212.3649641264422
 30
0.0
 10
358.2858660168206
 20
212.3571456039316
 30
0.0
 10
358.2858660320616
 20
212.3571256039501
 30
0.0
 10
358.2858660473622
 20
212.3571056039687
 30
0.0
 10
358.2858660626319
 20
212.3570856039872
 30
0.0
  0
SPLINE
  5
19A
330
1F
100
AcDbEntity
  8
0
  6
Continuous
 62
     8
370
    18
100
AcDbSpline
210
0.0
220
0.0
230
1.0
 70
     8
 71
     3
 72
    12
 73
     8
 74
     0
 42
0.00000001
 43
0.00000001
 40
0.0
 40
0.0
 40
0.0
 40
0.0
 40
0.25
 40
0.25
 40
0.5
 40
0.5
 40
1.0
 40
1.0
 40
1.0
 40
1.0
 10
358.2858658342601
 20
216.6930683041557
 30
0.0
 10
358.2860237970283
 20
216.3868431903486
 30
0.0
 10
358.2859124248529
 20
216.0647235539352
 30
0.0
 10
358.2860603026983
 20
215.3890835362074
 30
0.0
 10
358.2863132050305
 20
215.0334707362599
 30
0.0
 10
358.2863247419371
 20
213.9336559733927
 30
0.0
 10
358.2861642607513
 20
213.1582864109651
 30
0.0
 10
358.2858616432792
 20
212.3806011918165
 30
0.0
  0
LINE
  5
19B
330
1F
100
AcDbEntity
  8
0
  6
Continuous
 62
     8
370
    18
100
AcDbLine
 10
358.7934310894
 20
217.1400678455
 30
0.0
 11
358.2858660624
 21
216.6930687036
 31
0.0
  0
LINE
  5
19C
330
1F
100
AcDbEntity
  8
0
  6
Continuous
 62
     8
370
    18
100
AcDbLine
 10
358.7934313108
 20
117.1422907057
 30
0.0
 11
358.2858661985
 21
117.5886446078
 31
0.0
  0
SPLINE
  5
19D
330
1F
100
AcDbEntity
  8
0
  6
Continuous
 62
     8
370
    18
100
AcDbSpline
210
0.0
220
0.0
230
1.0
 70
     8
 71
     3
 72
    12
 73
     8
 74
     0
 42
0.00000001
 43
0.00000001
 40
0.0
 40
0.0
 40
0.0
 40
0.0
 40
0.499999999999999
 40
0.499999999999999
 40
0.7499999999999994
 40
0.7499999999999994
 40
1.0
 40
1.0
 40
1.0
 40
1.0
 10
358.2858647084724
 20
121.8925894670835
 30
0.0
 10
358.2861804614915
 20
121.1177936068639
 30
0.0
 10
358.2863200979747
 20
120.3484994494188
 30
0.0
 10
358.2863136771718
 20
119.250742325592
 30
0.0
 10
358.286272196146
 20
118.897116219287
 30
0.0
 10
358.2861221514272
 20
118.2169814490457
 30
0.0
 10
358.2860171945098
 20
117.8926230703918
 30
0.0
 10
358.2858659867057
 20
117.5886447939215
 30
0.0
  0
LINE
  5
19E
330
1F
100
AcDbEntity
  8
0
  6
Continuous
 62
     8
370
    18
100
AcDbLine
 10
358.7934324313
 20
121.8925899893
 30
0.0
 11
358.2858648597
 21
121.8925900109
 31
0.0
  0
SPLINE
  5
19F
330
1F
100
AcDbEntity
  8
0
  6
Continuous
 62
     8
370
    18
100
AcDbSpline
210
0.0
220
0.0
230
1.0
 70
     8
 71
     3
 72
     8
 73
     4
 74
     0
 42
0.00000001
 43
0.00000001
 40
0.0
 40
0.0
 40
0.0
 40
0.0
 40
0.0000085768637323
 40
0.0000085768637323
 40
0.0000085768637323
 40
0.0000085768637323
 10
358.2858666925036
 20
121.901166874041
 30
0.0
 10
358.2858666926574
 20
121.8983079194635
 30
0.0
 10
358.2858660675624
 20
121.8954489646783
 30
0.0
 10
358.2858648173275
 20
121.8925900109319
 30
0.0
  0
LINE
  5
1A0
330
1F
100
AcDbEntity
  8
0
  6
Continuous
 62
     8
370
    18
100
AcDbLine
 10
358.2858660626
 20
212.3570856037
 30
0.0
 11
358.2858670063
 21
121.901166874
 31
0.0
  0
SPLINE
  5
1A1
330
1F
100
AcDbEntity
  8
0
  6
Continuous
 62
     8
370
    18
100
AcDbSpline
210
0.0
220
0.0
230
1.0
 70
     8
 71
     3
 72
    15
 73
    11
 74
     0
 42
0.00000001
 43
0.00000001
 40
0.0
 40
0.0
 40
0.0
 40
0.0
 40
0.1470708892611651
 40
0.2941417785222031
 40
0.4454853953183903
 40
0.5968290121145784
 40
0.7368152266075583
 40
0.8776871732870553
 40
0.979984538073964
 40
1.0
 40
1.0
 40
1.0
 40
1.0
 10
352.9366788995515
 20
195.7908194537597
 30
0.0
 10
352.9594935353443
 20
196.7373760721654
 30
0.0
 10
353.00512280693
 20
198.6304893089759
 30
0.0
 10
353.3745092646798
 20
201.4778940243541
 30
0.0
 10
353.9716267187556
 20
204.3122259106707
 30
0.0
 10
354.7998305992504
 20
207.0407684162165
 30
0.0
 10
355.8200447850885
 20
209.630881145376
 30
0.0
 10
356.9157108303485
 20
211.8401942530735
 30
0.0
 10
357.743466972669
 20
213.3194603401393
 30
0.0
 10
358.1788654001982
 20
213.9747175688099
 30
0.0
 10
358.2501146786514
 20
214.0819448847398
 30
0.0
  0
SPLINE
  5
1A2
330
1F
100
AcDbEntity
  8
0
  6
Continuous
 62
     8
370
    18
100
AcDbSpline
210
0.0
220
0.0
230
1.0
 70
     8
 71
     3
 72
    13
 73
     9
 74
     0
 42
0.00000001
 43
0.00000001
 40
0.0
 40
0.0
 40
0.0
 40
0.0
 40
0.066238915742933
 40
0.2591818218465677
 40
0.4417345899429834
 40
0.6242873580393998
 40
0.8121436790196147
 40
0.9999999999999999
 40
0.9999999999999999
 40
0.9999999999999999
 40
0.9999999999999999
 10
358.2496964972612
 20
209.8884195575584
 30
0.0
 10
358.1013311486299
 20
209.6020947772025
 30
0.0
 10
357.5208023020164
 20
208.4817537000559
 30
0.0
 10
356.7547612571952
 20
206.4660486488417
 30
0.0
 10
355.9513602571263
 20
203.8696997663749
 30
0.0
 10
355.3891342260614
 20
201.2339089719522
 30
0.0
 10
355.0279031713635
 20
198.5354006934726
 30
0.0
 10
354.9826211702534
 20
196.7056798669976
 30
0.0
 10
354.9599801696984
 20
195.7908194537597
 30
0.0
  0
LINE
  5
1A3
330
1F
100
AcDbEntity
  8
0
  6
Continuous
 62
     8
370
    18
100
AcDbLine
 10
352.9366788996
 20
195.7908194538
 30
0.0
 11
354.9599801697
 21
195.7908194538
 31
0.0
  0
LINE
  5
1A4
330
1F
100
AcDbEntity
  8
0
  6
Continuous
 62
     8
370
    18
100
AcDbLine
 10
354.9599801697
 20
195.7908194538
 30
0.0
 11
354.9599801697
 21
140.1666356756
 31
0.0
  0
SPLINE
  5
1A5
330
1F
100
AcDbEntity
  8
0
  6
Continuous
 62
     8
370
    18
100
AcDbSpline
210
0.0
220
0.0
230
1.0
 70
     8
 71
     3
 72
    10
 73
     6
 74
     0
 42
0.00000001
 43
0.00000001
 40
0.0
 40
0.0
 40
0.0
 40
0.0
 40
0.4775287409294046
 40
0.9550521291957744
 40
1.0
 40
1.0
 40
1.0
 40
1.0
 10
358.2858660624105
 20
216.6930687035803
 30
0.0
 10
358.2760307194293
 20
216.6821712423596
 30
0.0
 10
358.2563601437123
 20
216.6603764420689
 30
0.0
 10
358.2466319384059
 20
216.6335051720433
 30
0.0
 10
358.2502552809298
 20
216.6199976068831
 30
0.0
 10
358.2505669947873
 20
216.6188355596256
 30
0.0
  0
ARC
  5
1A6
330
1F
100
AcDbEntity
  8
0
  6
Continuous
 62
     8
370
    18
100
AcDbCircle
 10
358.2782535676
 20
204.8789717789
 30
0.0
 40
7.501633270895605
100
AcDbArc
 50
89.9418912276
 51
90.2181468033
  0
SPLINE
  5
1A7
330
1F
100
AcDbEntity
  8
0
  6
Continuous
 62
     8
370
    18
100
AcDbSpline
210
0.0
220
0.0
230
1.0
 70
     8
 71
     3
 72
     9
 73
     5
 74
     0
 42
0.00000001
 43
0.00000001
 40
0.0
 40
0.0
 40
0.0
 40
0.0
 40
0.1014741593167439
 40
1.0
 40
1.0
 40
1.0
 40
1.0
 10
358.2579083200633
 20
121.8926405589719
 30
0.0
 10
358.2582231454135
 20
121.8926390008142
 30
0.0
 10
358.2613256628655
 20
121.8926236455969
 30
0.0
 10
358.2742510357712
 20
121.8926059293962
 30
0.0
 10
358.2858648173275
 20
121.892590010932
 30
0.0
  0
SPLINE
  5
1A8
330
1F
100
AcDbEntity
  8
0
  6
Continuous
 62
     8
370
    18
100
AcDbSpline
210
0.0
220
0.0
230
1.0
 70
     8
 71
     3
 72
    10
 73
     6
 74
     0
 42
0.00000001
 43
0.00000001
 40
0.0
 40
0.0
 40
0.0
 40
0.0
 40
0.0290330322520152
 40
0.5145165161305325
 40
1.0
 40
1.0
 40
1.0
 40
1.0
 10
358.2502497587182
 20
117.6615399690954
 30
0.0
 10
358.2500563737697
 20
117.6608018005996
 30
0.0
 10
358.2466292515488
 20
117.6477201534786
 30
0.0
 10
358.2564271125794
 20
117.6212944807337
 30
0.0
 10
358.2760531407057
 20
117.599527886046
 30
0.0
 10
358.2858661547688
 20
117.5886445887023
 30
0.0
  0
LINE
  5
1A9
330
1F
100
AcDbEntity
  8
0
  6
Continuous
 62
     8
370
    18
100
AcDbLine
 10
383.5324606881
 20
117.532885302
 30
0.0
 11
382.7324606881
 21
117.0460540794
 31
0.0
  0
LINE
  5
1AA
330
1F
100
AcDbEntity
  8
0
  6
Continuous
 62
     8
370
    18
100
AcDbLine
 10
383.5324606881
 20
216.7487537846
 30
0.0
 11
382.7324606881
 21
217.235584864
 31
0.0
  0
SPLINE
  5
1AB
330
1F
100
AcDbEntity
  8
0
  6
Continuous
 62
     8
370
    18
100
AcDbSpline
210
0.0
220
0.0
230
1.0
 70
     8
 71
     3
 72
     8
 73
     4
 74
     0
 42
0.00000001
 43
0.00000001
 40
0.0
 40
0.0
 40
0.0
 40
0.0
 40
1.0
 40
1.0
 40
1.0
 40
1.0
 10
358.2496965338509
 20
212.3571848964799
 30
0.0
 10
358.249702115801
 20
212.3571396656921
 30
0.0
 10
358.2625128159131
 20
212.3571044985499
 30
0.0
 10
358.2858660626303
 20
212.3570856061251
 30
0.0
  0
LINE
  5
1AC
330
1F
100
AcDbEntity
  8
0
  6
Continuous
 62
     8
370
    18
100
AcDbLine
 10
358.2496974152
 20
121.9011668722
 30
0.0
 11
358.2858666925
 21
121.901166874
 31
0.0
  0
LINE
  5
1AD
330
1F
100
AcDbEntity
  8
0
  6
Continuous
 62
     8
370
    18
100
AcDbLine
 10
352.9366788996
 20
195.7908194538
 30
0.0
 11
344.132460688
 21
195.7908194538
 31
0.0
  0
LINE
  5
1AE
330
1F
100
AcDbEntity
  8
0
  6
Continuous
 62
     8
370
    18
100
AcDbLine
 10
358.2858661985
 20
117.5886446078
 30
0.0
 11
358.2858537263
 21
117.1002254391
 31
0.0
  0
LINE
  5
1AF
330
1F
100
AcDbEntity
  8
0
  6
Continuous
 62
     8
370
    18
100
AcDbLine
 10
352.9366788996
 20
140.2443611284
 30
0.0
 11
352.9366788996
 21
195.7908194538
 31
0.0
  0
SPLINE
  5
1B0
330
1F
100
AcDbEntity
  8
0
  6
Continuous
 62
     8
370
    18
100
AcDbSpline
210
0.0
220
0.0
230
1.0
 70
     8
 71
     3
 72
     8
 73
     4
 74
     0
 42
0.00000001
 43
0.00000001
 40
0.0
 40
0.0
 40
0.0
 40
0.0
 40
0.0001265946427333
 40
0.0001265946427333
 40
0.0001265946427333
 40
0.0001265946427333
 10
386.3206245983055
 20
121.6047762111434
 30
0.0
 10
386.3217155167396
 20
121.6469603044857
 30
0.0
 10
386.3222648528583
 20
121.6891620000467
 30
0.0
 10
386.3222648528579
 20
121.7313602142911
 30
0.0
  0
LINE
  5
1B1
330
1F
100
AcDbEntity
  8
0
  6
Continuous
 62
     8
370
    18
100
AcDbLine
 10
383.5324606881
 20
121.574777492
 30
0.0
 11
386.3206245983
 21
121.6047762111
 31
0.0
  0
LINE
  5
1B2
330
1F
100
AcDbEntity
  8
0
  6
Continuous
 62
     8
370
    18
100
AcDbLine
 10
386.3206245974
 20
212.6768626964
 30
0.0
 11
383.5324606881
 21
212.7068614155
 31
0.0
  0
SPLINE
  5
1B3
330
1F
100
AcDbEntity
  8
0
  6
Continuous
 62
     8
370
    18
100
AcDbSpline
210
0.0
220
0.0
230
1.0
 70
     8
 71
     3
 72
     8
 73
     4
 74
     0
 42
0.00000001
 43
0.00000001
 40
0.0
 40
0.0
 40
0.0
 40
0.0
 40
0.0001265946433047
 40
0.0001265946433047
 40
0.0001265946433047
 40
0.0001265946433047
 10
386.3222648519776
 20
212.5502786926669
 30
0.0
 10
386.3222648519773
 20
212.5924769071018
 30
0.0
 10
386.3217155158528
 20
212.6346786028533
 30
0.0
 10
386.3206245974083
 20
212.6768626963859
 30
0.0
  0
LINE
  5
1B4
330
1F
100
AcDbEntity
  8
0
  6
Continuous
 62
     8
370
    18
100
AcDbLine
 10
386.3222648529
 20
121.7313602143
 30
0.0
 11
386.322264852
 21
212.5502786927
 31
0.0
  0
SPLINE
  5
1B5
330
1F
100
AcDbEntity
  8
0
  6
Continuous
 62
     8
370
    18
100
AcDbSpline
210
0.0
220
0.0
230
1.0
 70
     8
 71
     3
 72
    14
 73
    10
 74
     0
 42
0.00000001
 43
0.00000001
 40
0.0
 40
0.0
 40
0.0
 40
0.0
 40
0.25
 40
0.25
 40
0.5
 40
0.5
 40
0.75
 40
0.75
 40
1.0
 40
1.0
 40
1.0
 40
1.0
 10
386.3206244776036
 20
212.6768673289549
 30
0.0
 10
386.3151744744924
 20
212.9958408739095
 30
0.0
 10
386.3119810363297
 20
213.3151544981493
 30
0.0
 10
386.3079702984634
 20
213.9405067522388
 30
0.0
 10
386.3071327257011
 20
214.2480674481659
 30
0.0
 10
386.3071075643919
 20
214.8527312660767
 30
0.0
 10
386.307919622157
 20
215.1443552535691
 30
0.0
 10
386.3118817393248
 20
215.7061759195826
 30
0.0
 10
386.3150308498573
 20
215.975061256828
 30
0.0
 10
386.3203980616403
 20
216.228078026002
 30
0.0
  0
SPLINE
  5
1B6
330
1F
100
AcDbEntity
  8
0
  6
Continuous
 62
     8
370
    18
100
AcDbSpline
210
0.0
220
0.0
230
1.0
 70
     8
 71
     3
 72
    10
 73
     6
 74
     0
 42
0.00000001
 43
0.00000001
 40
0.0
 40
0.0
 40
0.0
 40
0.0
 40
0.5
 40
0.5
 40
1.0
 40
1.0
 40
1.0
 40
1.0
 10
387.2656992016553
 20
215.9568975676324
 30
0.0
 10
387.1417324210032
 20
216.0356457843375
 30
0.0
 10
386.9939139831761
 20
216.1004241175278
 30
0.0
 10
386.6712018529067
 20
216.1930012019123
 30
0.0
 10
386.4964166898316
 20
216.2207688190664
 30
0.0
 10
386.3203980616402
 20
216.228078026002
 30
0.0
  0
SPLINE
  5
1B7
330
1F
100
AcDbEntity
  8
0
  6
Continuous
 62
     8
370
    18
100
AcDbSpline
210
0.0
220
0.0
230
1.0
 70
     8
 71
     3
 72
    12
 73
     8
 74
     0
 42
0.00000001
 43
0.00000001
 40
0.0
 40
0.0
 40
0.0
 40
0.0
 40
0.5
 40
0.5
 40
0.75
 40
0.75
 40
1.0
 40
1.0
 40
1.0
 40
1.0
 10
387.2656992016553
 20
215.9568975676324
 30
0.0
 10
387.266629502544
 20
215.4848162645179
 30
0.0
 10
387.2702476941112
 20
214.9637231064558
 30
0.0
 10
387.2701777180489
 20
214.1352521094724
 30
0.0
 10
387.2694434934971
 20
213.8545098389789
 30
0.0
 10
387.2673282280894
 20
213.2839829429993
 30
0.0
 10
387.2659286436119
 20
212.9931982673207
 30
0.0
 10
387.2654141183161
 20
212.7016745117645
 30
0.0
  0
SPLINE
  5
1B8
330
1F
100
AcDbEntity
  8
0
  6
Continuous
 62
     8
370
    18
100
AcDbSpline
210
0.0
220
0.0
230
1.0
 70
     8
 71
     3
 72
    10
 73
     6
 74
     0
 42
0.00000001
 43
0.00000001
 40
0.0
 40
0.0
 40
0.0
 40
0.0
 40
0.5
 40
0.5
 40
1.0
 40
1.0
 40
1.0
 40
1.0
 10
386.3206244776036
 20
212.6768673289549
 30
0.0
 10
386.4965225377186
 20
212.6814219231317
 30
0.0
 10
386.6711889381879
 20
212.6859749897053
 30
0.0
 10
386.9937159918377
 20
212.6944435283473
 30
0.0
 10
387.1414684699828
 20
212.698356160082
 30
0.0
 10
387.2654141183161
 20
212.7016745117645
 30
0.0
  0
SPLINE
  5
1B9
330
1F
100
AcDbEntity
  8
0
  6
Continuous
 62
     8
370
    18
100
AcDbSpline
210
0.0
220
0.0
230
1.0
 70
     8
 71
     3
 72
    14
 73
    10
 74
     0
 42
0.00000001
 43
0.00000001
 40
0.0
 40
0.0
 40
0.0
 40
0.0
 40
0.25
 40
0.25
 40
0.5
 40
0.5
 40
0.75
 40
0.75
 40
1.0
 40
1.0
 40
1.0
 40
1.0
 10
386.320398062864
 20
118.0535608815292
 30
0.0
 10
386.3150393474587
 20
118.3061771251493
 30
0.0
 10
386.3118817410185
 20
118.575462933172
 30
0.0
 10
386.3079196233583
 20
119.1372836249659
 30
0.0
 10
386.3071075654927
 20
119.4289076264281
 30
0.0
 10
386.3071327267487
 20
120.0335714743863
 30
0.0
 10
386.307970299559
 20
120.3411321858549
 30
0.0
 10
386.3119810378111
 20
120.9664844720498
 30
0.0
 10
386.3151831026976
 20
121.2863029687545
 30
0.0
 10
386.3206244785009
 20
121.6047715785731
 30
0.0
  0
SPLINE
  5
1BA
330
1F
100
AcDbEntity
  8
0
  6
Continuous
 62
     8
370
    18
100
AcDbSpline
210
0.0
220
0.0
230
1.0
 70
     8
 71
     3
 72
    10
 73
     6
 74
     0
 42
0.00000001
 43
0.00000001
 40
0.0
 40
0.0
 40
0.0
 40
0.0
 40
0.5
 40
0.5
 40
1.0
 40
1.0
 40
1.0
 40
1.0
 10
386.3206244785009
 20
121.6047715785731
 30
0.0
 10
386.4965225386121
 20
121.6002169844199
 30
0.0
 10
386.6711889390775
 20
121.5956639178699
 30
0.0
 10
386.9937159927217
 20
121.5871953792717
 30
0.0
 10
387.1414684708648
 20
121.5832827475572
 30
0.0
 10
387.2654141191978
 20
121.5799643958918
 30
0.0
  0
SPLINE
  5
1BB
330
1F
100
AcDbEntity
  8
0
  6
Continuous
 62
     8
370
    18
100
AcDbSpline
210
0.0
220
0.0
230
1.0
 70
     8
 71
     3
 72
    12
 73
     8
 74
     0
 42
0.00000001
 43
0.00000001
 40
0.0
 40
0.0
 40
0.0
 40
0.0
 40
0.2499999999999993
 40
0.2499999999999993
 40
0.4999999999999987
 40
0.4999999999999987
 40
1.0
 40
1.0
 40
1.0
 40
1.0
 10
387.2654141191978
 20
121.5799643958916
 30
0.0
 10
387.2659286445295
 20
121.2884406403326
 30
0.0
 10
387.2673282290409
 20
120.9976559646503
 30
0.0
 10
387.269443494513
 20
120.4271290686641
 30
0.0
 10
387.2701777190954
 20
120.1463867981681
 30
0.0
 10
387.2702476952464
 20
119.3179158011798
 30
0.0
 10
387.2666295037326
 20
118.796822643106
 30
0.0
 10
387.2656992028947
 20
118.3247413399849
 30
0.0
  0
SPLINE
  5
1BC
330
1F
100
AcDbEntity
  8
0
  6
Continuous
 62
     8
370
    18
100
AcDbSpline
210
0.0
220
0.0
230
1.0
 70
     8
 71
     3
 72
    10
 73
     6
 74
     0
 42
0.00000001
 43
0.00000001
 40
0.0
 40
0.0
 40
0.0
 40
0.0
 40
0.5
 40
0.5
 40
1.0
 40
1.0
 40
1.0
 40
1.0
 10
386.320398062864
 20
118.0535608815292
 30
0.0
 10
386.4964166910593
 20
118.0608700884786
 30
0.0
 10
386.671201854138
 20
118.0886377056475
 30
0.0
 10
386.9939139844132
 20
118.1812147900615
 30
0.0
 10
387.1417324222422
 20
118.2459931232664
 30
0.0
 10
387.2656992028947
 20
118.3247413399849
 30
0.0
  0
LINE
  5
1BD
330
1F
100
AcDbEntity
  8
0
  6
Continuous
 62
     8
370
    18
100
AcDbLine
 10
386.3203984653
 20
118.0535478576
 30
0.0
 11
383.5324606881
 21
118.0229490975
 31
0.0
  0
LINE
  5
1BE
330
1F
100
AcDbEntity
  8
0
  6
Continuous
 62
     8
370
    18
100
AcDbLine
 10
383.5324606881
 20
216.25868981
 30
0.0
 11
386.3203984641
 21
216.2280910499
 31
0.0
  0
SPLINE
  5
1BF
330
1F
100
AcDbEntity
  8
0
  6
Continuous
 62
     8
370
    18
100
AcDbSpline
210
0.0
220
0.0
230
1.0
 70
     8
 71
     3
 72
    11
 73
     7
 74
     0
 42
0.00000001
 43
0.00000001
 40
0.0
 40
0.0
 40
0.0
 40
0.0
 40
0.0001513907785829
 40
0.0001513907785829
 40
0.0001513907785829
 40
0.0001514507785829
 40
0.0001514507785829
 40
0.0001514507785829
 40
0.0001514507785829
 10
387.2654141183161
 20
212.7016745117646
 30
0.0
 10
387.2653250849627
 20
212.6512292999514
 30
0.0
 10
387.2646410690658
 20
212.6007805669248
 30
0.0
 10
387.2633565777784
 20
212.5503496927556
 30
0.0
 10
387.2633560687019
 20
212.5503297057228
 30
0.0
 10
387.263355559487
 20
212.5503097186946
 30
0.0
 10
387.2633550502662
 20
212.5502897316641
 30
0.0
  0
SPLINE
  5
1C0
330
1F
100
AcDbEntity
  8
0
  6
Continuous
 62
     8
370
    18
100
AcDbSpline
210
0.0
220
0.0
230
1.0
 70
    24
 71
     3
 72
    10
 73
     6
 74
     0
 42
0.00000001
 43
0.00000001
 40
0.0
 40
0.0
 40
0.0
 40
0.0
 40
0.5
 40
0.5
 40
1.0
 40
1.0
 40
1.0
 40
1.0
 10
386.3222648519776
 20
212.5502842121616
 30
0.0
 10
386.4972728784521
 20
212.5502842121631
 30
0.0
 10
386.671063551804
 20
212.5502842121647
 30
0.0
 10
386.992244954389
 20
212.5502842121676
 30
0.0
 10
387.139530257267
 20
212.5502842121689
 30
0.0
 10
387.2633550502662
 20
212.5502842121701
 30
0.0
  0
SPLINE
  5
1C1
330
1F
100
AcDbEntity
  8
0
  6
Continuous
 62
     8
370
    18
100
AcDbSpline
210
0.0
220
0.0
230
1.0
 70
    24
 71
     3
 72
    10
 73
     6
 74
     0
 42
0.00000001
 43
0.00000001
 40
0.0
 40
0.0
 40
0.0
 40
0.0
 40
0.5
 40
0.5
 40
1.0
 40
1.0
 40
1.0
 40
1.0
 10
386.3222648528579
 20
121.7313602142912
 30
0.0
 10
386.4972728793325
 20
121.7313602142929
 30
0.0
 10
386.6710635526842
 20
121.7313602142946
 30
0.0
 10
386.9922449552695
 20
121.7313602142977
 30
0.0
 10
387.1395302581474
 20
121.7313602142992
 30
0.0
 10
387.2633550511465
 20
121.7313602143005
 30
0.0
  0
SPLINE
  5
1C2
330
1F
100
AcDbEntity
  8
0
  6
Continuous
 62
     8
370
    18
100
AcDbSpline
210
0.0
220
0.0
230
1.0
 70
     8
 71
     3
 72
    11
 73
     7
 74
     0
 42
0.00000001
 43
0.00000001
 40
-0.00000006
 40
-0.00000006
 40
-0.00000006
 40
-0.00000006
 40
0.0
 40
0.0
 40
0.0
 40
0.0001513907779035
 40
0.0001513907779035
 40
0.0001513907779035
 40
0.0001513907779035
 10
387.2633550511465
 20
121.7313491753128
 30
0.0
 10
387.2633555603674
 20
121.7313291882823
 30
0.0
 10
387.2633560695824
 20
121.731309201254
 30
0.0
 10
387.2633565786587
 20
121.7312892142213
 30
0.0
 10
387.2646410699414
 20
121.6808583402784
 30
0.0
 10
387.2653250858387
 20
121.6304096074783
 30
0.0
 10
387.2654141191978
 20
121.5799643958916
 30
0.0
  0
LINE
  5
1C3
330
1F
100
AcDbEntity
  8
0
  6
Continuous
 62
     8
370
    18
100
AcDbLine
 10
387.2633550503
 20
212.5502786927
 30
0.0
 11
387.2633550511
 21
121.7313602143
 31
0.0
  0
SPLINE
  5
1C4
330
1F
100
AcDbEntity
  8
0
  6
Continuous
 62
     8
370
    18
100
AcDbSpline
210
0.0
220
0.0
230
1.0
 70
     8
 71
     3
 72
    11
 73
     7
 74
     0
 42
0.00000001
 43
0.00000001
 40
-0.00000006
 40
-0.00000006
 40
-0.00000006
 40
-0.00000006
 40
0.0
 40
0.0
 40
0.0
 40
0.0001756985996236
 40
0.0001756985996236
 40
0.0001756985996236
 40
0.0001756985996236
 10
387.2633407384786
 20
216.0988567014815
 30
0.0
 10
387.2633412440556
 20
216.0988405840529
 30
0.0
 10
387.2633417496137
 20
216.0988244665758
 30
0.0
 10
387.2633422550595
 20
216.0988083491036
 30
0.0
 10
387.2648223568625
 20
216.0516113943154
 30
0.0
 10
387.2656057872111
 20
216.0043007406662
 30
0.0
 10
387.2656992016583
 20
215.9568975676306
 30
0.0
  0
SPLINE
  5
1C5
330
1F
100
AcDbEntity
  8
0
  6
Continuous
 62
     8
370
    18
100
AcDbSpline
210
0.0
220
0.0
230
1.0
 70
     8
 71
     3
 72
    13
 73
     9
 74
     0
 42
0.00000001
 43
0.00000001
 40
0.0
 40
0.0
 40
0.0
 40
0.0
 40
0.180314646202462
 40
0.3551761170745454
 40
0.5245789280871284
 40
0.6885188301839644
 40
0.8469929594047719
 40
0.9999999999999999
 40
0.9999999999999999
 40
0.9999999999999999
 40
0.9999999999999999
 10
387.2633445548285
 20
216.0988530761475
 30
0.0
 10
387.6900775213426
 20
215.9628112239995
 30
0.0
 10
388.5306379598106
 20
215.6948417726921
 30
0.0
 10
389.7694595640075
 20
215.2885414403126
 30
0.0
 10
390.9676283933037
 20
214.886976390494
 30
0.0
 10
392.1249001032294
 20
214.4894657273724
 30
0.0
 10
393.2415656427193
 20
214.0973691416379
 30
0.0
 10
393.9711578673641
 20
213.8332146854472
 30
0.0
 10
394.3295511121312
 20
213.7034556646189
 30
0.0
  0
SPLINE
  5
1C6
330
1F
100
AcDbEntity
  8
0
  6
Continuous
 62
     8
370
    18
100
AcDbSpline
210
0.0
220
0.0
230
1.0
 70
     8
 71
     3
 72
    14
 73
    10
 74
     0
 42
0.00000001
 43
0.00000001
 40
0.0
 40
0.0
 40
0.0
 40
0.0
 40
0.25
 40
0.25
 40
0.5
 40
0.5
 40
0.75
 40
0.75
 40
1.0
 40
1.0
 40
1.0
 40
1.0
 10
394.3295169629039
 20
210.2146426574101
 30
0.0
 10
394.3475148732431
 20
210.5338648885171
 30
0.0
 10
394.3610954250609
 20
210.8510651599491
 30
0.0
 10
394.3791185109473
 20
211.4701159248939
 30
0.0
 10
394.3836582145863
 20
211.7735258901788
 30
0.0
 10
394.3835925443412
 20
212.3676780516123
 30
0.0
 10
394.3789309804648
 20
212.6547443892955
 30
0.0
 10
394.3608547857073
 20
213.1989492383888
 30
0.0
 10
394.3474394972423
 20
213.457875915593
 30
0.0
 10
394.3296146687295
 20
213.7034354922029
 30
0.0
  0
SPLINE
  5
1C7
330
1F
100
AcDbEntity
  8
0
  6
Continuous
 62
     8
370
    18
100
AcDbSpline
210
0.0
220
0.0
230
1.0
 70
     8
 71
     3
 72
    13
 73
     9
 74
     0
 42
0.00000001
 43
0.00000001
 40
0.0
 40
0.0
 40
0.0
 40
0.0
 40
0.157980723307354
 40
0.3194304119362804
 40
0.4843533159343945
 40
0.6527534223806098
 40
0.8246344763747983
 40
1.0
 40
1.0
 40
1.0
 40
1.0
 10
394.329510297056
 20
210.2146049525691
 30
0.0
 10
393.9586274784638
 20
210.3448595299046
 30
0.0
 10
393.2087179385987
 20
210.6082288348667
 30
0.0
 10
392.0697489886342
 20
210.9967522784428
 30
0.0
 10
390.9050054376406
 20
211.3860664598716
 30
0.0
 10
389.7143147490774
 20
211.7751751365759
 30
0.0
 10
388.4978177257069
 20
212.1649548904443
 30
0.0
 10
387.6775861652971
 20
212.4209810545846
 30
0.0
 10
387.2633550501303
 20
212.5502786927184
 30
0.0
  0
SPLINE
  5
1C8
330
1F
100
AcDbEntity
  8
0
  6
Continuous
 62
     8
370
    18
100
AcDbSpline
210
0.0
220
0.0
230
1.0
 70
     8
 71
     3
 72
    14
 73
    10
 74
     0
 42
0.00000001
 43
0.00000001
 40
0.0
 40
0.0
 40
0.0
 40
0.0
 40
0.1931136768138711
 40
0.3819937054819354
 40
0.5666448484515877
 40
0.7470722030395872
 40
0.7875426337884782
 40
0.894549405729408
 40
1.0
 40
1.0
 40
1.0
 40
1.0
 10
387.26335341677
 20
121.7313597070914
 30
0.0
 10
387.7194956567921
 20
121.8738233974758
 30
0.0
 10
388.6217800903324
 20
122.1556275342125
 30
0.0
 10
389.9583804329915
 20
122.5852875411455
 30
0.0
 10
391.2636103457357
 20
123.0142019684349
 30
0.0
 10
392.2179393197485
 20
123.3355603779112
 30
0.0
 10
392.9889034252353
 20
123.5992148783521
 30
0.0
 10
393.5832809387941
 20
123.8043578970865
 30
0.0
 10
394.0819892103047
 20
123.9799056438903
 30
0.0
 10
394.32951691215
 20
124.0670366036373
 30
0.0
  0
SPLINE
  5
1C9
330
1F
100
AcDbEntity
  8
0
  6
Continuous
 62
     8
370
    18
100
AcDbSpline
210
0.0
220
0.0
230
1.0
 70
     8
 71
     3
 72
    14
 73
    10
 74
     0
 42
0.00000001
 43
0.00000001
 40
0.0
 40
0.0
 40
0.0
 40
0.0
 40
0.25
 40
0.25
 40
0.5
 40
0.5
 40
0.75
 40
0.75
 40
1.0
 40
1.0
 40
1.0
 40
1.0
 10
394.3296146687294
 20
120.5782034144685
 30
0.0
 10
394.3474398356986
 20
120.8237676529807
 30
0.0
 10
394.360962749837
 20
121.0850374505885
 30
0.0
 10
394.3789914186272
 20
121.6296251391595
 30
0.0
 10
394.3835940847633
 20
121.9141082203093
 30
0.0
 10
394.3836567060645
 20
122.508261054023
 30
0.0
 10
394.3790586762273
 20
122.814492567255
 30
0.0
 10
394.3609874931721
 20
123.4333580095399
 30
0.0
 10
394.3475152149173
 20
123.7477679578416
 30
0.0
 10
394.3295169629032
 20
124.0669962492792
 30
0.0
  0
SPLINE
  5
1CA
330
1F
100
AcDbEntity
  8
0
  6
Continuous
 62
     8
370
    18
100
AcDbSpline
210
0.0
220
0.0
230
1.0
 70
     8
 71
     3
 72
    13
 73
     9
 74
     0
 42
0.00000001
 43
0.00000001
 40
0.0
 40
0.0
 40
0.0
 40
0.0
 40
0.119645536201859
 40
0.2426598964830785
 40
0.4341477996854661
 40
0.7359369264610057
 40
0.8664853791510894
 40
1.0
 40
1.0
 40
1.0
 40
1.0
 10
394.3295511121311
 20
120.5781832420525
 30
0.0
 10
394.0493433333461
 20
120.4765783224975
 30
0.0
 10
393.4810380479819
 20
120.2705076236308
 30
0.0
 10
392.4620398254179
 20
119.9097023706671
 30
0.0
 10
391.0128782957607
 20
119.4082574202502
 30
0.0
 10
389.5416062707251
 20
118.916945133862
 30
0.0
 10
388.2043682096463
 20
118.4823322388943
 30
0.0
 10
387.5793596518834
 20
118.2833812357307
 30
0.0
 10
387.2633450743862
 20
118.182788345559
 30
0.0
  0
SPLINE
  5
1CB
330
1F
100
AcDbEntity
  8
0
  6
Continuous
 62
     8
370
    18
100
AcDbSpline
210
0.0
220
0.0
230
1.0
 70
     8
 71
     3
 72
    11
 73
     7
 74
     0
 42
0.00000001
 43
0.00000001
 40
0.0
 40
0.0
 40
0.0
 40
0.0
 40
0.0001756986002653
 40
0.0001756986002653
 40
0.0001756986002653
 40
0.0001757586002653
 40
0.0001757586002653
 40
0.0001757586002653
 40
0.0001757586002653
 10
387.2656992028977
 20
118.3247413399867
 30
0.0
 10
387.2656057884552
 20
118.2773381667777
 30
0.0
 10
387.2648223581062
 20
118.2300275129557
 30
0.0
 10
387.2633422562977
 20
118.1828305579956
 30
0.0
 10
387.2633417508519
 20
118.1828144405234
 30
0.0
 10
387.2633412452938
 20
118.1827983230463
 30
0.0
 10
387.2633407397167
 20
118.1827822056177
 30
0.0
  0
LINE
  5
1CC
330
1F
100
AcDbEntity
  8
0
  6
Continuous
 62
     8
370
    18
100
AcDbLine
 10
394.3295169629
 20
124.0670363112
 30
0.0
 11
394.3295169629
 21
210.2146025955
 31
0.0
  0
LINE
  5
1CD
330
1F
100
AcDbEntity
  8
0
  6
Continuous
 62
     8
370
    18
100
AcDbLine
 10
386.3222648508
 20
216.3492559635
 30
0.0
 11
386.3222648508
 21
229.8933973457
 31
0.0
  0
SPLINE
  5
1CE
330
1F
100
AcDbEntity
  8
0
  6
Continuous
 62
     8
370
    18
100
AcDbSpline
210
0.0
220
0.0
230
1.0
 70
     8
 71
     3
 72
     8
 73
     4
 74
     0
 42
0.00000001
 43
0.00000001
 40
0.0
 40
0.0
 40
0.0
 40
0.0
 40
0.0001530013909389
 40
0.0001530013909389
 40
0.0001530013909389
 40
0.0001530013909389
 10
386.3203984639132
 20
216.2280910499106
 30
0.0
 10
386.3216473220725
 20
216.2685250840067
 30
0.0
 10
386.3222765765932
 20
216.3089194054143
 30
0.0
 10
386.3222772558118
 20
216.3492556982686
 30
0.0
  0
SPLINE
  5
1CF
330
1F
100
AcDbEntity
  8
0
  6
Continuous
 62
     8
370
    18
100
AcDbSpline
210
0.0
220
0.0
230
1.0
 70
     8
 71
     3
 72
     8
 73
     4
 74
     0
 42
0.00000001
 43
0.00000001
 40
0.0
 40
0.0
 40
0.0
 40
0.0
 40
0.0001530013914948
 40
0.0001530013914948
 40
0.0001530013914948
 40
0.0001530013914948
 10
386.3222772570497
 20
117.9323832088252
 30
0.0
 10
386.322276577831
 20
117.9727195018255
 30
0.0
 10
386.3216473233055
 20
118.0131138233796
 30
0.0
 10
386.320398465137
 20
118.0535478576224
 30
0.0
  0
LINE
  5
1D0
330
1F
100
AcDbEntity
  8
0
  6
Continuous
 62
     8
370
    18
100
AcDbLine
 10
386.3222648521
 20
104.3882415619
 30
0.0
 11
386.3222648521
 21
117.9323829436
 31
0.0
  0
SPLINE
  5
1D1
330
1F
100
AcDbEntity
  8
0
  6
Continuous
 62
     8
370
    18
100
AcDbSpline
210
0.0
220
0.0
230
1.0
 70
     8
 71
     3
 72
    10
 73
     6
 74
     0
 42
0.00000001
 43
0.00000001
 40
0.0
 40
0.0
 40
0.0
 40
0.0
 40
0.5
 40
0.5
 40
1.0
 40
1.0
 40
1.0
 40
1.0
 10
387.2633407816776
 20
216.098855324406
 30
0.0
 10
387.1395170980024
 20
216.1746258553751
 30
0.0
 10
386.992235237802
 20
216.235991024493
 30
0.0
 10
386.671063484478
 20
216.3214491523408
 30
0.0
 10
386.4972789994552
 20
216.345514063838
 30
0.0
 10
386.3222772558118
 20
216.3492556982685
 30
0.0
  0
SPLINE
  5
1D2
330
1F
100
AcDbEntity
  8
0
  6
Continuous
 62
     8
370
    18
100
AcDbSpline
210
0.0
220
0.0
230
1.0
 70
     8
 71
     3
 72
    10
 73
     6
 74
     0
 42
0.00000001
 43
0.00000001
 40
0.0
 40
0.0
 40
0.0
 40
0.0
 40
0.5
 40
0.5
 40
1.0
 40
1.0
 40
1.0
 40
1.0
 10
386.3222772570693
 20
117.9323820329273
 30
0.0
 10
386.4972789905323
 20
117.9361236327719
 30
0.0
 10
386.6710634655279
 20
117.9601885084226
 30
0.0
 10
386.9922352032169
 20
118.0456465673777
 30
0.0
 10
387.139517057839
 20
118.1070117034783
 30
0.0
 10
387.2633407397167
 20
118.1827822056177
 30
0.0
  0
LINE
  5
1D3
330
1F
100
AcDbEntity
  8
0
  6
Continuous
 62
     8
370
    18
100
AcDbLine
 10
387.2633550491
 20
229.4841996815
 30
0.0
 11
387.2633550491
 21
216.0988497512
 31
0.0
  0
LINE
  5
1D4
330
1F
100
AcDbEntity
  8
0
  6
Continuous
 62
     8
370
    18
100
AcDbLine
 10
387.2633550503
 20
118.1827891559
 30
0.0
 11
387.2633550503
 21
104.7974392261
 31
0.0
  0
SPLINE
  5
1D5
330
1F
100
AcDbEntity
  8
0
  6
Continuous
 62
     8
370
    18
100
AcDbSpline
210
0.0
220
0.0
230
1.0
 70
     8
 71
     3
 72
     8
 73
     4
 74
     0
 42
0.00000001
 43
0.00000001
 40
0.0
 40
0.0
 40
0.0
 40
0.0
 40
1.0
 40
1.0
 40
1.0
 40
1.0
 10
389.4330717497039
 20
226.7685093172744
 30
0.0
 10
389.4178720657429
 20
226.8204835754294
 30
0.0
 10
389.4026723817818
 20
226.870642297117
 30
0.0
 10
389.3874726978208
 20
226.9189713603538
 30
0.0
  0
LINE
  5
1D6
330
1F
100
AcDbEntity
  8
0
  6
Continuous
 62
     8
370
    18
100
AcDbLine
 10
394.3295169629
 20
213.7034681162
 30
0.0
 11
394.3295169629
 21
220.8735098182
 31
0.0
  0
LINE
  5
1D7
330
1F
100
AcDbEntity
  8
0
  6
Continuous
 62
     8
370
    18
100
AcDbLine
 10
394.3295169629
 20
111.8636011386
 30
0.0
 11
394.3295169629
 21
120.5781707905
 31
0.0
  0
SPLINE
  5
1D8
330
1F
100
AcDbEntity
  8
0
  6
Continuous
 62
     8
370
    18
100
AcDbSpline
210
0.0
220
0.0
230
1.0
 70
     8
 71
     3
 72
    10
 73
     6
 74
     0
 42
0.00000001
 43
0.00000001
 40
0.0
 40
0.0
 40
0.0
 40
0.0
 40
0.5
 40
0.5
 40
1.0
 40
1.0
 40
1.0
 40
1.0
 10
395.0324606880371
 20
121.736013976306
 30
0.0
 10
395.0324606880371
 20
121.5216739039941
 30
0.0
 10
394.969995112041
 20
121.3074181653479
 30
0.0
 10
394.7295480200873
 20
120.911369353736
 30
0.0
 10
394.5516611097927
 20
120.7297321090656
 30
0.0
 10
394.3295169628848
 20
120.5781707904538
 30
0.0
  0
SPLINE
  5
1D9
330
1F
100
AcDbEntity
  8
0
  6
Continuous
 62
     8
370
    18
100
AcDbSpline
210
0.0
220
0.0
230
1.0
 70
     8
 71
     3
 72
    10
 73
     6
 74
     0
 42
0.00000001
 43
0.00000001
 40
0.0
 40
0.0
 40
0.0
 40
0.0
 40
0.5
 40
0.5
 40
1.0
 40
1.0
 40
1.0
 40
1.0
 10
394.3295169629036
 20
124.0670363111887
 30
0.0
 10
394.5516611098059
 20
124.0670296342013
 30
0.0
 10
394.7295480200957
 20
124.0670229572135
 30
0.0
 10
394.9699951120429
 20
124.0670096032375
 30
0.0
 10
395.0324606880371
 20
124.0670029262493
 30
0.0
 10
395.0324606880371
 20
124.066996249261
 30
0.0
  0
SPLINE
  5
1DA
330
1F
100
AcDbEntity
  8
0
  6
Continuous
 62
     8
370
    18
100
AcDbSpline
210
0.0
220
0.0
230
1.0
 70
     8
 71
     3
 72
    10
 73
     6
 74
     0
 42
0.00000001
 43
0.00000001
 40
0.0
 40
0.0
 40
0.0
 40
0.0
 40
0.5
 40
0.5
 40
1.0
 40
1.0
 40
1.0
 40
1.0
 10
394.3295169628848
 20
213.7034681162177
 30
0.0
 10
394.5516611097927
 20
213.5519050124666
 30
0.0
 10
394.7295480200873
 20
213.3702660273383
 30
0.0
 10
394.969995112041
 20
212.9742138601479
 30
0.0
 10
395.0324606880371
 20
212.759956506571
 30
0.0
 10
395.0324606880371
 20
212.5456148822594
 30
0.0
  0
SPLINE
  5
1DB
330
1F
100
AcDbEntity
  8
0
  6
Continuous
 62
     8
370
    18
100
AcDbSpline
210
0.0
220
0.0
230
1.0
 70
    24
 71
     3
 72
    10
 73
     6
 74
     0
 42
0.00000001
 43
0.00000001
 40
0.0
 40
0.0
 40
0.0
 40
0.0
 40
0.5
 40
0.5
 40
1.0
 40
1.0
 40
1.0
 40
1.0
 10
394.3295169629039
 20
210.2146226264557
 30
0.0
 10
394.5516611098061
 20
210.2146226264535
 30
0.0
 10
394.7295480200958
 20
210.2146226264507
 30
0.0
 10
394.9699951120429
 20
210.2146226264447
 30
0.0
 10
395.0324606880371
 20
210.2146226264414
 30
0.0
 10
395.0324606880371
 20
210.2146226264382
 30
0.0
  0
LINE
  5
1DC
330
1F
100
AcDbEntity
  8
0
  6
Continuous
 62
     8
370
    18
100
AcDbLine
 10
395.0135919101
 20
219.2516394341
 30
0.0
 11
395.032460688
 21
219.0804770968
 31
0.0
  0
LINE
  5
1DD
330
1F
100
AcDbEntity
  8
0
  6
Continuous
 62
     7
370
    25
100
AcDbLine
 10
266.9063403068
 20
282.8419567235
 30
0.0
 11
267.6383422757
 21
283.3545100197
 31
0.0
  0
LINE
  5
1DE
330
1F
100
AcDbEntity
  8
0
  6
Continuous
 62
     7
370
    25
100
AcDbLine
 10
210.0941885016
 20
282.8106968773
 30
0.0
 11
210.100605775
 21
282.8109575884
 31
0.0
  0
SPLINE
  5
1DF
330
1F
100
AcDbEntity
  8
0
  6
Continuous
 62
     7
370
    25
100
AcDbSpline
210
0.0
220
0.0
230
1.0
 70
     8
 71
     3
 72
    11
 73
     7
 74
     0
 42
0.00000001
 43
0.00000001
 40
0.0
 40
0.0
 40
0.0
 40
0.0
 40
0.200487149018497
 40
0.5572828202106683
 40
0.914465730829569
 40
1.0
 40
1.0
 40
1.0
 40
1.0
 10
209.0162138076421
 20
282.8062031425937
 30
0.0
 10
209.064146401321
 20
282.8062150886049
 30
0.0
 10
209.1973819284665
 20
282.8062482942585
 30
0.0
 10
209.5159737399986
 20
282.8060897733478
 30
0.0
 10
209.8472357054899
 20
282.8059827883383
 30
0.0
 10
210.0544384627609
 20
282.805729037783
 30
0.0
 10
210.0944706485949
 20
282.8056800124248
 30
0.0
  0
SPLINE
  5
1E0
330
1F
100
AcDbEntity
  8
0
  6
Continuous
 62
     7
370
    25
100
AcDbSpline
210
0.0
220
0.0
230
1.0
 70
     8
 71
     3
 72
    11
 73
     7
 74
     0
 42
0.00000001
 43
0.00000001
 40
0.0
 40
0.0
 40
0.0
 40
0.0
 40
0.1417226521347613
 40
0.4775885388522831
 40
0.8346310786284412
 40
1.0
 40
1.0
 40
1.0
 40
1.0
 10
208.6424157704715
 20
282.805775078263
 30
0.0
 10
208.6433928254869
 20
282.8057909536556
 30
0.0
 10
208.6466853850756
 20
282.8058444518468
 30
0.0
 10
208.7180213961737
 20
282.8058722571206
 30
0.0
 10
208.8429097761483
 20
282.8062120284483
 30
0.0
 10
208.9745448367237
 20
282.8062052790957
 30
0.0
 10
209.0162138076421
 20
282.8062031425937
 30
0.0
  0
ARC
  5
1E1
330
1F
100
AcDbEntity
  8
0
  6
Continuous
 62
     7
370
    25
100
AcDbCircle
 10
266.7916265924
 20
283.0057882337
 30
0.0
 40
0.1999999999999515
100
AcDbArc
 50
235.0079798571
 51
304.9699544959
  0
SPLINE
  5
1E2
330
1F
100
AcDbEntity
  8
0
  6
Continuous
 62
     7
370
    25
100
AcDbSpline
210
0.0
220
0.0
230
1.0
 70
     8
 71
     3
 72
    12
 73
     8
 74
     0
 42
0.00000001
 43
0.00000001
 40
0.0
 40
0.0
 40
0.0
 40
0.0
 40
0.1009887973919711
 40
0.5676203987058559
 40
0.8899433713604566
 40
0.9845078745845645
 40
1.0
 40
1.0
 40
1.0
 40
1.0
 10
266.5210405654279
 20
282.8062208549255
 30
0.0
 10
266.5395280111563
 20
282.8062311304329
 30
0.0
 10
266.6434390546228
 20
282.8062888852307
 30
0.0
 10
266.7373883792851
 20
282.8046089884165
 30
0.0
 10
266.7607032943737
 20
282.808526449176
 30
0.0
 10
266.7976352735273
 20
282.8041746823114
 30
0.0
 10
266.7826471919273
 20
282.8064535124319
 30
0.0
 10
266.7805373940645
 20
282.8067742920384
 30
0.0
  0
SPLINE
  5
1E3
330
1F
100
AcDbEntity
  8
0
  6
Continuous
 62
     7
370
    25
100
AcDbSpline
210
0.0
220
0.0
230
1.0
 70
     8
 71
     3
 72
    11
 73
     7
 74
     0
 42
0.00000001
 43
0.00000001
 40
0.0
 40
0.0
 40
0.0
 40
0.0
 40
0.0647712131574875
 40
0.3884044782871406
 40
0.7275753254514811
 40
1.0
 40
1.0
 40
1.0
 40
1.0
 10
265.5063236323584
 20
282.8058897527188
 30
0.0
 10
265.5368911997797
 20
282.8059083184302
 30
0.0
 10
265.7201914576872
 20
282.8060196488365
 30
0.0
 10
266.0079596588084
 20
282.8061580611871
 30
0.0
 10
266.3237024300282
 20
282.8062604057587
 30
0.0
 10
266.4602277270565
 20
282.8062330431345
 30
0.0
 10
266.5210405654279
 20
282.8062208549255
 30
0.0
  0
LINE
  5
1E4
330
1F
100
AcDbEntity
  8
0
  6
Continuous
 62
     7
370
    25
100
AcDbLine
 10
232.4276144514
 20
314.0064226366
 30
0.0
 11
231.8443320999
 21
314.0513236885
 31
0.0
  0
LINE
  5
1E5
330
1F
100
AcDbEntity
  8
0
  6
Continuous
 62
     7
370
    25
100
AcDbLine
 10
243.5812525856
 20
314.0513236885
 30
0.0
 11
242.9979702341
 21
314.0064226366
 31
0.0
  0
SPLINE
  5
1E6
330
1F
100
AcDbEntity
  8
0
  6
Continuous
 62
     7
370
    25
100
AcDbSpline
210
0.0
220
0.0
230
1.0
 70
     8
 71
     3
 72
    16
 73
    12
 74
     0
 42
0.00000001
 43
0.00000001
 40
0.0
 40
0.0
 40
0.0
 40
0.0
 40
0.1120472075290742
 40
0.2069955420449083
 40
0.3465976327721982
 40
0.4211312609437391
 40
0.4879335958917342
 40
0.5766680021153586
 40
0.6889402576581466
 40
0.8298152602224743
 40
1.0
 40
1.0
 40
1.0
 40
1.0
 10
231.8452735210256
 20
314.0512583861766
 30
0.0
 10
231.6721366745338
 20
314.0726954106563
 30
0.0
 10
231.352284389253
 20
314.1122980799227
 30
0.0
 10
230.8516763975084
 20
314.2347014316433
 30
0.0
 10
230.4388212537588
 20
314.3831455999657
 30
0.0
 10
230.1028082664093
 20
314.5504378798987
 30
0.0
 10
229.8516549748016
 20
314.7025508748233
 30
0.0
 10
229.5895200317166
 20
314.8997463648899
 30
0.0
 10
229.3125138251839
 20
315.1808266053164
 30
0.0
 10
229.0554163225926
 20
315.5609196233106
 30
0.0
 10
228.9767637935735
 20
315.8743880357292
 30
0.0
 10
228.9337319949769
 20
316.045890589529
 30
0.0
  0
SPLINE
  5
1E7
330
1F
100
AcDbEntity
  8
0
  6
Continuous
 62
     7
370
    25
100
AcDbSpline
210
0.0
220
0.0
230
1.0
 70
     8
 71
     3
 72
    13
 73
     9
 74
     0
 42
0.00000001
 43
0.00000001
 40
0.0
 40
0.0
 40
0.0
 40
0.0
 40
0.1451053518725609
 40
0.262147832817745
 40
0.3927360938747118
 40
0.6373289671985072
 40
0.8036852577751203
 40
1.0
 40
1.0
 40
1.0
 40
1.0
 10
245.789112285914
 20
314.8727399565356
 30
0.0
 10
245.7106550704985
 20
314.8104378838879
 30
0.0
 10
245.5689139925531
 20
314.6978827429927
 30
0.0
 10
245.3223868673068
 20
314.5506425460687
 30
0.0
 10
244.9869833040802
 20
314.3830300813522
 30
0.0
 10
244.5738607346149
 20
314.2347264138929
 30
0.0
 10
244.0733123814959
 20
314.1122917289586
 30
0.0
 10
243.7534522552922
 20
314.0726931802152
 30
0.0
 10
243.5803111644842
 20
314.0512583861844
 30
0.0
  0
SPLINE
  5
1E8
330
1F
100
AcDbEntity
  8
0
  6
Continuous
 62
     7
370
    25
100
AcDbSpline
210
0.0
220
0.0
230
1.0
 70
     8
 71
     3
 72
    11
 73
     7
 74
     0
 42
0.00000001
 43
0.00000001
 40
0.0
 40
0.0
 40
0.0
 40
0.0
 40
0.3964726564887417
 40
0.7246635775998006
 40
0.9862198104133628
 40
1.0
 40
1.0
 40
1.0
 40
1.0
 10
246.491852690497
 20
316.0458905895026
 30
0.0
 10
246.4493221837499
 20
315.874107867091
 30
0.0
 10
246.3715859044073
 20
315.5601273689272
 30
0.0
 10
246.108897885828
 20
315.183158853014
 30
0.0
 10
245.9106119476238
 20
314.9636765127346
 30
0.0
 10
245.79490333459
 20
314.8770742733227
 30
0.0
 10
245.789112285914
 20
314.8727399565356
 30
0.0
  0
SPLINE
  5
1E9
330
1F
100
AcDbEntity
  8
0
  6
Continuous
 62
     7
370
    25
100
AcDbSpline
210
0.0
220
0.0
230
1.0
 70
     8
 71
     3
 72
     8
 73
     4
 74
     0
 42
0.00000001
 43
0.00000001
 40
0.0
 40
0.0
 40
0.0
 40
0.0
 40
1.0
 40
1.0
 40
1.0
 40
1.0
 10
265.9889946901196
 20
283.3495286944515
 30
0.0
 10
265.991081009724
 20
283.3495315123021
 30
0.0
 10
265.993166957662
 20
283.3495349894515
 30
0.0
 10
265.9952525429882
 20
283.349539937353
 30
0.0
  0
SPLINE
  5
1EA
330
1F
100
AcDbEntity
  8
0
  6
Continuous
 62
     7
370
    25
100
AcDbSpline
210
0.0
220
0.0
230
1.0
 70
     8
 71
     3
 72
    34
 73
    30
 74
     0
 42
0.00000001
 43
0.00000001
 40
0.0
 40
0.0
 40
0.0
 40
0.0
 40
0.1249999999999998
 40
0.1249999999999998
 40
0.1874999999999996
 40
0.1874999999999996
 40
0.2499999999999995
 40
0.2499999999999995
 40
0.3124999999999994
 40
0.3124999999999994
 40
0.3749999999999992
 40
0.3749999999999992
 40
0.499999999999999
 40
0.499999999999999
 40
0.5624999999999989
 40
0.5624999999999989
 40
0.6249999999999988
 40
0.6249999999999988
 40
0.6874999999999987
 40
0.6874999999999987
 40
0.7187499999999986
 40
0.7187499999999986
 40
0.7499999999999984
 40
0.7499999999999984
 40
0.8749999999999992
 40
0.8749999999999992
 40
0.9374999999999997
 40
0.9374999999999997
 40
1.0
 40
1.0
 40
1.0
 40
1.0
 10
209.4303325605656
 20
283.3495286211394
 30
0.0
 10
211.1144178246074
 20
283.3495391046907
 30
0.0
 10
213.0144927351686
 20
283.3495683345184
 30
0.0
 10
216.1832217154402
 20
283.3495848219829
 30
0.0
 10
217.2993406512286
 20
283.3495800713486
 30
0.0
 10
219.5913837620054
 20
283.3495777686848
 30
0.0
 10
220.7710891775457
 20
283.3495791147224
 30
0.0
 10
223.1965396297898
 20
283.3495707690627
 30
0.0
 10
224.4422926070717
 20
283.3490607065554
 30
0.0
 10
227.0010504953373
 20
283.349053015443
 30
0.0
 10
228.3209444510276
 20
283.3495694262745
 30
0.0
 10
232.2892254830266
 20
283.3495600042187
 30
0.0
 10
234.9695395375417
 20
283.349511449386
 30
0.0
 10
239.0422115507841
 20
283.3495408933452
 30
0.0
 10
240.4148154144135
 20
283.3495558549214
 30
0.0
 10
243.1117455577375
 20
283.3496138590906
 30
0.0
 10
244.4431244481138
 20
283.3496443956641
 30
0.0
 10
247.072329368786
 20
283.349712610431
 30
0.0
 10
248.3701554559112
 20
283.3497333897538
 30
0.0
 10
250.2912210598307
 20
283.349761289787
 30
0.0
 10
250.9280040130742
 20
283.349768132379
 30
0.0
 10
252.1897556948041
 20
283.3497637256676
 30
0.0
 10
252.8101160328736
 20
283.3497646768552
 30
0.0
 10
255.860558051808
 20
283.3497434768415
 30
0.0
 10
258.1385034988157
 20
283.3496548750059
 30
0.0
 10
261.3110194911624
 20
283.3495888606611
 30
0.0
 10
262.3297166667161
 20
283.3490433438409
 30
0.0
 10
264.244369320636
 20
283.3490022139432
 30
0.0
 10
265.1452329348053
 20
283.3495288137289
 30
0.0
 10
265.9889946914922
 20
283.3495288135837
 30
0.0
  0
LINE
  5
1EB
330
1F
100
AcDbEntity
  8
0
  6
Continuous
 62
     7
370
    25
100
AcDbLine
 10
208.547300071
 20
307.2885584123
 30
0.0
 11
266.8782846145
 21
307.2885584123
 31
0.0
  0
SPLINE
  5
1EC
330
1F
100
AcDbEntity
  8
0
  6
Continuous
 62
     7
370
    25
100
AcDbSpline
210
0.0
220
0.0
230
1.0
 70
     8
 71
     3
 72
     8
 73
     4
 74
     0
 42
0.00000001
 43
0.00000001
 40
0.0
 40
0.0
 40
0.0
 40
0.0
 40
1.0
 40
1.0
 40
1.0
 40
1.0
 10
209.4285767320417
 20
283.3495282730893
 30
0.0
 10
209.4291618618394
 20
283.3495285128574
 30
0.0
 10
209.4297471384689
 20
283.3495286174951
 30
0.0
 10
209.4303325605656
 20
283.3495286211394
 30
0.0
  0
SPLINE
  5
1ED
330
1F
100
AcDbEntity
  8
0
  6
Continuous
 62
     7
370
    25
100
AcDbSpline
210
0.0
220
0.0
230
1.0
 70
     8
 71
     3
 72
    34
 73
    30
 74
     0
 42
0.00000001
 43
0.00000001
 40
0.0
 40
0.0
 40
0.0
 40
0.0
 40
0.1250000000000001
 40
0.1250000000000001
 40
0.1875000000000002
 40
0.1875000000000002
 40
0.2500000000000003
 40
0.2500000000000003
 40
0.3125000000000004
 40
0.3125000000000004
 40
0.3750000000000005
 40
0.3750000000000005
 40
0.5000000000000008
 40
0.5000000000000008
 40
0.6250000000000011
 40
0.6250000000000011
 40
0.6562500000000011
 40
0.6562500000000011
 40
0.6875000000000011
 40
0.6875000000000011
 40
0.7500000000000012
 40
0.7500000000000012
 40
0.8125000000000012
 40
0.8125000000000012
 40
0.843750000000001
 40
0.843750000000001
 40
0.8750000000000008
 40
0.8750000000000008
 40
1.0
 40
1.0
 40
1.0
 40
1.0
 10
210.0072576954509
 20
282.8419638899835
 30
0.0
 10
211.6594480839461
 20
282.8419596637501
 30
0.0
 10
213.522612109162
 20
282.8419343708617
 30
0.0
 10
216.6273523547526
 20
282.8419300312798
 30
0.0
 10
217.720279422428
 20
282.8419285277555
 30
0.0
 10
219.9643707401877
 20
282.8419289515576
 30
0.0
 10
221.119391506914
 20
282.841930513799
 30
0.0
 10
223.4940980700073
 20
282.8419291906926
 30
0.0
 10
224.7136300675035
 20
282.8416798923233
 30
0.0
 10
227.2188825734831
 20
282.841679803024
 30
0.0
 10
228.5107532710765
 20
282.841934750886
 30
0.0
 10
232.4020812236787
 20
282.8419495808278
 30
0.0
 10
235.0385882666516
 20
282.841968368475
 30
0.0
 10
240.3971959727356
 20
282.8419563995523
 30
0.0
 10
243.0259258783116
 20
282.8419093628571
 30
0.0
 10
246.2508784666267
 20
282.8418635969236
 30
0.0
 10
246.8927879442586
 20
282.8418382722491
 30
0.0
 10
248.1703361239159
 20
282.8418218697594
 30
0.0
 10
248.8073252809973
 20
282.8418311027512
 30
0.0
 10
250.6994802562189
 20
282.8418172320393
 30
0.0
 10
251.9239873599142
 20
282.8418142576803
 30
0.0
 10
254.3017142708887
 20
282.8418266062606
 30
0.0
 10
255.4549233025233
 20
282.8418462288364
 30
0.0
 10
257.1311011138454
 20
282.8418624737046
 30
0.0
 10
257.6808709234058
 20
282.8418594067426
 30
0.0
 10
258.7621794432148
 20
282.8418769881629
 30
0.0
 10
259.2948285083961
 20
282.8419023906343
 30
0.0
 10
261.8982364599659
 20
282.8419536630288
 30
0.0
 10
263.7660961706349
 20
282.8419637853343
 30
0.0
 10
265.4183460645638
 20
282.8419637865886
 30
0.0
  0
SPLINE
  5
1EE
330
1F
100
AcDbEntity
  8
0
  6
Continuous
 62
     7
370
    25
100
AcDbSpline
210
0.0
220
0.0
230
1.0
 70
     8
 71
     3
 72
    10
 73
     6
 74
     0
 42
0.00000001
 43
0.00000001
 40
0.0
 40
0.0
 40
0.0
 40
0.0
 40
0.5
 40
0.5
 40
1.0
 40
1.0
 40
1.0
 40
1.0
 10
265.2377482296838
 20
282.8419473901543
 30
0.0
 10
265.2640135777337
 20
282.8185962860701
 30
0.0
 10
265.2960011871493
 20
282.8057911408929
 30
0.0
 10
265.3601147303777
 20
282.8057968817797
 30
0.0
 10
265.3920945003527
 20
282.8186077547203
 30
0.0
 10
265.4183455543765
 20
282.8419635584381
 30
0.0
  0
SPLINE
  5
1EF
330
1F
100
AcDbEntity
  8
0
  6
Continuous
 62
     7
370
    25
100
AcDbSpline
210
0.0
220
0.0
230
1.0
 70
     8
 71
     3
 72
    20
 73
    16
 74
     0
 42
0.00000001
 43
0.00000001
 40
0.0
 40
0.0
 40
0.0
 40
0.0
 40
0.0860490591477303
 40
0.1720982202106729
 40
0.260645765808557
 40
0.3491933636234171
 40
0.4338208362000074
 40
0.518448276446321
 40
0.6054494935578726
 40
0.6924506979032006
 40
0.7649292680045275
 40
0.8374078746895928
 40
0.9113571590053947
 40
0.9853065785236103
 40
1.0
 40
1.0
 40
1.0
 40
1.0
 10
259.3958341729546
 20
282.8418926498678
 30
0.0
 10
258.6213069643968
 20
282.8418766337654
 30
0.0
 10
257.0722516299427
 20
282.8418446015415
 30
0.0
 10
254.5512307877432
 20
282.8418216791935
 30
0.0
 10
251.8959843279181
 20
282.8418129613243
 30
0.0
 10
249.1504852384405
 20
282.8418208910381
 30
0.0
 10
246.3675369778578
 20
282.8418347587103
 30
0.0
 10
243.5429825787192
 20
282.8418780014738
 30
0.0
 10
240.651687591053
 20
282.8419266059324
 30
0.0
 10
237.8764534736157
 20
282.8419497151006
 30
0.0
 10
235.2655411091098
 20
282.8419500872293
 30
0.0
 10
232.8120021199549
 20
282.8419351956935
 30
0.0
 10
230.3722584700316
 20
282.841972234548
 30
0.0
 10
228.5838526433631
 20
282.8417753509013
 30
0.0
 10
227.6399311234415
 20
282.8417747977908
 30
0.0
 10
227.4834668610462
 20
282.8417747061073
 30
0.0
  0
SPLINE
  5
1F0
330
1F
100
AcDbEntity
  8
0
  6
Continuous
 62
     7
370
    25
100
AcDbSpline
210
0.0
220
0.0
230
1.0
 70
     8
 71
     3
 72
    11
 73
     7
 74
     0
 42
0.00000001
 43
0.00000001
 40
0.0
 40
0.0
 40
0.0
 40
0.0
 40
0.0579840928628192
 40
0.3698313454881828
 40
0.6816784846847805
 40
1.0
 40
1.0
 40
1.0
 40
1.0
 10
217.7755324679852
 20
282.8418991330632
 30
0.0
 10
217.646552165856
 20
282.8418981990985
 30
0.0
 10
216.8238962213923
 20
282.8418922421299
 30
0.0
 10
215.4187997621419
 20
282.8418926739009
 30
0.0
 10
213.5387154158513
 20
282.8419157139941
 30
0.0
 10
212.3942675747164
 20
282.8419326177134
 30
0.0
 10
211.8161646043751
 20
282.8419411564079
 30
0.0
  0
SPLINE
  5
1F1
330
1F
100
AcDbEntity
  8
0
  6
Continuous
 62
     7
370
    25
100
AcDbSpline
210
0.0
220
0.0
230
1.0
 70
     8
 71
     3
 72
    10
 73
     6
 74
     0
 42
0.00000001
 43
0.00000001
 40
0.0
 40
0.0
 40
0.0
 40
0.0
 40
0.4813474258868232
 40
0.962694851773836
 40
1.0
 40
1.0
 40
1.0
 40
1.0
 10
210.0072576954509
 20
282.8419638899835
 30
0.0
 10
210.0211636497995
 20
282.8321392004302
 30
0.0
 10
210.0489755584968
 20
282.8124898213235
 30
0.0
 10
210.0830138275849
 20
282.8027290421754
 30
0.0
 10
210.1000008326028
 20
282.8062574272928
 30
0.0
 10
210.1012226577161
 20
282.806511213616
 30
0.0
  0
LINE
  5
1F2
330
1F
100
AcDbEntity
  8
0
  6
Continuous
 62
     7
370
    25
100
AcDbLine
 10
266.0847605323
 20
308.0885584123
 30
0.0
 11
209.3408240159
 21
308.0885584123
 31
0.0
  0
ARC
  5
1F3
330
1F
100
AcDbEntity
  8
0
  6
Continuous
 62
     7
370
    25
100
AcDbCircle
 10
237.7127923427
 20
313.0885584123
 30
0.0
 40
44.40000000004427
100
AcDbArc
 50
233.2933999606
 51
306.7066000394
  0
SPLINE
  5
1F4
330
1F
100
AcDbEntity
  8
0
  6
Continuous
 62
     7
370
    25
100
AcDbSpline
210
0.0
220
0.0
230
1.0
 70
     8
 71
     3
 72
    10
 73
     6
 74
     0
 42
0.00000001
 43
0.00000001
 40
0.0
 40
0.0
 40
0.0
 40
0.0
 40
0.5
 40
0.5
 40
1.0
 40
1.0
 40
1.0
 40
1.0
 10
207.7943733151894
 20
283.3495295536076
 30
0.0
 10
207.7943242535604
 20
283.3509344948421
 30
0.0
 10
207.934474507262
 20
283.3514156554771
 30
0.0
 10
208.4944010933677
 20
283.3514412536917
 30
0.0
 10
208.8990855187842
 20
283.3507857108607
 30
0.0
 10
209.4285758814979
 20
283.3495322585576
 30
0.0
  0
LINE
  5
1F5
330
1F
100
AcDbEntity
  8
0
  6
Continuous
 62
     7
370
    25
100
AcDbLine
 10
207.7943734801
 20
283.349524832
 30
0.0
 11
206.9584040066
 21
307.2885584123
 31
0.0
  0
SPLINE
  5
1F6
330
1F
100
AcDbEntity
  8
0
  6
Continuous
 62
     7
370
    25
100
AcDbSpline
210
0.0
220
0.0
230
1.0
 70
    24
 71
     3
 72
     8
 73
     4
 74
     0
 42
0.00000001
 43
0.00000001
 40
0.0
 40
0.0
 40
0.0
 40
0.0
 40
1.0
 40
1.0
 40
1.0
 40
1.0
 10
208.3302538622538
 20
307.2885584122565
 30
0.0
 10
208.3999978592511
 20
307.2885584122565
 30
0.0
 10
208.4723292985833
 20
307.2885584122565
 30
0.0
 10
208.547300070991
 20
307.2885584122565
 30
0.0
  0
SPLINE
  5
1F7
330
1F
100
AcDbEntity
  8
0
  6
Continuous
 62
     7
370
    25
100
AcDbSpline
210
0.0
220
0.0
230
1.0
 70
    24
 71
     3
 72
    17
 73
    13
 74
     0
 42
0.00000001
 43
0.00000001
 40
0.0
 40
0.0
 40
0.0
 40
0.0
 40
0.062392336113214
 40
0.1247178000263872
 40
0.1870539977708339
 40
0.2494784953450351
 40
0.3747328686963205
 40
0.4999634202326806
 40
0.6251872868642694
 40
0.7498501697636681
 40
0.874579070364055
 40
1.0
 40
1.0
 40
1.0
 40
1.0
 10
208.3302538622541
 20
307.2885584122565
 30
0.0
 10
208.2794332850036
 20
307.2885584122565
 30
0.0
 10
208.1778466000742
 20
307.2885584122565
 30
0.0
 10
208.0356566553284
 20
307.2885584122565
 30
0.0
 10
207.9011334113738
 20
307.2885584122565
 30
0.0
 10
207.7328093050652
 20
307.2885584122565
 30
0.0
 10
207.5434085472438
 20
307.2885584122565
 30
0.0
 10
207.3518861986116
 20
307.2885584122565
 30
0.0
 10
207.1966209184829
 20
307.2885584122565
 30
0.0
 10
207.0795852565421
 20
307.2885584122565
 30
0.0
 10
206.9979264435432
 20
307.2885584122565
 30
0.0
 10
206.9757145048144
 20
307.2885584122565
 30
0.0
 10
206.9645778112505
 20
307.2885584122565
 30
0.0
  0
LINE
  5
1F8
330
1F
100
AcDbEntity
  8
0
  6
Continuous
 62
     7
370
    25
100
AcDbLine
 10
268.4671806789
 20
307.2885584123
 30
0.0
 11
267.6312113202
 21
283.3495281192
 31
0.0
  0
SPLINE
  5
1F9
330
1F
100
AcDbEntity
  8
0
  6
Continuous
 62
     7
370
    25
100
AcDbSpline
210
0.0
220
0.0
230
1.0
 70
     8
 71
     3
 72
    10
 73
     6
 74
     0
 42
0.00000001
 43
0.00000001
 40
0.0
 40
0.0
 40
0.0
 40
0.0
 40
0.5
 40
0.5
 40
1.0
 40
1.0
 40
1.0
 40
1.0
 10
265.995252542982
 20
283.3495399373317
 30
0.0
 10
266.5252946614067
 20
283.350797424206
 30
0.0
 10
266.9306830402527
 20
283.3514237327838
 30
0.0
 10
267.4911357737934
 20
283.3514308228793
 30
0.0
 10
267.6312552246457
 20
283.3507853782577
 30
0.0
 10
267.6312113201926
 20
283.3495281192196
 30
0.0
  0
SPLINE
  5
1FA
330
1F
100
AcDbEntity
  8
0
  6
Continuous
 62
     7
370
    25
100
AcDbSpline
210
0.0
220
0.0
230
1.0
 70
    24
 71
     3
 72
    17
 73
    13
 74
     0
 42
0.00000001
 43
0.00000001
 40
0.0
 40
0.0
 40
0.0
 40
0.0
 40
0.0623923404334735
 40
0.1247178072124033
 40
0.1870540064892853
 40
0.2494785043886869
 40
0.3747328774942404
 40
0.4999634247887827
 40
0.6251872990030772
 40
0.7498501827530111
 40
0.8745790788286892
 40
1.0
 40
1.0
 40
1.0
 40
1.0
 10
268.4583722725981
 20
307.2885584122565
 30
0.0
 10
268.4530432803256
 20
307.2885584122565
 30
0.0
 10
268.4423910075264
 20
307.2885584122565
 30
0.0
 10
268.4143082905319
 20
307.2885584122565
 30
0.0
 10
268.3773751216632
 20
307.2885584122565
 30
0.0
 10
268.3151277595385
 20
307.2885584122565
 30
0.0
 10
268.2137768765118
 20
307.2885584122565
 30
0.0
 10
268.0545719611672
 20
307.2885584122565
 30
0.0
 10
267.8597105561866
 20
307.2885584122565
 30
0.0
 10
267.6290446259689
 20
307.2885584122565
 30
0.0
 10
267.3659289269128
 20
307.2885584122565
 30
0.0
 10
267.1628077423508
 20
307.2885584122565
 30
0.0
 10
267.060966188527
 20
307.2885584122565
 30
0.0
  0
SPLINE
  5
1FB
330
1F
100
AcDbEntity
  8
0
  6
Continuous
 62
     7
370
    25
100
AcDbSpline
210
0.0
220
0.0
230
1.0
 70
    24
 71
     3
 72
     8
 73
     4
 74
     0
 42
0.00000001
 43
0.00000001
 40
0.0
 40
0.0
 40
0.0
 40
0.0
 40
1.0
 40
1.0
 40
1.0
 40
1.0
 10
266.8782846144863
 20
307.2885584122564
 30
0.0
 10
266.9410216437813
 20
307.2885584122564
 30
0.0
 10
267.0019047145587
 20
307.2885584122565
 30
0.0
 10
267.060966188527
 20
307.2885584122565
 30
0.0
  0
LINE
  5
1FC
330
1F
100
AcDbEntity
  8
0
  6
Continuous
 62
     7
370
    25
100
AcDbLine
 10
266.243648406
 20
308.0885584123
 30
0.0
 11
266.0847605323
 21
308.0885584123
 31
0.0
  0
LINE
  5
1FD
330
1F
100
AcDbEntity
  8
0
  6
Continuous
 62
     7
370
    25
100
AcDbLine
 10
209.3408240159
 20
308.0885584123
 30
0.0
 11
209.1523478854
 21
308.0885584123
 31
0.0
  0
SPLINE
  5
1FE
330
1F
100
AcDbEntity
  8
0
  6
Continuous
 62
     7
370
    25
100
AcDbSpline
210
0.0
220
0.0
230
1.0
 70
    24
 71
     3
 72
    14
 73
    10
 74
     0
 42
0.00000001
 43
0.00000001
 40
0.0002161546454185
 40
0.0002161546454185
 40
0.0002161546454185
 40
0.0002161546454185
 40
0.2502046351088637
 40
0.2502046351088637
 40
0.500193115572309
 40
0.500193115572309
 40
0.7501815960357543
 40
0.7501815960357543
 40
0.9999798959654668
 40
0.9999798959654668
 40
0.9999798959654668
 40
0.9999798959654668
 10
267.4595479069611
 20
308.0885584122564
 30
0.0
 10
267.4441992855997
 20
308.0885584122564
 30
0.0
 10
267.4067825885702
 20
308.0885584122564
 30
0.0
 10
267.287596875799
 20
308.0885584122564
 30
0.0
 10
267.2053501037072
 20
308.0885584122562
 30
0.0
 10
267.0000992173181
 20
308.0885584122565
 30
0.0
 10
266.8763396620575
 20
308.0885584122565
 30
0.0
 10
266.5899576493969
 20
308.0885584122562
 30
0.0
 10
266.4270432117212
 20
308.0885584122564
 30
0.0
 10
266.2436480789053
 20
308.0885584122564
 30
0.0
  0
SPLINE
  5
1FF
330
1F
100
AcDbEntity
  8
0
  6
Continuous
 62
     7
370
    25
100
AcDbSpline
210
0.0
220
0.0
230
1.0
 70
    24
 71
     3
 72
    14
 73
    10
 74
     0
 42
0.00000001
 43
0.00000001
 40
0.000216163293826
 40
0.000216163293826
 40
0.000216163293826
 40
0.000216163293826
 40
0.2502046437299848
 40
0.2502046437299848
 40
0.5001931241661436
 40
0.5001931241661436
 40
0.7501816046023024
 40
0.7501816046023024
 40
0.9999798965939886
 40
0.9999798965939886
 40
0.9999798965939886
 40
0.9999798965939886
 10
209.1523478854121
 20
308.0885584122571
 30
0.0
 10
208.9722962737198
 20
308.0885584122558
 30
0.0
 10
208.8119280173935
 20
308.0885584122571
 30
0.0
 10
208.5293628483192
 20
308.0885584122571
 30
0.0
 10
208.4065635820326
 20
308.0885584122571
 30
0.0
 10
208.2053860160057
 20
308.0885584122571
 30
0.0
 10
208.1260419127208
 20
308.0885584122572
 30
0.0
 10
208.0119227853128
 20
308.0885584122569
 30
0.0
 10
207.9768536045023
 20
308.0885584122571
 30
0.0
 10
207.9637720153705
 20
308.0885584122571
 30
0.0
  0
SPLINE
  5
200
330
1F
100
AcDbEntity
  8
0
  6
Continuous
 62
     7
370
    25
100
AcDbSpline
210
0.0
220
0.0
230
1.0
 70
     8
 71
     3
 72
    10
 73
     6
 74
     0
 42
0.00000001
 43
0.00000001
 40
0.0
 40
0.0
 40
0.0
 40
0.0
 40
0.0000298400527168
 40
0.6803383390579674
 40
1.0
 40
1.0
 40
1.0
 40
1.0
 10
266.6769319197096
 20
282.8419433922779
 30
0.0
 10
266.6769319081635
 20
282.8419434003332
 30
0.0
 10
266.6766686618727
 20
282.8421270581485
 30
0.0
 10
266.6284354534569
 20
282.8423536167903
 30
0.0
 10
266.4225019779717
 20
282.8423482489488
 30
0.0
 10
266.3566709767539
 20
282.8423465330044
 30
0.0
  0
LWPOLYLINE
  5
201
330
1F
100
AcDbEntity
  8
0
  6
Continuous
 62
     7
370
    25
100
AcDbPolyline
 90
        4
 70
   128
 43
0.0
 10
265.5082159195
 20
282.8419967417
 10
265.2377849047
 20
282.8419476783
 10
265.2377482297
 20
282.8419473902
 10
265.2377482297
 20
282.8419473902
  0
ARC
  5
202
330
1F
100
AcDbEntity
  8
0
  6
Continuous
 62
     7
370
    25
100
AcDbCircle
 10
266.791624352
 20
283.0057897473
 30
0.0
 40
0.1999999551368415
100
AcDbArc
 50
235.0079836139
 51
304.9999961414
  0
SPLINE
  5
203
330
1F
100
AcDbEntity
  8
0
  6
Continuous
 62
     7
370
    25
100
AcDbSpline
210
0.0
220
0.0
230
1.0
 70
     8
 71
     3
 72
    10
 73
     6
 74
     0
 42
0.00000001
 43
0.00000001
 40
0.0
 40
0.0
 40
0.0
 40
0.0
 40
0.4689215145911982
 40
0.9378430291823836
 40
1.0
 40
1.0
 40
1.0
 40
1.0
 10
208.5192547659092
 20
282.8419626813296
 30
0.0
 10
208.5369225490352
 20
282.8321043041383
 30
0.0
 10
208.5722581152872
 20
282.8123875497561
 30
0.0
 10
208.6166065583153
 20
282.8027273709444
 30
0.0
 10
208.6392740832853
 20
282.806569579513
 30
0.0
 10
208.6419270709825
 20
282.8070192683113
 30
0.0
  0
SPLINE
  5
204
330
1F
100
AcDbEntity
  8
0
  6
Continuous
 62
     7
370
    25
100
AcDbSpline
210
0.0
220
0.0
230
1.0
 70
    24
 71
     3
 72
    13
 73
     9
 74
     0
 42
0.00000001
 43
0.00000001
 40
0.0
 40
0.0
 40
0.0
 40
0.0
 40
0.1825657507773678
 40
0.3651315015545709
 40
0.5530011823905402
 40
0.7408708632265095
 40
0.9323528595558501
 40
1.0
 40
1.0
 40
1.0
 40
1.0
 10
210.0916727868999
 20
279.5160778938765
 30
0.0
 10
210.0905523222779
 20
279.5374576324825
 30
0.0
 10
210.0883113930338
 20
279.5802171096948
 30
0.0
 10
210.0700921702153
 20
279.9278605906402
 30
0.0
 10
210.0408489200833
 20
280.4858550436017
 30
0.0
 10
209.9982127216301
 20
281.2994021741324
 30
0.0
 10
209.9576093452134
 20
282.0741607495225
 30
0.0
 10
209.9272003530752
 20
282.6543988850481
 30
0.0
 10
209.9192619120818
 20
282.8058733627302
 30
0.0
  0
ARC
  5
205
330
1F
100
AcDbEntity
  8
0
  6
Continuous
 62
     7
370
    25
100
AcDbCircle
 10
212.7879725307
 20
279.6573849757
 30
0.0
 40
2.699999999999998
100
AcDbArc
 50
183.0
 51
233.2933999606
  0
SPLINE
  5
206
330
1F
100
AcDbEntity
  8
0
  6
Continuous
 62
     7
370
    25
100
AcDbSpline
210
0.0
220
0.0
230
1.0
 70
    24
 71
     3
 72
    13
 73
     9
 74
     0
 42
0.00000001
 43
0.00000001
 40
0.0
 40
0.0
 40
0.0
 40
0.0
 40
0.0713403121414467
 40
0.2632291175089183
 40
0.4447845490816699
 40
0.6263399806544222
 40
0.8131699903271264
 40
1.0
 40
1.0
 40
1.0
 40
1.0
 10
265.5082159194693
 20
282.8419967417345
 30
0.0
 10
265.4997862021299
 20
282.681148152941
 30
0.0
 10
265.4686825106893
 20
282.0876543650709
 30
0.0
 10
265.4279502725635
 20
281.3104369617937
 30
0.0
 10
265.3858737069635
 20
280.5075682622312
 30
0.0
 10
265.3564013183413
 20
279.9452015864184
 30
0.0
 10
265.3374719948176
 20
279.5840085768546
 30
0.0
 10
265.3350985973242
 20
279.5387214548691
 30
0.0
 10
265.3339118985775
 20
279.5160778938765
 30
0.0
  0
ARC
  5
207
330
1F
100
AcDbEntity
  8
0
  6
Continuous
 62
     7
370
    25
100
AcDbCircle
 10
262.6376121547
 20
279.6573849757
 30
0.0
 40
2.700000000000007
100
AcDbArc
 50
306.7066000394
 51
357.0
  0
LINE
  5
208
330
1F
100
AcDbEntity
  8
0
  6
Continuous
 62
     7
370
    25
100
AcDbLine
 10
267.4671806789
 20
308.0885584123
 30
0.0
 11
268.2671806789
 21
307.2885584123
 31
0.0
  0
LINE
  5
209
330
1F
100
AcDbEntity
  8
0
  6
Continuous
 62
     7
370
    25
100
AcDbLine
 10
207.9584040066
 20
308.0885584123
 30
0.0
 11
207.1584040066
 21
307.2885584123
 31
0.0
  0
LINE
  5
20A
330
1F
100
AcDbEntity
  8
0
  6
Continuous
 62
     7
370
    25
100
AcDbLine
 10
208.5192513468
 20
282.8419638212
 30
0.0
 11
208.5192528515
 21
282.8419642293
 31
0.0
  0
LINE
  5
20B
330
1F
100
AcDbEntity
  8
0
  6
Continuous
 62
     7
370
    25
100
AcDbLine
 10
207.7943734297
 20
283.3495289401
 30
0.0
 11
208.5192513468
 21
282.8419638212
 31
0.0
  0
ARC
  5
20C
330
1F
100
AcDbEntity
  8
0
  6
Continuous
 62
     7
370
    25
100
AcDbCircle
 10
208.6339676906
 20
283.0057949519
 30
0.0
 40
0.2000000000007318
100
AcDbArc
 50
235.000156745
 51
261.9987055508
  0
ELLIPSE
  5
20D
330
1F
100
AcDbEntity
  8
0
  6
Continuous
 62
     7
370
    25
100
AcDbEllipse
 10
237.7127923427
 20
298.7669518439
 30
0.0
 11
35.32397120761084
 21
5.684341886080801E-14
 31
0.0
210
0.0
220
0.0
230
1.0
 40
0.2679609231
 41
1.396241499004272
 42
1.745351154585522
  0
LINE
  5
20E
330
1F
100
AcDbEntity
  8
0
  6
Continuous
 62
     7
370
    25
100
AcDbLine
 10
232.4053052183
 20
312.9044839705
 30
0.0
 11
243.0202794671
 21
312.9044839705
 31
0.0
  0
SPLINE
  5
20F
330
1F
100
AcDbEntity
  8
0
  6
Continuous
 62
     7
370
    25
100
AcDbSpline
210
0.0
220
0.0
230
1.0
 70
    24
 71
     3
 72
     8
 73
     4
 74
     0
 42
0.00000001
 43
0.00000001
 40
0.0
 40
0.0
 40
0.0
 40
0.0
 40
1.0
 40
1.0
 40
1.0
 40
1.0
 10
243.0202794671295
 20
312.9044839705143
 30
0.0
 10
243.0263268059209
 20
313.2509357778439
 30
0.0
 10
243.0323726306518
 20
313.5973008447053
 30
0.0
 10
243.0384167886063
 20
313.9435704220077
 30
0.0
  0
SPLINE
  5
210
330
1F
100
AcDbEntity
  8
0
  6
Continuous
 62
     7
370
    25
100
AcDbSpline
210
0.0
220
0.0
230
1.0
 70
    24
 71
     3
 72
     8
 73
     4
 74
     0
 42
0.00000001
 43
0.00000001
 40
0.0
 40
0.0
 40
0.0
 40
0.0
 40
1.0
 40
1.0
 40
1.0
 40
1.0
 10
232.3871678968711
 20
313.9435704220078
 30
0.0
 10
232.3932120548255
 20
313.5973008447046
 30
0.0
 10
232.3992578795565
 20
313.2509357778434
 30
0.0
 10
232.4053052183479
 20
312.9044839705145
 30
0.0
  0
LINE
  5
211
330
1F
100
AcDbEntity
  8
0
  6
Continuous
 62
     7
370
    25
100
AcDbLine
 10
228.9123733622
 20
316.3022266242
 30
0.0
 11
228.9445693279
 21
316.0144624073
 31
0.0
  0
LINE
  5
212
330
1F
100
AcDbEntity
  8
0
  6
Continuous
 62
     7
370
    25
100
AcDbLine
 10
246.0419746976
 20
315.2712926119
 30
0.0
 11
246.0747077885
 21
315.1027347873
 31
0.0
  0
LWPOLYLINE
  5
213
330
1F
100
AcDbEntity
  8
0
  6
Continuous
 62
     7
370
    25
100
AcDbPolyline
 90
        3
 70
   128
 43
0.0
 10
238.6391850992
 20
312.9044839705
 10
238.4110774235
 20
313.1589724338
 10
238.1127923427
 20
313.6101621451
  0
SPLINE
  5
214
330
1F
100
AcDbEntity
  8
0
  6
Continuous
 62
     7
370
    25
100
AcDbSpline
210
0.0
220
0.0
230
1.0
 70
     8
 71
     3
 72
    10
 73
     6
 74
     0
 42
0.00000001
 43
0.00000001
 40
0.0
 40
0.0
 40
0.0
 40
0.0
 40
0.334120607591322
 40
0.6673857932159994
 40
0.9999999999999999
 40
0.9999999999999999
 40
0.9999999999999999
 40
0.9999999999999999
 10
245.9185762818245
 20
315.9531696635082
 30
0.0
 10
245.9292968460801
 20
315.8769381698605
 30
0.0
 10
245.9507105275977
 20
315.7246703518924
 30
0.0
 10
245.9918442340481
 20
315.4972834575631
 30
0.0
 10
246.025275437442
 20
315.3465737813855
 30
0.0
 10
246.0419746975866
 20
315.2712926119004
 30
0.0
  0
SPLINE
  5
215
330
1F
100
AcDbEntity
  8
0
  6
Continuous
 62
     7
370
    25
100
AcDbSpline
210
0.0
220
0.0
230
1.0
 70
     8
 71
     3
 72
    14
 73
    10
 74
     0
 42
0.00000001
 43
0.00000001
 40
0.0
 40
0.0
 40
0.0
 40
0.0
 40
0.1291881617261142
 40
0.2629355045571343
 40
0.401238124722419
 40
0.5440961753162452
 40
0.6915097587971895
 40
0.8434791389243036
 40
1.0
 40
1.0
 40
1.0
 40
1.0
 10
245.5516126644714
 20
316.9424567154805
 30
0.0
 10
245.5764556731042
 20
316.9020761835491
 30
0.0
 10
245.6270184253123
 20
316.8198900498057
 30
0.0
 10
245.6943342549911
 20
316.6913041531506
 30
0.0
 10
245.7560573036923
 20
316.5562315759116
 30
0.0
 10
245.8105540104501
 20
316.4145202732899
 30
0.0
 10
245.8567444616955
 20
316.2663763284512
 30
0.0
 10
245.8944687037224
 20
316.1120703313528
 30
0.0
 10
245.9104617682903
 20
316.0066549872665
 30
0.0
 10
245.9185762818245
 20
315.9531696635083
 30
0.0
  0
LINE
  5
216
330
1F
100
AcDbEntity
  8
0
  6
Continuous
 62
     7
370
    25
100
AcDbLine
 10
246.452250737
 20
316.9424580159
 30
0.0
 11
245.5516149543
 21
316.9424580159
 31
0.0
  0
LINE
  5
217
330
1F
100
AcDbEntity
  8
0
  6
Continuous
 62
     7
370
    25
100
AcDbLine
 10
246.4334286087
 20
315.8641390044
 30
0.0
 11
246.452250737
 21
316.9424580159
 31
0.0
  0
LINE
  5
218
330
1F
100
AcDbEntity
  8
0
  6
Continuous
 62
     7
370
    25
100
AcDbLine
 10
228.9733339485
 20
316.9424580159
 30
0.0
 11
228.9921560768
 21
315.8641390044
 31
0.0
  0
LINE
  5
219
330
1F
100
AcDbEntity
  8
0
  6
Continuous
 62
     7
370
    25
100
AcDbLine
 10
229.8739760386
 20
316.9424580159
 30
0.0
 11
228.9733339485
 21
316.9424580159
 31
0.0
  0
SPLINE
  5
21A
330
1F
100
AcDbEntity
  8
0
  6
Continuous
 62
     7
370
    25
100
AcDbSpline
210
0.0
220
0.0
230
1.0
 70
     8
 71
     3
 72
    14
 73
    10
 74
     0
 42
0.00000001
 43
0.00000001
 40
0.0
 40
0.0
 40
0.0
 40
0.0
 40
0.1450523924907865
 40
0.2893821982407409
 40
0.432980743816501
 40
0.575844532283471
 40
0.717971196687849
 40
0.8593581339518372
 40
1.0
 40
1.0
 40
1.0
 40
1.0
 10
229.8740421692557
 20
316.9421232966511
 30
0.0
 10
229.8462397949494
 20
316.8967625553117
 30
0.0
 10
229.7907735454453
 20
316.8062670397452
 30
0.0
 10
229.7195233170943
 20
316.6671463925895
 30
0.0
 10
229.6572997311675
 20
316.526492216952
 30
0.0
 10
229.6048755304969
 20
316.3843986254367
 30
0.0
 10
229.5622540333796
 20
316.2412978876729
 30
0.0
 10
229.5286207105902
 20
316.0975986877432
 30
0.0
 10
229.5141998067892
 20
316.0012278065311
 30
0.0
 10
229.5070084036529
 20
315.9531696635074
 30
0.0
  0
SPLINE
  5
21B
330
1F
100
AcDbEntity
  8
0
  6
Continuous
 62
     7
370
    25
100
AcDbSpline
210
0.0
220
0.0
230
1.0
 70
     8
 71
     3
 72
     8
 73
     4
 74
     0
 42
0.00000001
 43
0.00000001
 40
0.0
 40
0.0
 40
0.0
 40
0.0
 40
1.0
 40
1.0
 40
1.0
 40
1.0
 10
229.3836099878909
 20
315.2712926119013
 30
0.0
 10
229.4361072901472
 20
315.4974415500193
 30
0.0
 10
229.4771632788153
 20
315.7247416292744
 30
0.0
 10
229.507008403652
 20
315.9531696635005
 30
0.0
  0
LWPOLYLINE
  5
21C
330
1F
100
AcDbEntity
  8
0
  6
Continuous
 62
     7
370
    25
100
AcDbPolyline
 90
        3
 70
   128
 43
0.0
 10
237.3127923427
 20
313.6101621451
 10
237.014507262
 20
313.1589724338
 10
236.7863995863
 20
312.9044839705
  0
LINE
  5
21D
330
1F
100
AcDbEntity
  8
0
  6
Continuous
 62
     7
370
    25
100
AcDbLine
 10
229.3571636726
 20
315.1408330218
 30
0.0
 11
229.3836099879
 21
315.2712926119
 31
0.0
  0
LINE
  5
21E
330
1F
100
AcDbEntity
  8
0
  6
Continuous
 62
     7
370
    25
100
AcDbLine
 10
237.3127923427
 20
316.4030019482
 30
0.0
 11
237.3127923427
 21
313.6101621451
 31
0.0
  0
SPLINE
  5
21F
330
1F
100
AcDbEntity
  8
0
  6
Continuous
 62
     7
370
    25
100
AcDbSpline
210
0.0
220
0.0
230
1.0
 70
     8
 71
     3
 72
    11
 73
     7
 74
     0
 42
0.00000001
 43
0.00000001
 40
0.0
 40
0.0
 40
0.0
 40
0.0
 40
0.239328004144403
 40
0.4857778701833244
 40
0.7393413418965181
 40
1.0
 40
1.0
 40
1.0
 40
1.0
 10
237.3127923427387
 20
316.4030019481684
 30
0.0
 10
237.2967935654895
 20
316.4472442979366
 30
0.0
 10
237.2643199234459
 20
316.5370455500682
 30
0.0
 10
237.2039869387986
 20
316.6712817438629
 30
0.0
 10
237.1343224482947
 20
316.8073674843448
 30
0.0
 10
237.0794094529834
 20
316.8968903078096
 30
0.0
 10
237.0515741132726
 20
316.9422693331003
 30
0.0
  0
SPLINE
  5
220
330
1F
100
AcDbEntity
  8
0
  6
Continuous
 62
     7
370
    25
100
AcDbSpline
210
0.0
220
0.0
230
1.0
 70
     8
 71
     3
 72
    25
 73
    21
 74
     0
 42
0.00000001
 43
0.00000001
 40
0.0
 40
0.0
 40
0.0
 40
0.0
 40
0.0454972256087478
 40
0.0921768548897209
 40
0.1400388564482408
 40
0.1890820945883075
 40
0.2393053057494357
 40
0.2907085295894949
 40
0.3432927711233694
 40
0.3970572185194871
 40
0.4520053506758542
 40
0.5081381142185047
 40
0.5654551245405343
 40
0.6239571685374828
 40
0.6836483099783957
 40
0.7445282295264586
 40
0.806601705569031
 40
0.8698708585291322
 40
0.9343359279326147
 40
1.0
 40
1.0
 40
1.0
 40
1.0
 10
237.0515722406627
 20
316.9422722729703
 30
0.0
 10
237.0218166897698
 20
316.9872692806698
 30
0.0
 10
236.9615322864876
 20
317.0784326998387
 30
0.0
 10
236.8580706858079
 20
317.2122922798276
 30
0.0
 10
236.7432012322655
 20
317.3455008088483
 30
0.0
 10
236.6156648667703
 20
317.4770366791372
 30
0.0
 10
236.4753697271408
 20
317.6062120154975
 30
0.0
 10
236.3219550212773
 20
317.7321614734137
 30
0.0
 10
236.1551732413762
 20
317.8539479669768
 30
0.0
 10
235.9749803143594
 20
317.9706684476573
 30
0.0
 10
235.781480766687
 20
318.0814383083262
 30
0.0
 10
235.5748318443976
 20
318.1853036921493
 30
0.0
 10
235.3552818475753
 20
318.2812503438392
 30
0.0
 10
235.1231765005996
 20
318.3682019051244
 30
0.0
 10
234.8789614745334
 20
318.4449814428085
 30
0.0
 10
234.6233048393262
 20
318.5104520869811
 30
0.0
 10
234.3571098924417
 20
318.5637886705636
 30
0.0
 10
234.0813642311979
 20
318.6036295282034
 30
0.0
 10
233.797231839527
 20
318.6303697408003
 30
0.0
 10
233.6048073330483
 20
318.6350881979237
 30
0.0
 10
233.5077085854646
 20
318.637469164286
 30
0.0
  0
LINE
  5
221
330
1F
100
AcDbEntity
  8
0
  6
Continuous
 62
     7
370
    25
100
AcDbLine
 10
233.5077068145
 20
318.6374692034
 30
0.0
 11
241.9626700104
 21
318.6376606523
 31
0.0
  0
SPLINE
  5
222
330
1F
100
AcDbEntity
  8
0
  6
Continuous
 62
     7
370
    25
100
AcDbSpline
210
0.0
220
0.0
230
1.0
 70
     8
 71
     3
 72
    13
 73
     9
 74
     0
 42
0.00000001
 43
0.00000001
 40
0.0
 40
0.0
 40
0.0
 40
0.0
 40
0.018404375024183
 40
0.1763619579599431
 40
0.3463907931788276
 40
0.6487354722884281
 40
0.9999533843843167
 40
1.0
 40
1.0
 40
1.0
 40
1.0
 10
238.3739707224158
 20
316.9424546632637
 30
0.0
 10
238.3858756119298
 20
316.9608394049536
 30
0.0
 10
238.4999555315806
 20
317.1370132243177
 30
0.0
 10
238.7728136401557
 20
317.4658341214219
 30
0.0
 10
239.4047545838856
 20
317.9873750562648
 30
0.0
 10
240.456347613219
 20
318.4902930127736
 30
0.0
 10
241.4400134332659
 20
318.6376421500317
 30
0.0
 10
241.9626006588283
 20
318.6376611684455
 30
0.0
 10
241.9626700103378
 20
318.6376611709694
 30
0.0
  0
SPLINE
  5
223
330
1F
100
AcDbEntity
  8
0
  6
Continuous
 62
     7
370
    25
100
AcDbSpline
210
0.0
220
0.0
230
1.0
 70
     8
 71
     3
 72
    11
 73
     7
 74
     0
 42
0.00000001
 43
0.00000001
 40
0.0
 40
0.0
 40
0.0
 40
0.0
 40
0.2628123391628402
 40
0.5170841788670563
 40
0.7628157649723815
 40
1.0
 40
1.0
 40
1.0
 40
1.0
 10
238.1128058234734
 20
316.4029980130269
 30
0.0
 10
238.1304570220056
 20
316.4515733831011
 30
0.0
 10
238.1651858156692
 20
316.5471455903573
 30
0.0
 10
238.2284338956556
 20
316.6854479104228
 30
0.0
 10
238.2968861653391
 20
316.8171086496524
 30
0.0
 10
238.3485808596074
 20
316.9011685975423
 30
0.0
 10
238.3739707225576
 20
316.9424546634864
 30
0.0
  0
LINE
  5
224
330
1F
100
AcDbEntity
  8
0
  6
Continuous
 62
     7
370
    25
100
AcDbLine
 10
238.1127923427
 20
313.6101621451
 30
0.0
 11
238.1127923427
 21
316.4030187281
 31
0.0
  0
LINE
  5
225
330
1F
100
AcDbEntity
  8
0
  6
Continuous
 62
     7
370
    25
100
AcDbLine
 10
228.8890480733
 20
319.3794394309
 30
0.0
 11
228.9733339485
 21
316.9424580159
 31
0.0
  0
LINE
  5
226
330
1F
100
AcDbEntity
  8
0
  6
Continuous
 62
     7
370
    25
100
AcDbLine
 10
246.452250737
 20
316.9424580159
 30
0.0
 11
246.5365366122
 21
319.3794394314
 31
0.0
  0
LWPOLYLINE
  5
227
330
1F
100
AcDbEntity
  8
0
  6
Continuous
 62
     7
370
    25
100
AcDbPolyline
 90
       12
 70
   128
 43
0.0
 10
233.4627923427
 20
316.1765283137
 10
234.0783532274
 20
316.133997373
 10
234.6729519245
 20
316.0078528912
 10
235.2263400884
 20
315.8023905672
 10
235.719672749
 20
315.5246071741
 10
236.1361500541
 20
315.1839622922
 10
236.4615893688
 20
314.7920561744
 10
236.6849082474
 20
314.3622347134
 10
236.7985018333
 20
313.9091349636
 10
236.7985018333
 20
313.4481866936
 10
236.6849082474
 20
312.9950869439
 10
236.6478306685
 20
312.9044839705
  0
ARC
  5
228
330
1F
100
AcDbEntity
  8
0
  6
Continuous
 62
     7
370
    25
100
AcDbCircle
 10
233.2683238205
 20
312.7284180699
 30
0.0
 40
3.453589764206633
100
AcDbArc
 50
86.7720190037
 51
149.8097658249
  0
SPLINE
  5
229
330
1F
100
AcDbEntity
  8
0
  6
Continuous
 62
     7
370
    25
100
AcDbSpline
210
0.0
220
0.0
230
1.0
 70
     8
 71
     3
 72
     8
 73
     4
 74
     0
 42
0.00000001
 43
0.00000001
 40
0.0
 40
0.0
 40
0.0
 40
0.0
 40
1.0
 40
1.0
 40
1.0
 40
1.0
 10
237.282133769132
 20
313.5370853788717
 30
0.0
 10
237.2808552364015
 20
313.7900074466573
 30
0.0
 10
237.2808562812305
 20
314.0753572193946
 30
0.0
 10
237.282133769132
 20
314.393055261318
 30
0.0
  0
ARC
  5
22A
330
1F
100
AcDbEntity
  8
0
  6
Continuous
 62
     7
370
    25
100
AcDbCircle
 10
242.2317367228
 20
312.868659915
 30
0.0
 40
3.318783575730706
100
AcDbArc
 50
28.5466633893
 51
94.6481770065
  0
LWPOLYLINE
  5
22B
330
1F
100
AcDbEntity
  8
0
  6
Continuous
 62
     7
370
    25
100
AcDbPolyline
 90
       12
 70
   128
 43
0.0
 10
238.777754017
 20
312.9044839705
 10
238.7406764381
 20
312.9950869439
 10
238.6270828522
 20
313.4481866936
 10
238.6270828522
 20
313.9091349636
 10
238.7406764381
 20
314.3622347134
 10
238.9639953167
 20
314.7920561744
 10
239.2894346313
 20
315.1839622922
 10
239.7059119365
 20
315.5246071741
 10
240.1992445971
 20
315.8023905672
 10
240.752632761
 20
316.0078528912
 10
241.3472314581
 20
316.133997373
 10
241.9627923427
 20
316.1765283137
  0
SPLINE
  5
22C
330
1F
100
AcDbEntity
  8
0
  6
Continuous
 62
     7
370
    25
100
AcDbSpline
210
0.0
220
0.0
230
1.0
 70
     8
 71
     3
 72
     8
 73
     4
 74
     0
 42
0.00000001
 43
0.00000001
 40
0.0
 40
0.0
 40
0.0
 40
0.0
 40
1.0
 40
1.0
 40
1.0
 40
1.0
 10
238.1434509163454
 20
314.3930552613179
 30
0.0
 10
238.1447348337068
 20
314.0737582791159
 30
0.0
 10
238.1447162196468
 20
313.7873903728316
 30
0.0
 10
238.1434509163454
 20
313.5370853788717
 30
0.0
  0
SPLINE
  5
22D
330
1F
100
AcDbEntity
  8
0
  6
Continuous
 62
     7
370
    25
100
AcDbSpline
210
0.0
220
0.0
230
1.0
 70
     8
 71
     3
 72
    12
 73
     8
 74
     0
 42
0.00000001
 43
0.00000001
 40
0.0
 40
0.0
 40
0.0
 40
0.0
 40
0.25
 40
0.25
 40
0.5
 40
0.5
 40
1.0
 40
1.0
 40
1.0
 40
1.0
 10
238.1393531645334
 20
314.8755207169923
 30
0.0
 10
238.1401366405298
 20
314.8304633787263
 30
0.0
 10
238.1406459348294
 20
314.7880740000322
 30
0.0
 10
238.1415271918287
 20
314.7046315652881
 30
0.0
 10
238.1418707358889
 20
314.6642705523707
 30
0.0
 10
238.1427439421396
 20
314.546852870097
 30
0.0
 10
238.1431258661023
 20
314.4724128589283
 30
0.0
 10
238.1434244341995
 20
314.3995709254879
 30
0.0
  0
LINE
  5
22E
330
1F
100
AcDbEntity
  8
0
  6
Continuous
 62
     7
370
    25
100
AcDbLine
 10
238.143427194
 20
314.398897787
 30
0.0
 11
238.1434244342
 21
314.3995709246
 31
0.0
  0
SPLINE
  5
22F
330
1F
100
AcDbEntity
  8
0
  6
Continuous
 62
     7
370
    25
100
AcDbSpline
210
0.0
220
0.0
230
1.0
 70
     8
 71
     3
 72
     8
 73
     4
 74
     0
 42
0.00000001
 43
0.00000001
 40
0.0
 40
0.0
 40
0.0
 40
0.0
 40
1.0
 40
1.0
 40
1.0
 40
1.0
 10
238.1434270817328
 20
314.3989251586518
 30
0.0
 10
238.143435112513
 20
314.3969664699022
 30
0.0
 10
238.1434430567894
 20
314.3950098516864
 30
0.0
 10
238.1434509163454
 20
314.393055261318
 30
0.0
  0
LINE
  5
230
330
1F
100
AcDbEntity
  8
0
  6
Continuous
 62
     7
370
    25
100
AcDbLine
 10
238.1127930588
 20
316.4029607675
 30
0.0
 11
238.1393531645
 21
314.875520717
 31
0.0
  0
SPLINE
  5
231
330
1F
100
AcDbEntity
  8
0
  6
Continuous
 62
     7
370
    25
100
AcDbSpline
210
0.0
220
0.0
230
1.0
 70
     8
 71
     3
 72
     8
 73
     4
 74
     0
 42
0.00000001
 43
0.00000001
 40
0.0
 40
0.0
 40
0.0
 40
0.0
 40
1.0
 40
1.0
 40
1.0
 40
1.0
 10
237.282133769132
 20
314.393055261318
 30
0.0
 10
237.2821416653433
 20
314.3950189674944
 30
0.0
 10
237.2821496470216
 20
314.3969847091556
 30
0.0
 10
237.2821577159714
 20
314.398952529279
 30
0.0
  0
LINE
  5
232
330
1F
100
AcDbEntity
  8
0
  6
Continuous
 62
     7
370
    25
100
AcDbLine
 10
237.2821606218
 20
314.399661306
 30
0.0
 11
237.2821574915
 21
314.398897787
 31
0.0
  0
SPLINE
  5
233
330
1F
100
AcDbEntity
  8
0
  6
Continuous
 62
     7
370
    25
100
AcDbSpline
210
0.0
220
0.0
230
1.0
 70
     8
 71
     3
 72
    12
 73
     8
 74
     0
 42
0.00000001
 43
0.00000001
 40
0.0
 40
0.0
 40
0.0
 40
0.0
 40
0.5000000000000004
 40
0.5000000000000004
 40
0.7500000000000002
 40
0.7500000000000002
 40
1.0
 40
1.0
 40
1.0
 40
1.0
 10
237.2821605722547
 20
314.3996492263068
 30
0.0
 10
237.2824589612915
 20
314.4724322351547
 30
0.0
 10
237.2828405549962
 20
314.546872452621
 30
0.0
 10
237.2837163934579
 20
314.6645766282213
 30
0.0
 10
237.2840596335153
 20
314.7048215556222
 30
0.0
 10
237.2849345699694
 20
314.7876907445729
 30
0.0
 10
237.2854573585532
 20
314.8309989993464
 30
0.0
 10
237.2862315209521
 20
314.8755207169685
 30
0.0
  0
LINE
  5
234
330
1F
100
AcDbEntity
  8
0
  6
Continuous
 62
     7
370
    25
100
AcDbLine
 10
237.286231521
 20
314.875520717
 30
0.0
 11
237.3127923427
 21
316.4030019482
 31
0.0
  0
LINE
  5
235
330
1F
100
AcDbEntity
  8
0
  6
Continuous
 62
     7
370
    25
100
AcDbLine
 10
246.7532366459
 20
319.5885584122
 30
0.0
 11
256.5242355628
 21
319.5885584122
 31
0.0
  0
LINE
  5
236
330
1F
100
AcDbEntity
  8
0
  6
Continuous
 62
     7
370
    25
100
AcDbLine
 10
218.9013491218
 20
319.5885584122
 30
0.0
 11
228.6718892766
 21
319.5885584122
 31
0.0
  0
SPLINE
  5
237
330
1F
100
AcDbEntity
  8
0
  6
Continuous
 62
     7
370
    25
100
AcDbSpline
210
0.0
220
0.0
230
1.0
 70
     8
 71
     3
 72
     8
 73
     4
 74
     0
 42
0.00000001
 43
0.00000001
 40
0.0
 40
0.0
 40
0.0
 40
0.0
 40
1.0
 40
1.0
 40
1.0
 40
1.0
 10
246.5715934028589
 20
319.4903036528589
 30
0.0
 10
246.5502576645987
 20
319.4575939231657
 30
0.0
 10
246.5378985320976
 20
319.4188170080004
 30
0.0
 10
246.5365366121909
 20
319.3794394314493
 30
0.0
  0
SPLINE
  5
238
330
1F
100
AcDbEntity
  8
0
  6
Continuous
 62
     7
370
    25
100
AcDbSpline
210
0.0
220
0.0
230
1.0
 70
     8
 71
     3
 72
    18
 73
    14
 74
     0
 42
0.00000001
 43
0.00000001
 40
0.0
 40
0.0
 40
0.0
 40
0.0
 40
0.0312499999999614
 40
0.0312499999999614
 40
0.0624999999999228
 40
0.0624999999999228
 40
0.1249999999999279
 40
0.1249999999999279
 40
0.2499999999999382
 40
0.2499999999999382
 40
0.4999999999999588
 40
0.4999999999999588
 40
1.0
 40
1.0
 40
1.0
 40
1.0
 10
246.7483603160993
 20
319.5885584122151
 30
0.0
 10
246.7484457027888
 20
319.5885584122151
 30
0.0
 10
246.7455313019061
 20
319.5884925559284
 30
0.0
 10
246.7415994593404
 20
319.5883285822478
 30
0.0
 10
246.7395831698956
 20
319.5882172851315
 30
0.0
 10
246.7335219096083
 20
319.5877957166057
 30
0.0
 10
246.7294488691915
 20
319.5873976009548
 30
0.0
 10
246.7172722349566
 20
319.5858546200465
 30
0.0
 10
246.7091806513652
 20
319.584361835454
 30
0.0
 10
246.6850044870161
 20
319.5784311431241
 30
0.0
 10
246.6690817945437
 20
319.5725475904696
 30
0.0
 10
246.6231846874065
 20
319.5488849437427
 30
0.0
 10
246.5934174939921
 20
319.5237620742672
 30
0.0
 10
246.5715934028589
 20
319.4903036528589
 30
0.0
  0
LINE
  5
239
330
1F
100
AcDbEntity
  8
0
  6
Continuous
 62
     7
370
    25
100
AcDbLine
 10
246.7483603161
 20
319.5885584122
 30
0.0
 11
246.7532366459
 21
319.5885584122
 31
0.0
  0
LINE
  5
23A
330
1F
100
AcDbEntity
  8
0
  6
Continuous
 62
     7
370
    25
100
AcDbLine
 10
228.6772243694
 20
319.5885584122
 30
0.0
 11
228.6723480396
 21
319.5885584122
 31
0.0
  0
SPLINE
  5
23B
330
1F
100
AcDbEntity
  8
0
  6
Continuous
 62
     7
370
    25
100
AcDbSpline
210
0.0
220
0.0
230
1.0
 70
     8
 71
     3
 72
    18
 73
    14
 74
     0
 42
0.00000001
 43
0.00000001
 40
0.0
 40
0.0
 40
0.0
 40
0.0
 40
0.4999999999998549
 40
0.4999999999998549
 40
0.7499999999997802
 40
0.7499999999997802
 40
0.8749999999997907
 40
0.8749999999997907
 40
0.937499999999845
 40
0.937499999999845
 40
0.9687499999999226
 40
0.9687499999999226
 40
1.0
 40
1.0
 40
1.0
 40
1.0
 10
228.853991257749
 20
319.4903036528589
 30
0.0
 10
228.8321041890587
 20
319.5238586063724
 30
0.0
 10
228.8028876603211
 20
319.5486386222724
 30
0.0
 10
228.7562215593722
 20
319.5726900166113
 30
0.0
 10
228.7404799236733
 20
319.5784556663905
 30
0.0
 10
228.7164549111593
 20
319.5843493514266
 30
0.0
 10
228.7083758033131
 20
319.5858451253144
 30
0.0
 10
228.6961602435584
 20
319.5873952132147
 30
0.0
 10
228.6920789942338
 20
319.5877943952172
 30
0.0
 10
228.6860080635342
 20
319.588216916223
 30
0.0
 10
228.6839876175103
 20
319.5883284814014
 30
0.0
 10
228.6800503378562
 20
319.5884926782529
 30
0.0
 10
228.6771391950759
 20
319.5885584122151
 30
0.0
 10
228.6772243694378
 20
319.5885584122151
 30
0.0
  0
SPLINE
  5
23C
330
1F
100
AcDbEntity
  8
0
  6
Continuous
 62
     7
370
    25
100
AcDbSpline
210
0.0
220
0.0
230
1.0
 70
     8
 71
     3
 72
     8
 73
     4
 74
     0
 42
0.00000001
 43
0.00000001
 40
0.0
 40
0.0
 40
0.0
 40
0.0
 40
1.0
 40
1.0
 40
1.0
 40
1.0
 10
228.8890480733042
 20
319.3794394309351
 30
0.0
 10
228.8876783322256
 20
319.4190431432484
 30
0.0
 10
228.8753492430529
 20
319.4575598343919
 30
0.0
 10
228.853991257749
 20
319.4903036528603
 30
0.0
  0
SPLINE
  5
23D
330
1F
100
AcDbEntity
  8
0
  6
Continuous
 62
     7
370
    25
100
AcDbSpline
210
0.0
220
0.0
230
1.0
 70
    24
 71
     3
 72
    14
 73
    10
 74
     0
 42
0.00000001
 43
0.00000001
 40
0.0
 40
0.0
 40
0.0
 40
0.0
 40
0.25
 40
0.25
 40
0.5
 40
0.5
 40
0.75
 40
0.75
 40
1.0
 40
1.0
 40
1.0
 40
1.0
 10
241.9626677312982
 20
319.5885584122151
 30
0.0
 10
242.3045429837139
 20
319.5885584122151
 30
0.0
 10
242.6415756467227
 20
319.5885584122151
 30
0.0
 10
243.3060069546132
 20
319.5885584122151
 30
0.0
 10
243.633399976438
 20
319.5885584122151
 30
0.0
 10
244.2762809728629
 20
319.5885584122151
 30
0.0
 10
244.5839371076052
 20
319.5885584122151
 30
0.0
 10
245.1542560408091
 20
319.5885584122151
 30
0.0
 10
245.4116284901748
 20
319.5885584122151
 30
0.0
 10
245.62330523014
 20
319.5885584122151
 30
0.0
  0
SPLINE
  5
23E
330
1F
100
AcDbEntity
  8
0
  6
Continuous
 62
     7
370
    25
100
AcDbSpline
210
0.0
220
0.0
230
1.0
 70
     8
 71
     3
 72
    23
 73
    19
 74
     0
 42
0.00000001
 43
0.00000001
 40
0.0000000000014107
 40
0.0000000000014107
 40
0.0000000000014107
 40
0.0000000000014107
 40
0.0000310928726076
 40
0.0000310928726076
 40
0.0000310928726076
 40
0.0000620907692145
 40
0.0000620907692145
 40
0.0000620907692145
 40
0.0000944894208673
 40
0.0000944894208673
 40
0.0000944894208673
 40
0.0001302056042589
 40
0.0001302056042589
 40
0.0001302056042589
 40
0.0001613061580251
 40
0.0001613061580251
 40
0.0001613061580251
 40
0.0001635592568145
 40
0.0001635592568145
 40
0.0001635592568145
 40
0.0001635592568145
 10
245.5739593334847
 20
319.4903036514269
 30
0.0
 10
245.5740496948988
 20
319.5006659699101
 30
0.0
 10
245.5749742038552
 20
319.5111346393448
 30
0.0
 10
245.5766211996587
 20
319.5208200908209
 30
0.0
 10
245.5782653544674
 20
319.5304888353218
 30
0.0
 10
245.5806659181457
 20
319.5396373483938
 30
0.0
 10
245.583582111238
 20
319.5476460267519
 30
0.0
 10
245.5866316711011
 20
319.5560209674036
 30
0.0
 10
245.590314544982
 20
319.5633639466593
 30
0.0
 10
245.5943264962457
 20
319.5692931883919
 30
0.0
 10
245.5987456035127
 20
319.5758241638464
 30
0.0
 10
245.6036692416533
 20
319.5808058868456
 30
0.0
 10
245.6087281477394
 20
319.584019820421
 30
0.0
 10
245.6131479137526
 20
319.5868277069766
 30
0.0
 10
245.617752083367
 20
319.5883484254504
 30
0.0
 10
245.6223173826651
 20
319.5885379091575
 30
0.0
 10
245.6226466858912
 20
319.5885515769571
 30
0.0
 10
245.6229759340137
 20
319.5885584122151
 30
0.0
 10
245.62330523014
 20
319.5885584122151
 30
0.0
  0
LWPOLYLINE
  5
23F
330
1F
100
AcDbEntity
  8
0
  6
Continuous
 62
     7
370
    25
100
AcDbPolyline
 90
        3
 70
   128
 43
0.0
 10
245.5516132677
 20
316.9424582325
 10
245.5632496076
 20
318.2655080137
 10
245.5739593335
 20
319.4903036529
  0
SPLINE
  5
240
330
1F
100
AcDbEntity
  8
0
  6
Continuous
 62
     7
370
    25
100
AcDbSpline
210
0.0
220
0.0
230
1.0
 70
     8
 71
     3
 72
    23
 73
    19
 74
     0
 42
0.00000001
 43
0.00000001
 40
0.0000000000012249
 40
0.0000000000012249
 40
0.0000000000012249
 40
0.0000000000012249
 40
0.0000310911868847
 40
0.0000310911868847
 40
0.0000310911868847
 40
0.0000620873588009
 40
0.0000620873588009
 40
0.0000620873588009
 40
0.0000944848002022
 40
0.0000944848002022
 40
0.0000944848002022
 40
0.0001302022028733
 40
0.0001302022028733
 40
0.0001302022028733
 40
0.0001613128134362
 40
0.0001613128134362
 40
0.0001613128134362
 40
0.0001635657363547
 40
0.0001635657363547
 40
0.0001635657363547
 40
0.0001635657363547
 10
229.8516206215949
 20
319.4903036541022
 30
0.0
 10
229.8515302324299
 20
319.5006654104951
 30
0.0
 10
229.8506054881629
 20
319.5111335100293
 30
0.0
 10
229.8489580555761
 20
319.5208184146937
 30
0.0
 10
229.8473134660339
 20
319.5304866057059
 30
0.0
 10
229.8449122531539
 20
319.5396345707392
 30
0.0
 10
229.8419952573392
 20
319.5476428138538
 30
0.0
 10
229.838944800138
 20
319.5560174583269
 30
0.0
 10
229.8352608280357
 20
319.5633602009669
 30
0.0
 10
229.8312477285543
 20
319.5692894397765
 30
0.0
 10
229.8268270420144
 20
319.5758208767166
 30
0.0
 10
229.8219016903559
 20
319.5808031086916
 30
0.0
 10
229.8168411910102
 20
319.5840176930899
 30
0.0
 10
229.8124187771183
 20
319.586826946037
 30
0.0
 10
229.8078119246492
 20
319.5883484039345
 30
0.0
 10
229.8032442013667
 20
319.5885379143901
 30
0.0
 10
229.8029148541424
 20
319.5885515786904
 30
0.0
 10
229.8025855642986
 20
319.5885584122151
 30
0.0
 10
229.8022562253173
 20
319.5885584122151
 30
0.0
  0
SPLINE
  5
241
330
1F
100
AcDbEntity
  8
0
  6
Continuous
 62
     7
370
    25
100
AcDbSpline
210
0.0
220
0.0
230
1.0
 70
    24
 71
     3
 72
    14
 73
    10
 74
     0
 42
0.00000001
 43
0.00000001
 40
0.0
 40
0.0
 40
0.0
 40
0.0
 40
0.25
 40
0.25
 40
0.5
 40
0.5
 40
0.75
 40
0.75
 40
1.0
 40
1.0
 40
1.0
 40
1.0
 10
229.8022562253173
 20
319.5885584122151
 30
0.0
 10
230.0117240817881
 20
319.5885584122151
 30
0.0
 10
230.2659493920322
 20
319.5885584122151
 30
0.0
 10
230.8295166507283
 20
319.5885584122151
 30
0.0
 10
231.1333309208524
 20
319.5885584122151
 30
0.0
 10
231.7687805417048
 20
319.5885584122151
 30
0.0
 10
232.0925259323031
 20
319.5885584122151
 30
0.0
 10
232.7497989611317
 20
319.5885584122151
 30
0.0
 10
233.0833071772152
 20
319.5885584122151
 30
0.0
 10
233.421695281693
 20
319.5885584122151
 30
0.0
  0
LWPOLYLINE
  5
242
330
1F
100
AcDbEntity
  8
0
  6
Continuous
 62
     7
370
    25
100
AcDbPolyline
 90
        3
 70
   128
 43
0.0
 10
229.8739733185
 20
316.9422424804
 10
229.8623345714
 20
318.265400147
 10
229.8516206216
 20
319.4903036553
  0
LINE
  5
243
330
1F
100
AcDbEntity
  8
0
  6
Continuous
 62
     7
370
    25
100
AcDbLine
 10
245.6233052301
 20
319.5885584122
 30
0.0
 11
246.7283603161
 21
319.5885584122
 31
0.0
  0
LINE
  5
244
330
1F
100
AcDbEntity
  8
0
  6
Continuous
 62
     7
370
    25
100
AcDbLine
 10
228.6979928509
 20
319.5885584122
 30
0.0
 11
229.8022562253
 21
319.5885584122
 31
0.0
  0
LINE
  5
245
330
1F
100
AcDbEntity
  8
0
  6
Continuous
 62
     7
370
    25
100
AcDbLine
 10
233.4216954982
 20
319.5885584122
 30
0.0
 11
241.9626677313
 21
319.5885584122
 31
0.0
  0
LINE
  5
246
330
1F
100
AcDbEntity
  8
0
  6
Continuous
 62
     7
370
    25
100
AcDbLine
 10
208.7127923427
 20
308.0885584123
 30
0.0
 11
208.8101571719
 21
310.8767223223
 31
0.0
  0
LINE
  5
247
330
1F
100
AcDbEntity
  8
0
  6
Continuous
 62
     7
370
    25
100
AcDbLine
 10
266.6154275136
 20
310.8767223216
 30
0.0
 11
266.7127923427
 21
308.0885584123
 31
0.0
  0
SPLINE
  5
248
330
1F
100
AcDbEntity
  8
0
  6
Continuous
 62
     7
370
    25
100
AcDbSpline
210
0.0
220
0.0
230
1.0
 70
    24
 71
     3
 72
    13
 73
     9
 74
     0
 42
0.00000001
 43
0.00000001
 40
0.0
 40
0.0
 40
0.0
 40
0.0
 40
0.157980723307354
 40
0.3194304119362804
 40
0.4843533159343945
 40
0.6527534223806098
 40
0.8246344763747983
 40
1.0
 40
1.0
 40
1.0
 40
1.0
 10
259.1400173235032
 20
318.8856080212341
 30
0.0
 10
259.5109001421024
 20
318.5147252026419
 30
0.0
 10
260.2608096819816
 20
317.7648156627768
 30
0.0
 10
261.3997786319677
 20
316.6258467128122
 30
0.0
 10
262.5645221829835
 20
315.4611031618186
 30
0.0
 10
263.7552128715694
 20
314.2704124732554
 30
0.0
 10
264.9717098949632
 20
313.0539154498849
 30
0.0
 10
265.7919414553887
 20
312.2336838894752
 30
0.0
 10
266.2061725705635
 20
311.8194527743083
 30
0.0
  0
SPLINE
  5
249
330
1F
100
AcDbEntity
  8
0
  6
Continuous
 62
     7
370
    25
100
AcDbSpline
210
0.0
220
0.0
230
1.0
 70
    24
 71
     3
 72
    12
 73
     8
 74
     0
 42
0.00000001
 43
0.00000001
 40
0.0
 40
0.0
 40
0.0
 40
0.0
 40
0.2100204116237231
 40
0.4150241738474386
 40
0.6150174863318011
 40
0.8100070266573504
 40
1.0
 40
1.0
 40
1.0
 40
1.0
 10
209.2194104806878
 20
311.8194511407872
 30
0.0
 10
209.7154736004732
 20
312.3155142605718
 30
0.0
 10
210.6957506358023
 20
313.2957912958993
 30
0.0
 10
212.1462379930393
 20
314.746278653134
 30
0.0
 10
213.5595051281015
 20
316.1595457881937
 30
0.0
 10
214.9356226855632
 20
317.5356633456531
 30
0.0
 10
215.839500629639
 20
318.4395412897273
 30
0.0
 10
216.285574027876
 20
318.8856146879634
 30
0.0
  0
SPLINE
  5
24A
330
1F
100
AcDbEntity
  8
0
  6
Continuous
 62
     7
370
    25
100
AcDbSpline
210
0.0
220
0.0
230
1.0
 70
     8
 71
     3
 72
    10
 73
     6
 74
     0
 42
0.00000001
 43
0.00000001
 40
0.0
 40
0.0
 40
0.0
 40
0.0
 40
0.5
 40
0.5
 40
1.0
 40
1.0
 40
1.0
 40
1.0
 10
259.1400106576554
 20
318.885614687082
 30
0.0
 10
258.9178665107481
 20
319.1077588339842
 30
0.0
 10
258.6516399357009
 20
319.2856457442739
 30
0.0
 10
258.07114930528
 20
319.5260928362209
 30
0.0
 10
257.7571136481812
 20
319.5885584122151
 30
0.0
 10
257.4429543828267
 20
319.5885584122151
 30
0.0
  0
SPLINE
  5
24B
330
1F
100
AcDbEntity
  8
0
  6
Continuous
 62
     7
370
    25
100
AcDbSpline
210
0.0
220
0.0
230
1.0
 70
    24
 71
     3
 72
    14
 73
    10
 74
     0
 42
0.00000001
 43
0.00000001
 40
0.0
 40
0.0
 40
0.0
 40
0.0
 40
0.25
 40
0.25
 40
0.5
 40
0.5
 40
0.75
 40
0.75
 40
1.0
 40
1.0
 40
1.0
 40
1.0
 10
256.5242699840676
 20
319.5885584122151
 30
0.0
 10
256.6715314049634
 20
319.5885584122151
 30
0.0
 10
256.8025114340178
 20
319.5885584122151
 30
0.0
 10
257.0312127121267
 20
319.5885584122151
 30
0.0
 10
257.1295569716028
 20
319.5885584122151
 30
0.0
 10
257.2872421356801
 20
319.5885584122151
 30
0.0
 10
257.3455961698942
 20
319.5885584122151
 30
0.0
 10
257.423488703508
 20
319.5885584122151
 30
0.0
 10
257.4429543828245
 20
319.5885584122151
 30
0.0
 10
257.4429543828267
 20
319.5885584122151
 30
0.0
  0
SPLINE
  5
24C
330
1F
100
AcDbEntity
  8
0
  6
Continuous
 62
     7
370
    25
100
AcDbSpline
210
0.0
220
0.0
230
1.0
 70
     8
 71
     3
 72
    10
 73
     6
 74
     0
 42
0.00000001
 43
0.00000001
 40
0.0
 40
0.0
 40
0.0
 40
0.0
 40
0.5
 40
0.5
 40
1.0
 40
1.0
 40
1.0
 40
1.0
 10
217.9826303018231
 20
319.5885584122151
 30
0.0
 10
217.6684710364643
 20
319.5885584122151
 30
0.0
 10
217.3544353793611
 20
319.5260928362191
 30
0.0
 10
216.7739447489335
 20
319.2856457442656
 30
0.0
 10
216.5077181738839
 20
319.1077588339712
 30
0.0
 10
216.285574026976
 20
318.8856146870634
 30
0.0
  0
SPLINE
  5
24D
330
1F
100
AcDbEntity
  8
0
  6
Continuous
 62
     7
370
    25
100
AcDbSpline
210
0.0
220
0.0
230
1.0
 70
    24
 71
     3
 72
    14
 73
    10
 74
     0
 42
0.00000001
 43
0.00000001
 40
0.0
 40
0.0
 40
0.0
 40
0.0
 40
0.25
 40
0.25
 40
0.5
 40
0.5
 40
0.75
 40
0.75
 40
1.0
 40
1.0
 40
1.0
 40
1.0
 10
217.9826303018231
 20
319.5885584122151
 30
0.0
 10
217.9826303018224
 20
319.5885584122151
 30
0.0
 10
218.0017998907055
 20
319.5885584122151
 30
0.0
 10
218.0793294102128
 20
319.5885584122151
 30
0.0
 10
218.1383281358152
 20
319.5885584122151
 30
0.0
 10
218.2960050721391
 20
319.5885584122151
 30
0.0
 10
218.3930394560821
 20
319.5885584122151
 30
0.0
 10
218.6215750323091
 20
319.5885584122151
 30
0.0
 10
218.7540250324464
 20
319.5885584122151
 30
0.0
 10
218.9013147005192
 20
319.5885584122151
 30
0.0
  0
SPLINE
  5
24E
330
1F
100
AcDbEntity
  8
0
  6
Continuous
 62
     7
370
    25
100
AcDbSpline
210
0.0
220
0.0
230
1.0
 70
     8
 71
     3
 72
    10
 73
     6
 74
     0
 42
0.00000001
 43
0.00000001
 40
0.0
 40
0.0
 40
0.0
 40
0.0
 40
0.5
 40
0.5
 40
1.0
 40
1.0
 40
1.0
 40
1.0
 10
209.2194121150643
 20
311.8194527751638
 30
0.0
 10
209.0955873220657
 20
311.6956279821651
 30
0.0
 10
208.9953043288112
 20
311.5483426792886
 30
0.0
 10
208.8556506803616
 20
311.2271612767074
 30
0.0
 10
208.8163258658505
 20
311.0533706033581
 30
0.0
 10
208.8102144508988
 20
310.8783625768862
 30
0.0
  0
SPLINE
  5
24F
330
1F
100
AcDbEntity
  8
0
  6
Continuous
 62
     7
370
    25
100
AcDbSpline
210
0.0
220
0.0
230
1.0
 70
     8
 71
     3
 72
    10
 73
     6
 74
     0
 42
0.00000001
 43
0.00000001
 40
0.0
 40
0.0
 40
0.0
 40
0.0
 40
0.5
 40
0.5
 40
1.0
 40
1.0
 40
1.0
 40
1.0
 10
266.615370234604
 20
310.8783625761557
 30
0.0
 10
266.6092588196523
 20
311.0533706026302
 30
0.0
 10
266.5699340051401
 20
311.227161275982
 30
0.0
 10
266.4302803566867
 20
311.5483426785671
 30
0.0
 10
266.3299973634294
 20
311.6956279814451
 30
0.0
 10
266.2061725704276
 20
311.8194527744442
 30
0.0
  0
LINE
  5
250
330
1F
100
AcDbEntity
  8
0
  6
Continuous
 62
     8
370
    18
100
AcDbLine
 10
265.995252543
 20
283.3495399373
 30
0.0
 11
266.8782846145
 21
307.2885584123
 31
0.0
  0
LINE
  5
251
330
1F
100
AcDbEntity
  8
0
  6
Continuous
 62
     8
370
    18
100
AcDbLine
 10
208.547300071
 20
307.2885584123
 30
0.0
 11
209.4303325606
 21
283.3495286211
 31
0.0
  0
LINE
  5
252
330
1F
100
AcDbEntity
  8
0
  6
Continuous
 62
     8
370
    18
100
AcDbLine
 10
265.9889946914
 20
283.3495288136
 30
0.0
 11
265.4183460646
 21
282.8419637866
 31
0.0
  0
SPLINE
  5
253
330
1F
100
AcDbEntity
  8
0
  6
Continuous
 62
     8
370
    18
100
AcDbSpline
210
0.0
220
0.0
230
1.0
 70
     8
 71
     3
 72
     8
 73
     4
 74
     0
 42
0.00000001
 43
0.00000001
 40
0.0
 40
0.0
 40
0.0
 40
0.0
 40
0.000011084434126
 40
0.000011084434126
 40
0.000011084434126
 40
0.000011084434126
 10
210.0004267606289
 20
282.8419612056504
 30
0.0
 10
210.0027024127992
 20
282.8419628889201
 30
0.0
 10
210.0049794552732
 20
282.8419637074423
 30
0.0
 10
210.0072578920659
 20
282.8419637151032
 30
0.0
  0
LINE
  5
254
330
1F
100
AcDbEntity
  8
0
  6
Continuous
 62
     8
370
    18
100
AcDbLine
 10
209.4285774323
 20
283.3495308808
 30
0.0
 11
210.0004276483
 21
282.8419628467
 31
0.0
  0
LINE
  5
255
330
1F
100
AcDbEntity
  8
0
  6
Continuous
 62
     8
370
    18
100
AcDbLine
 10
266.0847605323
 20
308.0885584123
 30
0.0
 11
266.719579798
 21
307.2885584123
 31
0.0
  0
LINE
  5
256
330
1F
100
AcDbEntity
  8
0
  6
Continuous
 62
     8
370
    18
100
AcDbLine
 10
209.3408240159
 20
308.0885584123
 30
0.0
 11
208.70600486
 21
307.2885584123
 31
0.0
  0
SPLINE
  5
257
330
1F
100
AcDbEntity
  8
0
  6
Continuous
 62
     8
370
    18
100
AcDbSpline
210
0.0
220
0.0
230
1.0
 70
    24
 71
     3
 72
    15
 73
    11
 74
     0
 42
0.00000001
 43
0.00000001
 40
0.0
 40
0.0
 40
0.0
 40
0.0
 40
0.0403225284811573
 40
0.1602934058084518
 40
0.2825569187980003
 40
0.4048204317875481
 40
0.575308145967243
 40
0.7474135758710797
 40
0.8733829680083176
 40
1.0
 40
1.0
 40
1.0
 40
1.0
 10
210.8937965869057
 20
282.8419574829847
 30
0.0
 10
210.9013209118315
 20
282.698384810592
 30
0.0
 10
210.9312322223123
 20
282.1276430067985
 30
0.0
 10
210.9767396885711
 20
281.259308822803
 30
0.0
 10
211.0297303034747
 20
280.248187656661
 30
0.0
 10
211.0805968408695
 20
279.277596303799
 30
0.0
 10
211.1255053081539
 20
278.4206917011074
 30
0.0
 10
211.1555253879526
 20
277.8478744550979
 30
0.0
 10
211.1714777297776
 20
277.5434856402318
 30
0.0
 10
211.1732479148047
 20
277.5097084977963
 30
0.0
 10
211.1741352767244
 20
277.4927766237295
 30
0.0
  0
SPLINE
  5
258
330
1F
100
AcDbEntity
  8
0
  6
Continuous
 62
     8
370
    18
100
AcDbSpline
210
0.0
220
0.0
230
1.0
 70
    24
 71
     3
 72
    15
 73
    11
 74
     0
 42
0.00000001
 43
0.00000001
 40
0.0
 40
0.0
 40
0.0
 40
0.0
 40
0.146577048724218
 40
0.2931540974483093
 40
0.4439895265714797
 40
0.594824955694651
 40
0.7343411188560743
 40
0.8747400400569163
 40
0.9766939066450419
 40
1.0
 40
1.0
 40
1.0
 40
1.0
 10
264.2514494087529
 20
277.4927766237295
 30
0.0
 10
264.2526450839705
 20
277.5155914659766
 30
0.0
 10
264.2550364344058
 20
277.5612211504708
 30
0.0
 10
264.2743949944842
 20
277.9306044814173
 30
0.0
 10
264.305689234433
 20
278.5277341514145
 30
0.0
 10
264.3490912142929
 20
279.3558932616411
 30
0.0
 10
264.4025665154829
 20
280.3762627930581
 30
0.0
 10
264.4599606314102
 20
281.4714077641685
 30
0.0
 10
264.5039554188519
 20
282.3108783168252
 30
0.0
 10
264.5274221508694
 20
282.7586502381258
 30
0.0
 10
264.53178841322
 20
282.8419634868631
 30
0.0
  0
LINE
  5
259
330
1F
100
AcDbEntity
  8
0
  6
Continuous
 62
     8
370
    18
100
AcDbLine
 10
266.243648406
 20
308.0885584123
 30
0.0
 11
266.8974500266
 21
307.2885584123
 31
0.0
  0
LINE
  5
25A
330
1F
100
AcDbEntity
  8
0
  6
Continuous
 62
     8
370
    18
100
AcDbLine
 10
209.1523478854
 20
308.0885584123
 30
0.0
 11
208.4946476075
 21
307.2885584123
 31
0.0
  0
LINE
  5
25B
330
1F
100
AcDbEntity
  8
0
  6
Continuous
 62
     8
370
    18
100
AcDbLine
 10
267.6312113445
 20
283.3495288141
 30
0.0
 11
266.9063333626
 21
282.8419637868
 31
0.0
  0
SPLINE
  5
25C
330
1F
100
AcDbEntity
  8
0
  6
Continuous
 62
     8
370
    18
100
AcDbSpline
210
0.0
220
0.0
230
1.0
 70
     8
 71
     3
 72
    12
 73
     8
 74
     0
 42
0.00000001
 43
0.00000001
 40
0.0
 40
0.0
 40
0.0
 40
0.0
 40
0.25
 40
0.25
 40
0.5
 40
0.5
 40
1.0
 40
1.0
 40
1.0
 40
1.0
 10
265.4183455544176
 20
282.8419635584381
 30
0.0
 10
265.6579305267511
 20
282.8421215212064
 30
0.0
 10
265.869541241512
 20
282.842010149031
 30
0.0
 10
266.2374971948632
 20
282.8421580268764
 30
0.0
 10
266.3945166519301
 20
282.8424109292085
 30
0.0
 10
266.775007982973
 20
282.8424224661152
 30
0.0
 10
266.9058929029579
 20
282.8422619849293
 30
0.0
 10
266.906339602501
 20
282.8419593674573
 30
0.0
  0
SPLINE
  5
25D
330
1F
100
AcDbEntity
  8
0
  6
Continuous
 62
     8
370
    18
100
AcDbSpline
210
0.0
220
0.0
230
1.0
 70
     8
 71
     3
 72
    14
 73
    10
 74
     0
 42
0.00000001
 43
0.00000001
 40
0.0
 40
0.0
 40
0.0
 40
0.0
 40
0.25
 40
0.25
 40
0.5
 40
0.5
 40
0.75
 40
0.75
 40
1.0
 40
1.0
 40
1.0
 40
1.0
 10
208.5192547659092
 20
282.8419626813296
 30
0.0
 10
208.5198994617992
 20
282.8421280809217
 30
0.0
 10
208.5523417569821
 20
282.8420194909974
 30
0.0
 10
208.6804892747463
 20
282.8421649969538
 30
0.0
 10
208.7756921564655
 20
282.8424158988651
 30
0.0
 10
209.027774490424
 20
282.8424104127468
 30
0.0
 10
209.1828347708505
 20
282.842364301213
 30
0.0
 10
209.5504296219776
 20
282.8422183073361
 30
0.0
 10
209.763060588211
 20
282.8421123941998
 30
0.0
 10
210.0004281112959
 20
282.8419624368942
 30
0.0
  0
LINE
  5
25E
330
1F
100
AcDbEntity
  8
0
  6
Continuous
 62
     8
370
    18
100
AcDbLine
 10
207.7943740573
 20
283.3495298254
 30
0.0
 11
208.5192548634
 21
282.8419628206
 31
0.0
  0
LINE
  5
25F
330
1F
100
AcDbEntity
  8
0
  6
Continuous
 62
     8
370
    18
100
AcDbLine
 10
267.459547907
 20
308.0885584123
 30
0.0
 11
268.2586052537
 21
307.2885584123
 31
0.0
  0
LINE
  5
260
330
1F
100
AcDbEntity
  8
0
  6
Continuous
 62
     8
370
    18
100
AcDbLine
 10
207.9637716476
 20
308.0885584123
 30
0.0
 11
207.1644129234
 21
307.2885584123
 31
0.0
  0
SPLINE
  5
261
330
1F
100
AcDbEntity
  8
0
  6
Continuous
 62
     8
370
    18
100
AcDbSpline
210
0.0
220
0.0
230
1.0
 70
     8
 71
     3
 72
    10
 73
     6
 74
     0
 42
0.00000001
 43
0.00000001
 40
0.0
 40
0.0
 40
0.0
 40
0.0
 40
0.4803319847175642
 40
0.9606639694350373
 40
1.0
 40
1.0
 40
1.0
 40
1.0
 10
210.0005109775518
 20
282.8419612674682
 30
0.0
 10
210.0144302406231
 20
282.8321337530359
 30
0.0
 10
210.0422687667655
 20
282.8124787241713
 30
0.0
 10
210.0764048280192
 20
282.8027267764525
 30
0.0
 10
210.0934719649977
 20
282.8062802583863
 30
0.0
 10
210.094763854054
 20
282.8065492375612
 30
0.0
  0
LINE
  5
262
330
1F
100
AcDbEntity
  8
0
  6
Continuous
 62
     8
370
    18
100
AcDbLine
 10
210.014908159
 20
310.8764961883
 30
0.0
 11
209.9157117315
 21
308.0885584123
 31
0.0
  0
SPLINE
  5
263
330
1F
100
AcDbEntity
  8
0
  6
Continuous
 62
     8
370
    18
100
AcDbSpline
210
0.0
220
0.0
230
1.0
 70
     8
 71
     3
 72
     8
 73
     4
 74
     0
 42
0.00000001
 43
0.00000001
 40
0.0
 40
0.0
 40
0.0
 40
0.0
 40
0.0001530013896073
 40
0.0001530013896073
 40
0.0001530013896073
 40
0.0001530013896073
 10
210.1083159938611
 20
310.8783749799898
 30
0.0
 10
210.077106528095
 20
310.8783743007713
 30
0.0
 10
210.0459657911984
 20
310.8777450462616
 30
0.0
 10
210.014908159039
 20
310.876496188124
 30
0.0
  0
LINE
  5
264
330
1F
100
AcDbEntity
  8
0
  6
Continuous
 62
     8
370
    18
100
AcDbLine
 10
265.3172690333
 20
310.878362575
 30
0.0
 11
210.1083156514
 21
310.878362575
 31
0.0
  0
SPLINE
  5
265
330
1F
100
AcDbEntity
  8
0
  6
Continuous
 62
     8
370
    18
100
AcDbSpline
210
0.0
220
0.0
230
1.0
 70
     8
 71
     3
 72
     8
 73
     4
 74
     0
 42
0.00000001
 43
0.00000001
 40
0.0
 40
0.0
 40
0.0
 40
0.0
 40
0.0001530013909389
 40
0.0001530013909389
 40
0.0001530013909389
 40
0.0001530013909389
 10
265.4106765264395
 20
310.8764961880913
 30
0.0
 10
265.3796188940098
 20
310.8777450462506
 30
0.0
 10
265.3484781568411
 20
310.8783743007713
 30
0.0
 10
265.3172686908019
 20
310.8783749799898
 30
0.0
  0
LINE
  5
266
330
1F
100
AcDbEntity
  8
0
  6
Continuous
 62
     8
370
    18
100
AcDbLine
 10
265.509872954
 20
308.0885584123
 30
0.0
 11
265.4106765264
 21
310.8764961883
 31
0.0
  0
LINE
  5
267
330
1F
100
AcDbEntity
  8
0
  6
Continuous
 62
     8
370
    18
100
AcDbLine
 10
210.4319504103
 20
311.8194527733
 30
0.0
 11
264.9936342744
 21
311.8194527733
 31
0.0
  0
SPLINE
  5
268
330
1F
100
AcDbEntity
  8
0
  6
Continuous
 62
     8
370
    18
100
AcDbSpline
210
0.0
220
0.0
230
1.0
 70
     8
 71
     3
 72
    10
 73
     6
 74
     0
 42
0.00000001
 43
0.00000001
 40
0.0
 40
0.0
 40
0.0
 40
0.0
 40
0.5
 40
0.5
 40
1.0
 40
1.0
 40
1.0
 40
1.0
 10
264.9936631375452
 20
311.8194385058556
 30
0.0
 10
265.091589022749
 20
311.6956148221805
 30
0.0
 10
265.1708963430318
 20
311.5483329619801
 30
0.0
 10
265.2813383695986
 20
311.2271612086561
 30
0.0
 10
265.3124368289709
 20
311.0533767236332
 30
0.0
 10
265.3172686908019
 20
310.8783749799899
 30
0.0
  0
SPLINE
  5
269
330
1F
100
AcDbEntity
  8
0
  6
Continuous
 62
     8
370
    18
100
AcDbSpline
210
0.0
220
0.0
230
1.0
 70
     8
 71
     3
 72
    10
 73
     6
 74
     0
 42
0.00000001
 43
0.00000001
 40
0.0
 40
0.0
 40
0.0
 40
0.0
 40
0.5
 40
0.5
 40
1.0
 40
1.0
 40
1.0
 40
1.0
 10
210.4319504102965
 20
311.819452773286
 30
0.0
 10
210.3340172827569
 20
311.6956279802873
 30
0.0
 10
210.2547033834108
 20
311.5483426774107
 30
0.0
 10
210.1442512014707
 20
311.2271612748296
 30
0.0
 10
210.1131491743102
 20
311.0533706014803
 30
0.0
 10
210.1083156513508
 20
310.8783625750083
 30
0.0
  0
SPLINE
  5
26A
330
1F
100
AcDbEntity
  8
0
  6
Continuous
 62
     8
370
    18
100
AcDbSpline
210
0.0
220
0.0
230
1.0
 70
     8
 71
     3
 72
     8
 73
     4
 74
     0
 42
0.00000001
 43
0.00000001
 40
0.0
 40
0.0
 40
0.0
 40
0.0
 40
1.0
 40
1.0
 40
1.0
 40
1.0
 10
243.6286735750063
 20
313.9891694738819
 30
0.0
 10
243.4325384024251
 20
313.9739697899209
 30
0.0
 10
243.2357748866953
 20
313.9587701059598
 30
0.0
 10
243.0384167887032
 20
313.9435704219989
 30
0.0
  0
SPLINE
  5
26B
330
1F
100
AcDbEntity
  8
0
  6
Continuous
 62
     8
370
    18
100
AcDbSpline
210
0.0
220
0.0
230
1.0
 70
     8
 71
     3
 72
    27
 73
    23
 74
     0
 42
0.00000001
 43
0.00000001
 40
0.0
 40
0.0
 40
0.0
 40
0.0
 40
0.0384770856955447
 40
0.076596238701276
 40
0.1144451082475295
 40
0.15211479268912
 40
0.1896991857075771
 40
0.2272942366813996
 40
0.2649971494891453
 40
0.3029055490389698
 40
0.3411166473804393
 40
0.3797264409667347
 40
0.4188289675647116
 40
0.458515645955606
 40
0.4988747147393492
 40
0.5717164546455085
 40
0.6433061010230131
 40
0.7141414806743577
 40
0.7847301243244754
 40
0.8555779711725148
 40
0.9271780066520361
 40
1.0
 40
1.0
 40
1.0
 40
1.0
 10
246.7505221462631
 20
316.4337279703601
 30
0.0
 10
246.7489822310185
 20
316.3849631937799
 30
0.0
 10
246.7459167255749
 20
316.2878872744467
 30
0.0
 10
246.7289495390521
 20
316.1451273581701
 30
0.0
 10
246.7027582051968
 20
316.0054923247791
 30
0.0
 10
246.6663731367696
 20
315.8691220375363
 30
0.0
 10
246.6199120739078
 20
315.735983089272
 30
0.0
 10
246.5632089985629
 20
315.606088131877
 30
0.0
 10
246.4961788068171
 20
315.4794373690257
 30
0.0
 10
246.4187200294725
 20
315.3560340002358
 30
0.0
 10
246.3307413122612
 20
315.2358798258399
 30
0.0
 10
246.232152862417
 20
315.1189766726275
 30
0.0
 10
246.1228741495073
 20
315.0053245715492
 30
0.0
 10
246.0028111239316
 20
314.8949274761586
 30
0.0
 10
245.8376736068954
 20
314.7597135366578
 30
0.0
 10
245.6201163806473
 20
314.6073042137433
 30
0.0
 10
245.3402120393164
 20
314.4486486048281
 30
0.0
 10
245.0386751953371
 20
314.3119672458382
 30
0.0
 10
244.7160558772302
 20
314.1971675952752
 30
0.0
 10
244.372707584283
 20
314.1047801781218
 30
0.0
 10
244.0101087836622
 20
314.0328377207281
 30
0.0
 10
243.7565338123066
 20
314.003807431463
 30
0.0
 10
243.6286735750063
 20
313.9891694738819
 30
0.0
  0
SPLINE
  5
26C
330
1F
100
AcDbEntity
  8
0
  6
Continuous
 62
     8
370
    18
100
AcDbSpline
210
0.0
220
0.0
230
1.0
 70
     8
 71
     3
 72
     9
 73
     5
 74
     0
 42
0.00000001
 43
0.00000001
 40
0.0
 40
0.0
 40
0.0
 40
0.0
 40
0.4891460490169981
 40
1.0
 40
1.0
 40
1.0
 40
1.0
 10
246.7873546833189
 20
318.8856153596639
 30
0.0
 10
246.7813787237632
 20
318.4866660578039
 30
0.0
 10
246.7691615964499
 20
317.6710624100555
 30
0.0
 10
246.7568245666698
 20
316.8520987776728
 30
0.0
 10
246.7505221462632
 20
316.4337279703588
 30
0.0
  0
LINE
  5
26D
330
1F
100
AcDbEntity
  8
0
  6
Continuous
 62
     8
370
    18
100
AcDbLine
 10
257.7649514404
 20
318.8856146871
 30
0.0
 11
246.7868566989
 21
318.8856146871
 31
0.0
  0
SPLINE
  5
26E
330
1F
100
AcDbEntity
  8
0
  6
Continuous
 62
     8
370
    18
100
AcDbSpline
210
0.0
220
0.0
230
1.0
 70
     8
 71
     3
 72
    13
 73
     9
 74
     0
 42
0.00000001
 43
0.00000001
 40
0.0
 40
0.0
 40
0.0
 40
0.0
 40
0.180314646202462
 40
0.3551761170745454
 40
0.5245789280871284
 40
0.6885188301839644
 40
0.8469929594047719
 40
0.9999999999999999
 40
0.9999999999999999
 40
0.9999999999999999
 40
0.9999999999999999
 10
264.9936449705074
 20
311.8194422790066
 30
0.0
 10
264.5585492735021
 20
312.2461752455206
 30
0.0
 10
263.7015162843756
 20
313.0867356839886
 30
0.0
 10
262.4364473563248
 20
314.3255572881855
 30
0.0
 10
261.2115099425659
 20
315.5237261174818
 30
0.0
 10
260.0268114515204
 20
316.6809978274075
 30
0.0
 10
258.8822780300746
 20
317.7976633668973
 30
0.0
 10
258.1329864117208
 20
318.5272555915422
 30
0.0
 10
257.7649163510656
 20
318.8856488363093
 30
0.0
  0
SPLINE
  5
26F
330
1F
100
AcDbEntity
  8
0
  6
Continuous
 62
     8
370
    18
100
AcDbSpline
210
0.0
220
0.0
230
1.0
 70
     8
 71
     3
 72
    13
 73
     9
 74
     0
 42
0.00000001
 43
0.00000001
 40
0.0
 40
0.0
 40
0.0
 40
0.0
 40
0.1530070405961292
 40
0.3114811698174831
 40
0.4754210719145046
 40
0.6448238829269097
 40
0.8196853537984495
 40
0.9999999999999999
 40
0.9999999999999999
 40
0.9999999999999999
 40
0.9999999999999999
 10
217.6606683334636
 20
318.8856488363091
 30
0.0
 10
217.2925982728134
 20
318.5272555915395
 30
0.0
 10
216.5433066544707
 20
317.7976633668903
 30
0.0
 10
215.3987732330432
 20
316.6809978273959
 30
0.0
 10
214.2140747420195
 20
315.5237261174687
 30
0.0
 10
212.9891373282862
 20
314.3255572881741
 30
0.0
 10
211.7240684002647
 20
313.0867356839818
 30
0.0
 10
210.8670354111592
 20
312.246175245518
 30
0.0
 10
210.431939714165
 20
311.8194422790065
 30
0.0
  0
LINE
  5
270
330
1F
100
AcDbEntity
  8
0
  6
Continuous
 62
     8
370
    18
100
AcDbLine
 10
228.6382300122
 20
318.8856146871
 30
0.0
 11
217.6606332441
 21
318.8856146871
 31
0.0
  0
SPLINE
  5
271
330
1F
100
AcDbEntity
  8
0
  6
Continuous
 62
     8
370
    18
100
AcDbSpline
210
0.0
220
0.0
230
1.0
 70
     8
 71
     3
 72
     9
 73
     5
 74
     0
 42
0.00000001
 43
0.00000001
 40
0.0
 40
0.0
 40
0.0
 40
0.0
 40
0.5108539509735633
 40
1.0
 40
1.0
 40
1.0
 40
1.0
 10
228.6750625392149
 20
316.4337279703091
 30
0.0
 10
228.66876011881
 20
316.8520987776465
 30
0.0
 10
228.6564230890331
 20
317.67106241009
 30
0.0
 10
228.6442059617147
 20
318.4866660578974
 30
0.0
 10
228.6382300021565
 20
318.8856153597939
 30
0.0
  0
SPLINE
  5
272
330
1F
100
AcDbEntity
  8
0
  6
Continuous
 62
     8
370
    18
100
AcDbSpline
210
0.0
220
0.0
230
1.0
 70
     8
 71
     3
 72
    27
 73
    23
 74
     0
 42
0.00000001
 43
0.00000001
 40
0.0
 40
0.0
 40
0.0
 40
0.0
 40
0.039392472213652
 40
0.0783717260100226
 40
0.1170078774747153
 40
0.1553736518562487
 40
0.1935440245807879
 40
0.2315958053592793
 40
0.2696071745342443
 40
0.3076571838631922
 40
0.3458252363038109
 40
0.3841905607698073
 40
0.422831698093463
 40
0.4618260135322158
 40
0.5012492492111209
 40
0.575634352082365
 40
0.6479653725127381
 40
0.7188326307720599
 40
0.7888517232976359
 40
0.8586470722249298
 40
0.9288337697449909
 40
1.0
 40
1.0
 40
1.0
 40
1.0
 10
231.796911110471
 20
313.9891694738819
 30
0.0
 10
231.7275368206625
 20
313.9965544991344
 30
0.0
 10
231.5895159621715
 20
314.0112470823399
 30
0.0
 10
231.3874948065303
 20
314.0414980439517
 30
0.0
 10
231.1908613419537
 20
314.0776340419007
 30
0.0
 10
230.9999675849749
 20
314.1202363113057
 30
0.0
 10
230.814846341794
 20
314.1691516285064
 30
0.0
 10
230.6356084748361
 20
314.2244208352557
 30
0.0
 10
230.4623375811651
 20
314.2860327818505
 30
0.0
 10
230.2951178062837
 20
314.353989688896
 30
0.0
 10
230.1340266779813
 20
314.4282898053276
 30
0.0
 10
229.9791357610837
 20
314.508931893733
 30
0.0
 10
229.8305150138675
 20
314.5959148627645
 30
0.0
 10
229.6882144644211
 20
314.6892350869629
 30
0.0
 10
229.5127686584831
 20
314.8179179569035
 30
0.0
 10
229.3169416064399
 20
314.9859140906019
 30
0.0
 10
229.1188628347225
 20
315.1991349811904
 30
0.0
 10
228.9576683642456
 20
315.4237379703496
 30
0.0
 10
228.8326166389192
 20
315.6596367594087
 30
0.0
 10
228.7438908116407
 20
315.9069050064151
 30
0.0
 10
228.6878964166943
 20
316.1650121741507
 30
0.0
 10
228.6793602161313
 20
316.3437431877614
 30
0.0
 10
228.6750625392149
 20
316.4337279703091
 30
0.0
  0
SPLINE
  5
273
330
1F
100
AcDbEntity
  8
0
  6
Continuous
 62
     8
370
    18
100
AcDbSpline
210
0.0
220
0.0
230
1.0
 70
     8
 71
     3
 72
     8
 73
     4
 74
     0
 42
0.00000001
 43
0.00000001
 40
0.0
 40
0.0
 40
0.0
 40
0.0
 40
1.0
 40
1.0
 40
1.0
 40
1.0
 10
232.3871678967722
 20
313.9435704219982
 30
0.0
 10
232.1898097987808
 20
313.9587701059594
 30
0.0
 10
231.9930462830516
 20
313.9739697899207
 30
0.0
 10
231.796911110471
 20
313.9891694738819
 30
0.0
  0
SPLINE
  5
274
330
1F
100
AcDbEntity
  8
0
  6
Continuous
 62
     8
370
    18
100
AcDbSpline
210
0.0
220
0.0
230
1.0
 70
     8
 71
     3
 72
    11
 73
     7
 74
     0
 42
0.00000001
 43
0.00000001
 40
0.0
 40
0.0
 40
0.0
 40
0.0
 40
0.4648008975410282
 40
0.7143123134358971
 40
0.9689034748283927
 40
1.0
 40
1.0
 40
1.0
 40
1.0
 10
231.796911110471
 20
313.9891694738819
 30
0.0
 10
231.8040777792415
 20
314.0059764084614
 30
0.0
 10
231.8150916128553
 20
314.0318055331142
 30
0.0
 10
231.8309803383403
 20
314.0473461582764
 30
0.0
 10
231.839751940224
 20
314.0526484253296
 30
0.0
 10
231.8440166922127
 20
314.05102332947
 30
0.0
 10
231.8444809018157
 20
314.0508464410822
 30
0.0
  0
SPLINE
  5
275
330
1F
100
AcDbEntity
  8
0
  6
Continuous
 62
     8
370
    18
100
AcDbSpline
210
0.0
220
0.0
230
1.0
 70
     8
 71
     3
 72
    11
 73
     7
 74
     0
 42
0.00000001
 43
0.00000001
 40
0.0
 40
0.0
 40
0.0
 40
0.0
 40
0.4648008975349844
 40
0.7143123134253687
 40
0.9689034748122335
 40
1.0
 40
1.0
 40
1.0
 40
1.0
 10
243.6286735750063
 20
313.9891694738819
 30
0.0
 10
243.6215069062359
 20
314.0059764084613
 30
0.0
 10
243.6104930726221
 20
314.0318055331138
 30
0.0
 10
243.5946043471372
 20
314.0473461582765
 30
0.0
 10
243.5858327452533
 20
314.0526484253301
 30
0.0
 10
243.5815679932644
 20
314.0510233294706
 30
0.0
 10
243.5811037836611
 20
314.0508464410827
 30
0.0
  0
SPLINE
  5
276
330
1F
100
AcDbEntity
  8
0
  6
Continuous
 62
     8
370
    18
100
AcDbSpline
210
0.0
220
0.0
230
1.0
 70
     8
 71
     3
 72
    10
 73
     6
 74
     0
 42
0.00000001
 43
0.00000001
 40
0.0
 40
0.0
 40
0.0
 40
0.0
 40
0.5
 40
0.5
 40
1.0
 40
1.0
 40
1.0
 40
1.0
 10
228.6750625392149
 20
316.4337279703091
 30
0.0
 10
228.7239030116968
 20
316.4418168912224
 30
0.0
 10
228.7883888901428
 20
316.4351591401783
 30
0.0
 10
228.8847436814419
 20
316.3817659379673
 30
0.0
 10
228.9104353542638
 20
316.3384534886215
 30
0.0
 10
228.9123733621898
 20
316.3022266242199
 30
0.0
  0
LINE
  5
277
330
1F
100
AcDbEntity
  8
0
  6
Continuous
 62
     8
370
    18
100
AcDbLine
 10
246.480621136
 20
316.0109503257
 30
0.0
 11
246.5132113233
 21
316.3022266242
 31
0.0
  0
SPLINE
  5
278
330
1F
100
AcDbEntity
  8
0
  6
Continuous
 62
     8
370
    18
100
AcDbSpline
210
0.0
220
0.0
230
1.0
 70
     8
 71
     3
 72
    10
 73
     6
 74
     0
 42
0.00000001
 43
0.00000001
 40
0.0
 40
0.0
 40
0.0
 40
0.0
 40
0.5
 40
0.5
 40
1.0
 40
1.0
 40
1.0
 40
1.0
 10
246.7505221462631
 20
316.4337279703601
 30
0.0
 10
246.70168167378
 20
316.4418168912716
 30
0.0
 10
246.637195795334
 20
316.4351591402249
 30
0.0
 10
246.5408410040355
 20
316.3817659380098
 30
0.0
 10
246.5151493312138
 20
316.3384534886627
 30
0.0
 10
246.5132113232877
 20
316.3022266242601
 30
0.0
  0
LINE
  5
279
330
1F
100
AcDbEntity
  8
0
  6
Continuous
 62
     8
370
    18
100
AcDbLine
 10
246.0419746976
 20
315.2712926119
 30
0.0
 11
246.0061195624
 21
315.0868869451
 31
0.0
  0
LINE
  5
27A
330
1F
100
AcDbEntity
  8
0
  6
Continuous
 62
     8
370
    18
100
AcDbLine
 10
229.419465123
 20
315.0868869451
 30
0.0
 11
229.3836099879
 21
315.2712926119
 31
0.0
  0
LINE
  5
27B
330
1F
100
AcDbEntity
  8
0
  6
Continuous
 62
     8
370
    18
100
AcDbLine
 10
228.8774227892
 20
318.7552283539
 30
0.0
 11
228.9123733622
 21
316.3022266242
 31
0.0
  0
SPLINE
  5
27C
330
1F
100
AcDbEntity
  8
0
  6
Continuous
 62
     8
370
    18
100
AcDbSpline
210
0.0
220
0.0
230
1.0
 70
     8
 71
     3
 72
    10
 73
     6
 74
     0
 42
0.00000001
 43
0.00000001
 40
0.0
 40
0.0
 40
0.0
 40
0.0
 40
0.5
 40
0.5
 40
1.0
 40
1.0
 40
1.0
 40
1.0
 10
228.6382300122323
 20
318.8856146872018
 30
0.0
 10
228.6868400052102
 20
318.8944628854895
 30
0.0
 10
228.7518737462997
 20
318.8885604559663
 30
0.0
 10
228.849462791129
 20
318.8353634361953
 30
0.0
 10
228.8754822729915
 20
318.7916316049255
 30
0.0
 10
228.8774227987181
 20
318.7552276810166
 30
0.0
  0
LINE
  5
27D
330
1F
100
AcDbEntity
  8
0
  6
Continuous
 62
     8
370
    18
100
AcDbLine
 10
246.5132113233
 20
316.3022266243
 30
0.0
 11
246.5481618963
 21
318.7552283538
 31
0.0
  0
SPLINE
  5
27E
330
1F
100
AcDbEntity
  8
0
  6
Continuous
 62
     8
370
    18
100
AcDbSpline
210
0.0
220
0.0
230
1.0
 70
     8
 71
     3
 72
    10
 73
     6
 74
     0
 42
0.00000001
 43
0.00000001
 40
0.0
 40
0.0
 40
0.0
 40
0.0
 40
0.5
 40
0.5
 40
1.0
 40
1.0
 40
1.0
 40
1.0
 10
246.7873546833189
 20
318.8856153596639
 30
0.0
 10
246.7387446904133
 20
318.8944635581801
 30
0.0
 10
246.673710949161
 20
318.8885611288871
 30
0.0
 10
246.57612190396
 20
318.8353641091776
 30
0.0
 10
246.5501024219989
 20
318.7916322777814
 30
0.0
 10
246.5481618962715
 20
318.7552283538198
 30
0.0
  0
SPLINE
  5
27F
330
1F
100
AcDbEntity
  8
0
  6
Continuous
 62
     8
370
    18
100
AcDbSpline
210
0.0
220
0.0
230
1.0
 70
     8
 71
     3
 72
    18
 73
    14
 74
     0
 42
0.00000001
 43
0.00000001
 40
0.0
 40
0.0
 40
0.0
 40
0.0
 40
0.0953674072901427
 40
0.1885389126437559
 40
0.2799164506305012
 40
0.3699259917315447
 40
0.4590131318358713
 40
0.5476373812079037
 40
0.636265450258236
 40
0.7253639893734517
 40
0.8153923333734758
 40
0.9067958003555875
 40
1.0
 40
1.0
 40
1.0
 40
1.0
 10
228.8881087472716
 20
319.3801609010774
 30
0.0
 10
228.8869799205313
 20
319.3800475944257
 30
0.0
 10
228.8847482590841
 20
319.379823590088
 30
0.0
 10
228.8819212010692
 20
319.3658202046835
 30
0.0
 10
228.879536589385
 20
319.3416687518957
 30
0.0
 10
228.877626425951
 20
319.3064493596949
 30
0.0
 10
228.8761828968059
 20
319.2603953030659
 30
0.0
 10
228.8752082566747
 20
319.2034469961865
 30
0.0
 10
228.8747027532563
 20
319.1356114637791
 30
0.0
 10
228.8746639614264
 20
319.0569395593103
 30
0.0
 10
228.8751013527826
 20
318.9672595483643
 30
0.0
 10
228.8759777811453
 20
318.8672782367192
 30
0.0
 10
228.8769380040686
 20
318.7928199642554
 30
0.0
 10
228.8774227987181
 20
318.7552276810166
 30
0.0
  0
SPLINE
  5
280
330
1F
100
AcDbEntity
  8
0
  6
Continuous
 62
     8
370
    18
100
AcDbSpline
210
0.0
220
0.0
230
1.0
 70
     8
 71
     3
 72
    18
 73
    14
 74
     0
 42
0.00000001
 43
0.00000001
 40
0.0
 40
0.0
 40
0.0
 40
0.0
 40
0.0932041857696706
 40
0.1846076427020802
 40
0.2746359802312374
 40
0.3637345161462293
 40
0.4523625848998066
 40
0.540986836460228
 40
0.6300739807806253
 40
0.720083527643967
 40
0.8114610724500476
 40
0.9046325851988178
 40
1.0
 40
1.0
 40
1.0
 40
1.0
 10
246.5481618958664
 20
318.7552283461681
 30
0.0
 10
246.5486466894497
 20
318.7928205895873
 30
0.0
 10
246.5496069102796
 20
318.8672787846156
 30
0.0
 10
246.5504833359754
 20
318.9672599890947
 30
0.0
 10
246.5509207251067
 20
319.0569399042105
 30
0.0
 10
246.550881931518
 20
319.135611724492
 30
0.0
 10
246.5503764268028
 20
319.2034471843302
 30
0.0
 10
246.5494017858387
 20
319.2603954303006
 30
0.0
 10
246.5479582563253
 20
319.3064494377218
 30
0.0
 10
246.546048092985
 20
319.3416687923622
 30
0.0
 10
246.5436634818649
 20
319.3658202194946
 30
0.0
 10
246.5408364248497
 20
319.379823590164
 30
0.0
 10
246.5386047644273
 20
319.3800475944512
 30
0.0
 10
246.5374759382057
 20
319.3801609010774
 30
0.0
  0
SPLINE
  5
281
330
1F
100
AcDbEntity
  8
0
  6
Continuous
 62
     8
370
    18
100
AcDbSpline
210
0.0
220
0.0
230
1.0
 70
     8
 71
     3
 72
    22
 73
    18
 74
     0
 42
0.00000001
 43
0.00000001
 40
0.0
 40
0.0
 40
0.0
 40
0.0
 40
0.0919145350826109
 40
0.2037910149796453
 40
0.3011620602302394
 40
0.3705058949688815
 40
0.4347945804285646
 40
0.5026280477113378
 40
0.5242142249826258
 40
0.5639424596965033
 40
0.6515537954206966
 40
0.71441320969432
 40
0.7773131981804948
 40
0.83804510701994
 40
0.8987871133538993
 40
0.959010985522596
 40
1.0
 40
1.0
 40
1.0
 40
1.0
 10
237.2810254786819
 20
314.3985183311115
 30
0.0
 10
237.2193643144139
 20
314.6436079628878
 30
0.0
 10
237.0826504503911
 20
315.1870156489059
 30
0.0
 10
236.5144698558484
 20
315.8926836603653
 30
0.0
 10
235.784616704891
 20
316.3993481312967
 30
0.0
 10
235.0718480116543
 20
316.7093599291217
 30
0.0
 10
234.3936198302382
 20
316.8761390236202
 30
0.0
 10
233.8546104959408
 20
316.938709425313
 30
0.0
 10
233.3987225801058
 20
316.9576460674447
 30
0.0
 10
232.8735853106697
 20
316.920063103844
 30
0.0
 10
232.2106806257201
 20
316.8201118537594
 30
0.0
 10
231.524486769035
 20
316.5771514930078
 30
0.0
 10
230.9809670204435
 20
316.2923008743197
 30
0.0
 10
230.5141369899333
 20
315.9458078849042
 30
0.0
 10
230.1401082684422
 20
315.5484909369637
 30
0.0
 10
229.8776600156419
 20
315.1584854411821
 30
0.0
 10
229.7873001444358
 20
314.8938692210806
 30
0.0
 10
229.7507063648118
 20
314.7867054157974
 30
0.0
  0
ARC
  5
282
330
1F
100
AcDbEntity
  8
0
  6
Continuous
 62
     8
370
    18
100
AcDbCircle
 10
235.1205280887
 20
313.9573752677
 30
0.0
 40
2.205075095031155
100
AcDbArc
 50
11.3955128762
 51
11.5403547138
  0
SPLINE
  5
283
330
1F
100
AcDbEntity
  8
0
  6
Continuous
 62
     8
370
    18
100
AcDbSpline
210
0.0
220
0.0
230
1.0
 70
     8
 71
     3
 72
    23
 73
    19
 74
     0
 42
0.00000001
 43
0.00000001
 40
0.0
 40
0.0
 40
0.0
 40
0.0
 40
0.0412888894305895
 40
0.1533488688379656
 40
0.2508796218228518
 40
0.3203371941382525
 40
0.38473132573204
 40
0.4526760532908125
 40
0.4742976361537232
 40
0.514091033014492
 40
0.601846068622884
 40
0.6648085847437436
 40
0.7278117416268692
 40
0.7886432627846892
 40
0.8494848979989071
 40
0.9098075492055573
 40
0.9701264829920393
 40
1.0
 40
1.0
 40
1.0
 40
1.0
 10
245.6512049937971
 20
314.7966453528592
 30
0.0
 10
245.6206465948161
 20
314.9057890792188
 30
0.0
 10
245.5071512699997
 20
315.3111539899451
 30
0.0
 10
245.0080469079114
 20
315.8909754272615
 30
0.0
 10
244.2857277442928
 20
316.3996436240162
 30
0.0
 10
243.5716144183159
 20
316.7092977948984
 30
0.0
 10
242.8936861363993
 20
316.8761566876856
 30
0.0
 10
242.3546057330466
 20
316.9387080754295
 30
0.0
 10
241.8987237240179
 20
316.9576464876417
 30
0.0
 10
241.3735871096299
 20
316.9200622034973
 30
0.0
 10
240.7106588877388
 20
316.8201165675512
 30
0.0
 10
240.0245423641043
 20
316.5771397321114
 30
0.0
 10
239.4807603084299
 20
316.2923445025195
 30
0.0
 10
239.0148794712506
 20
315.9456512033641
 30
0.0
 10
238.6373433949228
 20
315.5490743853787
 30
0.0
 10
238.3567171795202
 20
315.1100177798535
 30
0.0
 10
238.2031028982957
 20
314.7197471439691
 30
0.0
 10
238.1591254156543
 20
314.4784430140218
 30
0.0
 10
238.1445592067967
 20
314.3985183311179
 30
0.0
  0
ARC
  5
284
330
1F
100
AcDbEntity
  8
0
  6
Continuous
 62
     8
370
    18
100
AcDbCircle
 10
240.305056583
 20
313.9573752705
 30
0.0
 40
2.205075080916241
100
AcDbArc
 50
168.4596452858
 51
168.6044871246
  0
SPLINE
  5
285
330
1F
100
AcDbEntity
  8
0
  6
Continuous
 62
     8
370
    18
100
AcDbSpline
210
0.0
220
0.0
230
1.0
 70
     8
 71
     3
 72
    10
 73
     6
 74
     0
 42
0.00000001
 43
0.00000001
 40
0.0
 40
0.0
 40
0.0
 40
0.0
 40
0.5
 40
0.5
 40
1.0
 40
1.0
 40
1.0
 40
1.0
 10
257.764951440382
 20
318.8856146870629
 30
0.0
 10
257.6025425502535
 20
319.1077588339708
 30
0.0
 10
257.4079047626838
 20
319.2856457442654
 30
0.0
 10
256.9835086589071
 20
319.526092836219
 30
0.0
 10
256.7539173254992
 20
319.5885584122151
 30
0.0
 10
256.5242355628283
 20
319.5885584122151
 30
0.0
  0
SPLINE
  5
286
330
1F
100
AcDbEntity
  8
0
  6
Continuous
 62
     8
370
    18
100
AcDbSpline
210
0.0
220
0.0
230
1.0
 70
     8
 71
     3
 72
    22
 73
    18
 74
     0
 42
0.00000001
 43
0.00000001
 40
0.0
 40
0.0
 40
0.0
 40
0.0
 40
0.0821303924043058
 40
0.1620675570784592
 40
0.2398067178104156
 40
0.3153433198164626
 40
0.38867310431097
 40
0.4597921778632041
 40
0.5286970772434652
 40
0.5953848306897577
 40
0.6598530167717056
 40
0.7220998223001466
 40
0.7821241010420098
 40
0.8399254353705881
 40
0.8955042034367112
 40
0.9488616550238652
 40
1.0
 40
1.0
 40
1.0
 40
1.0
 10
246.7532366458678
 20
319.5885584122151
 30
0.0
 10
246.7550578834087
 20
319.5876152029406
 30
0.0
 10
246.7586517237701
 20
319.5857539720557
 30
0.0
 10
246.7638102820806
 20
319.5710043494997
 30
0.0
 10
246.7685517072674
 20
319.5484224771064
 30
0.0
 10
246.7727936756656
 20
319.517962424617
 30
0.0
 10
246.776484468115
 20
319.4806366436591
 30
0.0
 10
246.7795990557735
 20
319.4371722509532
 30
0.0
 10
246.7821364583419
 20
319.3883479746336
 30
0.0
 10
246.7841168617224
 20
319.3349013151562
 30
0.0
 10
246.7855789525459
 20
319.2775459434181
 30
0.0
 10
246.7865772630709
 20
319.2169657464959
 30
0.0
 10
246.7871800173489
 20
319.1538024567408
 30
0.0
 10
246.7874658947071
 20
319.0886931248803
 30
0.0
 10
246.787525324037
 20
319.0221289053449
 30
0.0
 10
246.7874465746628
 20
318.9549471103804
 30
0.0
 10
246.7873848702593
 20
318.9083959698005
 30
0.0
 10
246.7873546732449
 20
318.8856146870666
 30
0.0
  0
SPLINE
  5
287
330
1F
100
AcDbEntity
  8
0
  6
Continuous
 62
     8
370
    18
100
AcDbSpline
210
0.0
220
0.0
230
1.0
 70
     8
 71
     3
 72
    10
 73
     6
 74
     0
 42
0.00000001
 43
0.00000001
 40
0.0
 40
0.0
 40
0.0
 40
0.0
 40
0.5
 40
0.5
 40
1.0
 40
1.0
 40
1.0
 40
1.0
 10
217.660672051432
 20
318.8857123929073
 30
0.0
 10
217.8230785895171
 20
319.1078274655752
 30
0.0
 10
218.0177070612709
 20
319.2856893513053
 30
0.0
 10
218.4420764249212
 20
319.5261021068858
 30
0.0
 10
218.6716503943699
 20
319.5885584122151
 30
0.0
 10
218.9013147005192
 20
319.5885584122151
 30
0.0
  0
SPLINE
  5
288
330
1F
100
AcDbEntity
  8
0
  6
Continuous
 62
     8
370
    18
100
AcDbSpline
210
0.0
220
0.0
230
1.0
 70
     8
 71
     3
 72
    17
 73
    13
 74
     0
 42
0.00000001
 43
0.00000001
 40
0.0
 40
0.0
 40
0.0
 40
0.0
 40
0.0775435153160192
 40
0.160082116436618
 40
0.2476206895088701
 40
0.3401596909055143
 40
0.4376957105473107
 40
0.5402219533176235
 40
0.6477286856951301
 40
0.7602036827037433
 40
0.877632701397266
 40
1.0
 40
1.0
 40
1.0
 40
1.0
 10
228.6382300122323
 20
318.8856146872018
 30
0.0
 10
228.6381793886877
 20
318.9199285718208
 30
0.0
 10
228.6380748806044
 20
318.9907667231554
 30
0.0
 10
228.6380720206073
 20
319.0904869392878
 30
0.0
 10
228.6386008571918
 20
319.1876293077432
 30
0.0
 10
228.6399351083531
 20
319.2795017777077
 30
0.0
 10
228.6423185549269
 20
319.3641607474925
 30
0.0
 10
228.6459205543369
 20
319.4391874506565
 30
0.0
 10
228.6508251871773
 20
319.5022352826215
 30
0.0
 10
228.6570092424551
 20
319.5502439131668
 30
0.0
 10
228.6643189283435
 20
319.5823653504856
 30
0.0
 10
228.669635175554
 20
319.5864659098194
 30
0.0
 10
228.6723480396095
 20
319.5885584122151
 30
0.0
  0
LINE
  5
289
330
1F
100
AcDbEntity
  8
0
  6
Continuous
 62
     8
370
    18
100
AcDbLine
 10
245.8893155236
 20
314.9515884276
 30
0.0
 11
245.9185762818
 21
315.9531696635
 31
0.0
  0
LINE
  5
28A
330
1F
100
AcDbEntity
  8
0
  6
Continuous
 62
     8
370
    18
100
AcDbLine
 10
229.5070084037
 20
315.9531696635
 30
0.0
 11
229.5357373483
 21
314.9697921408
 31
0.0
  0
SPLINE
  5
28B
330
1F
100
AcDbEntity
  8
0
  6
Continuous
 62
     8
370
    18
100
AcDbSpline
210
0.0
220
0.0
230
1.0
 70
     8
 71
     3
 72
    26
 73
    22
 74
     0
 42
0.00000001
 43
0.00000001
 40
0.0
 40
0.0
 40
0.0
 40
0.0
 40
0.0440991444113688
 40
0.0875477122073844
 40
0.1303478940923564
 40
0.1725003615618626
 40
0.2140051102098232
 40
0.2548621443802251
 40
0.295072019093043
 40
0.3346362542490454
 40
0.373556068283407
 40
0.4118300778672626
 40
0.4494599654742168
 40
0.4864465321582171
 40
0.5227898845359462
 40
0.6040270748653888
 40
0.684574036175523
 40
0.7644416958656794
 40
0.8436345554773635
 40
0.9221544531950093
 40
1.0
 40
1.0
 40
1.0
 40
1.0
 10
233.4584096013413
 20
318.6376593441995
 30
0.0
 10
233.3925923801065
 20
318.636891270498
 30
0.0
 10
233.2619289121443
 20
318.6353664541716
 30
0.0
 10
233.067887277394
 20
318.623947937431
 30
0.0
 10
232.8776778125735
 20
318.6063022870529
 30
0.0
 10
232.6916820347304
 20
318.5821487411436
 30
0.0
 10
232.5102423207868
 20
318.5520228435496
 30
0.0
 10
232.3336650582463
 20
318.5162333296734
 30
0.0
 10
232.1622222806963
 20
318.4751346487542
 30
0.0
 10
231.9961529016573
 20
318.4290602474884
 30
0.0
 10
231.8356785391395
 20
318.3783292066282
 30
0.0
 10
231.6809531506611
 20
318.3233226827472
 30
0.0
 10
231.5320820582837
 20
318.2644346022473
 30
0.0
 10
231.3891398962005
 20
318.2020279860902
 30
0.0
 10
231.1949969340966
 20
318.1090817151713
 30
0.0
 10
230.9568865926469
 20
317.9777939401669
 30
0.0
 10
230.6872737473859
 20
317.7986353970669
 30
0.0
 10
230.4426251210539
 20
317.6035847417902
 30
0.0
 10
230.2247592772419
 20
317.3946285026041
 30
0.0
 10
230.0319755375127
 20
317.174800707921
 30
0.0
 10
229.9265350490349
 20
317.0194591219546
 30
0.0
 10
229.8740421692557
 20
316.9421232966511
 30
0.0
  0
LINE
  5
28C
330
1F
100
AcDbEntity
  8
0
  6
Continuous
 62
     8
370
    18
100
AcDbLine
 10
233.458409518
 20
318.637467251
 30
0.0
 11
233.5077159348
 21
318.6373522375
 31
0.0
  0
SPLINE
  5
28D
330
1F
100
AcDbEntity
  8
0
  6
Continuous
 62
     8
370
    18
100
AcDbSpline
210
0.0
220
0.0
230
1.0
 70
     8
 71
     3
 72
    21
 73
    17
 74
     0
 42
0.00000001
 43
0.00000001
 40
0.0
 40
0.0
 40
0.0
 40
0.0
 40
0.0475693678509293
 40
0.1113777993724208
 40
0.2016692904771676
 40
0.2384711818298421
 40
0.3114974952473276
 40
0.3737516892808757
 40
0.4234565616441003
 40
0.5008362089673927
 40
0.5932026486751537
 40
0.6598103023659176
 40
0.7421082318677484
 40
0.8382973935765033
 40
0.9512583090753823
 40
1.0
 40
1.0
 40
1.0
 40
1.0
 10
229.64682065763
 20
314.8649462356989
 30
0.0
 10
229.69126111609
 20
314.9763428330246
 30
0.0
 10
229.7953129605856
 20
315.2371642066992
 30
0.0
 10
230.1280211771987
 20
315.6753856278506
 30
0.0
 10
230.5413926902903
 20
316.0484277841232
 30
0.0
 10
231.0573426539716
 20
316.3766569019273
 30
0.0
 10
231.5526536217675
 20
316.6133540758204
 30
0.0
 10
232.1352631504805
 20
316.8018333862782
 30
0.0
 10
232.7639487344159
 20
316.9122751777868
 30
0.0
 10
233.5137607830571
 20
316.9861418469424
 30
0.0
 10
234.3229196133019
 20
316.8980089982775
 30
0.0
 10
235.1107477063318
 20
316.7176573817373
 30
0.0
 10
235.8448029887023
 20
316.4069345599628
 30
0.0
 10
236.5843953041125
 20
315.9129113129904
 30
0.0
 10
237.0674569920129
 20
315.363740255097
 30
0.0
 10
237.2355604378859
 20
314.9885988384985
 30
0.0
 10
237.2862315209521
 20
314.8755207169685
 30
0.0
  0
SPLINE
  5
28E
330
1F
100
AcDbEntity
  8
0
  6
Continuous
 62
     8
370
    18
100
AcDbSpline
210
0.0
220
0.0
230
1.0
 70
     8
 71
     3
 72
     8
 73
     4
 74
     0
 42
0.00000001
 43
0.00000001
 40
0.0
 40
0.0
 40
0.0
 40
0.0
 40
1.0
 40
1.0
 40
1.0
 40
1.0
 10
237.2821650793161
 20
314.3996537304182
 30
0.0
 10
237.2817861047071
 20
314.3992746814747
 30
0.0
 10
237.2814062377624
 20
314.39889621518
 30
0.0
 10
237.2810254786403
 20
314.3985183313908
 30
0.0
  0
SPLINE
  5
28F
330
1F
100
AcDbEntity
  8
0
  6
Continuous
 62
     8
370
    18
100
AcDbSpline
210
0.0
220
0.0
230
1.0
 70
     8
 71
     3
 72
     8
 73
     4
 74
     0
 42
0.00000001
 43
0.00000001
 40
0.0002123670563236
 40
0.0002123670563236
 40
0.0002123670563236
 40
0.0002123670563236
 40
0.0002139329687499
 40
0.0002139329687499
 40
0.0002139329687499
 40
0.0002139329687499
 10
238.1434244353553
 20
314.3995709249837
 30
0.0
 10
238.1438018394438
 20
314.3992194777001
 30
0.0
 10
238.1441800989792
 20
314.3988686108941
 30
0.0
 10
238.1445592067961
 20
314.3985183311189
 30
0.0
  0
SPLINE
  5
290
330
1F
100
AcDbEntity
  8
0
  6
Continuous
 62
     8
370
    18
100
AcDbSpline
210
0.0
220
0.0
230
1.0
 70
     8
 71
     3
 72
    20
 73
    16
 74
     0
 42
0.00000001
 43
0.00000001
 40
0.0
 40
0.0
 40
0.0
 40
0.0
 40
0.1095119401088846
 40
0.1995011833723745
 40
0.2361798815860343
 40
0.3089617417852229
 40
0.3710075419211223
 40
0.4205460288344234
 40
0.4976666502952062
 40
0.589723896338485
 40
0.6561085830664388
 40
0.7381310229155074
 40
0.8339981945217282
 40
0.9465809770156233
 40
1.0
 40
1.0
 40
1.0
 40
1.0
 10
238.1393531645334
 20
314.8755207169923
 30
0.0
 10
238.271295842727
 20
315.1283253274249
 30
0.0
 10
238.5116597739181
 20
315.5888670628113
 30
0.0
 10
239.0428350702123
 20
316.0481228434919
 30
0.0
 10
239.5568164464462
 20
316.3767681379697
 30
0.0
 10
240.0528050041965
 20
316.6133221868837
 30
0.0
 10
240.6352335093996
 20
316.8018393258217
 30
0.0
 10
241.2639631073929
 20
316.9122733120338
 30
0.0
 10
242.0137365442139
 20
316.9861391173732
 30
0.0
 10
242.8229985330634
 20
316.8980232326251
 30
0.0
 10
243.6105265811224
 20
316.7176166267502
 30
0.0
 10
244.3459355624083
 20
316.4071437840639
 30
0.0
 10
245.079028125573
 20
315.9119196632459
 30
0.0
 10
245.5949838752103
 20
315.3568031115479
 30
0.0
 10
245.7272946539995
 20
314.9626657425239
 30
0.0
 10
245.7698719772573
 20
314.8358331872139
 30
0.0
  0
SPLINE
  5
291
330
1F
100
AcDbEntity
  8
0
  6
Continuous
 62
     8
370
    18
100
AcDbSpline
210
0.0
220
0.0
230
1.0
 70
     8
 71
     3
 72
    13
 73
     9
 74
     0
 42
0.00000001
 43
0.00000001
 40
0.0
 40
0.0
 40
0.0
 40
0.0
 40
0.0000274077974902
 40
0.3514171562169038
 40
0.6538813043744143
 40
0.8237894600614598
 40
0.9816479168682767
 40
1.0
 40
1.0
 40
1.0
 40
1.0
 10
241.9626700103378
 20
318.6376611709694
 30
0.0
 10
241.9627107877925
 20
318.6376611716044
 30
0.0
 10
242.4855509447671
 20
318.6376693134747
 30
0.0
 10
243.4697035610691
 20
318.4902301258246
 30
0.0
 10
244.5214423497565
 20
317.9870066667237
 30
0.0
 10
245.1531518711618
 20
317.4654221288478
 30
0.0
 10
245.4257579831144
 20
317.1368229879231
 30
0.0
 10
245.5397414451265
 20
316.960790277876
 30
0.0
 10
245.5516126644714
 20
316.9424567154805
 30
0.0
  0
SPLINE
  5
292
330
1F
100
AcDbEntity
  8
0
  6
Continuous
 62
     8
370
    18
100
AcDbSpline
210
0.0
220
0.0
230
1.0
 70
     8
 71
     3
 72
     8
 73
     4
 74
     0
 42
0.00000001
 43
0.00000001
 40
0.000213466162058
 40
0.000213466162058
 40
0.000213466162058
 40
0.000213466162058
 40
0.0002149310064363
 40
0.0002149310064363
 40
0.0002149310064363
 40
0.0002149310064363
 10
238.1434232714197
 20
314.3989539442566
 30
0.0
 10
238.1438011996096
 20
314.3988082485273
 30
0.0
 10
238.1441798467986
 20
314.3986630434597
 30
0.0
 10
238.1445592067961
 20
314.3985183311185
 30
0.0
  0
SPLINE
  5
293
330
1F
100
AcDbEntity
  8
0
  6
Continuous
 62
     8
370
    18
100
AcDbSpline
210
0.0
220
0.0
230
1.0
 70
     8
 71
     3
 72
     8
 73
     4
 74
     0
 42
0.00000001
 43
0.00000001
 40
0.0002134872656618
 40
0.0002134872656618
 40
0.0002134872656618
 40
0.0002134872656618
 40
0.0002149522795264
 40
0.0002149522795264
 40
0.0002149522795264
 40
0.0002149522795264
 10
237.2821615329004
 20
314.3989540007972
 30
0.0
 10
237.2817835686512
 20
314.3988082838004
 30
0.0
 10
237.2814048819107
 20
314.398663059822
 30
0.0
 10
237.2810254786868
 20
314.3985183311148
 30
0.0
  0
SPLINE
  5
294
330
1F
100
AcDbEntity
  8
0
  6
Continuous
 62
     8
370
    18
100
AcDbSpline
210
0.0
220
0.0
230
1.0
 70
     8
 71
     3
 72
    16
 73
    12
 74
     0
 42
0.00000001
 43
0.00000001
 40
0.0
 40
0.0
 40
0.0
 40
0.0
 40
0.1249999999999978
 40
0.1249999999999978
 40
0.2499999999999957
 40
0.2499999999999957
 40
0.4999999999999971
 40
0.4999999999999971
 40
0.7499999999999986
 40
0.7499999999999986
 40
1.0
 40
1.0
 40
1.0
 40
1.0
 10
245.5739593334723
 20
319.490303649995
 30
0.0
 10
245.4717906840564
 20
319.4903036134332
 30
0.0
 10
245.356320725235
 20
319.490303651043
 30
0.0
 10
245.1088674217157
 20
319.4903036610202
 30
0.0
 10
244.976240368906
 20
319.4903036518642
 30
0.0
 10
244.5554079344687
 20
319.490303654024
 30
0.0
 10
244.2512423897876
 20
319.4903036590773
 30
0.0
 10
243.6157597523022
 20
319.4903036289122
 30
0.0
 10
243.2917376907712
 20
319.4903035879429
 30
0.0
 10
242.6344064750361
 20
319.4903038138868
 30
0.0
 10
242.300945365912
 20
319.4903036534862
 30
0.0
 10
241.9626697150688
 20
319.4903036528589
 30
0.0
  0
LWPOLYLINE
  5
295
330
1F
100
AcDbEntity
  8
0
  6
Continuous
 62
     8
370
    18
100
AcDbPolyline
 90
        9
 70
   128
 43
0.0
 10
241.9626697151
 20
319.4903036608
 10
241.9626697906
 20
319.5095630258
 10
241.9626697624
 20
319.5280329772
 10
241.9626696316
 20
319.5450193614
 10
241.9626694031
 20
319.5598837813
 10
241.9626690855
 20
319.5720675893
 10
241.9626686907
 20
319.5811128832
 10
241.9626682336
 20
319.5866797148
 10
241.9626677313
 20
319.5885584122
  0
LINE
  5
296
330
1F
100
AcDbEntity
  8
0
  6
Continuous
 62
     8
370
    18
100
AcDbLine
 10
241.9626700104
 20
318.6376606523
 30
0.0
 11
241.9626697151
 21
319.4903036608
 31
0.0
  0
SPLINE
  5
297
330
1F
100
AcDbEntity
  8
0
  6
Continuous
 62
     8
370
    18
100
AcDbSpline
210
0.0
220
0.0
230
1.0
 70
     8
 71
     3
 72
    10
 73
     6
 74
     0
 42
0.00000001
 43
0.00000001
 40
0.0
 40
0.0
 40
0.0
 40
0.0
 40
0.5
 40
0.5
 40
1.0
 40
1.0
 40
1.0
 40
1.0
 10
233.4216954982282
 20
319.5885584122151
 30
0.0
 10
233.4216960118858
 20
319.5885584122151
 30
0.0
 10
233.4216965225166
 20
319.5780293325199
 30
0.0
 10
233.4216972552497
 20
319.5417375817412
 30
0.0
 10
233.4216974730342
 20
319.5161887604023
 30
0.0
 10
233.4216974819988
 20
319.4903036528589
 30
0.0
  0
SPLINE
  5
298
330
1F
100
AcDbEntity
  8
0
  6
Continuous
 62
     8
370
    18
100
AcDbSpline
210
0.0
220
0.0
230
1.0
 70
     8
 71
     3
 72
    16
 73
    12
 74
     0
 42
0.00000001
 43
0.00000001
 40
0.0
 40
0.0
 40
0.0
 40
0.0
 40
0.2500000000000013
 40
0.2500000000000013
 40
0.5000000000000027
 40
0.5000000000000027
 40
0.750000000000004
 40
0.750000000000004
 40
0.875000000000002
 40
0.875000000000002
 40
1.0
 40
1.0
 40
1.0
 40
1.0
 10
233.4217022554687
 20
319.4903036543678
 30
0.0
 10
233.0869150304023
 20
319.490303681072
 30
0.0
 10
232.7569798886443
 20
319.4903037550529
 30
0.0
 10
232.1068119201256
 20
319.4903035894766
 30
0.0
 10
231.7863640419235
 20
319.4903036261751
 30
0.0
 10
231.1584836730073
 20
319.4903036680353
 30
0.0
 10
230.8580910039301
 20
319.4903036253429
 30
0.0
 10
230.4423286490265
 20
319.4903036557689
 30
0.0
 10
230.3113137913193
 20
319.4903037616737
 30
0.0
 10
230.0668252334692
 20
319.4903038976889
 30
0.0
 10
229.9526982728414
 20
319.4903036914493
 30
0.0
 10
229.8516206215841
 20
319.4903036553455
 30
0.0
  0
LINE
  5
299
330
1F
100
AcDbEntity
  8
0
  6
Continuous
 62
     8
370
    18
100
AcDbLine
 10
229.8516206216
 20
319.4903036553
 30
0.0
 11
228.8539912577
 21
319.4903036529
 31
0.0
  0
LINE
  5
29A
330
1F
100
AcDbEntity
  8
0
  6
Continuous
 62
     8
370
    18
100
AcDbLine
 10
246.5715934029
 20
319.4903036529
 30
0.0
 11
245.5739593335
 21
319.4903036529
 31
0.0
  0
LINE
  5
29B
330
1F
100
AcDbEntity
  8
0
  6
Continuous
 62
     8
370
    18
100
AcDbLine
 10
233.4584097167
 20
318.637565183
 30
0.0
 11
233.421697468
 21
319.4903039788
 31
0.0
  0
LINE
  5
29C
330
1F
100
AcDbEntity
  8
0
  6
Continuous
 62
     8
370
    18
100
AcDbLine
 10
241.9626697151
 20
319.4903036529
 30
0.0
 11
233.421697482
 21
319.4903036529
 31
0.0
  0
SPLINE
  5
29D
330
1F
100
AcDbEntity
  8
0
  6
Continuous
 62
     8
370
    18
100
AcDbSpline
210
0.0
220
0.0
230
1.0
 70
     8
 71
     3
 72
    11
 73
     7
 74
     0
 42
0.00000001
 43
0.00000001
 40
0.0
 40
0.0
 40
0.0
 40
0.0
 40
0.0001756985980935
 40
0.0001756985980935
 40
0.0001756985980935
 40
0.0001757585980936
 40
0.0001757585980936
 40
0.0001757585980936
 40
0.0001757585980936
 10
210.3283217589477
 20
311.8217969258331
 30
0.0
 10
210.3627155113904
 20
311.8217035113749
 30
0.0
 10
210.3972423467737
 20
311.8209200810272
 30
0.0
 10
210.4318870650451
 20
311.8194399792374
 30
0.0
 10
210.4318988960051
 20
311.8194394737916
 30
0.0
 10
210.4319107269536
 20
311.8194389682336
 30
0.0
 10
210.4319225579674
 20
311.8194384626565
 30
0.0
  0
SPLINE
  5
29E
330
1F
100
AcDbEntity
  8
0
  6
Continuous
 62
     8
370
    18
100
AcDbSpline
210
0.0
220
0.0
230
1.0
 70
     8
 71
     3
 72
    10
 73
     6
 74
     0
 42
0.00000001
 43
0.00000001
 40
0.0
 40
0.0
 40
0.0
 40
0.0
 40
0.5
 40
0.5
 40
1.0
 40
1.0
 40
1.0
 40
1.0
 10
210.3283272958306
 20
311.8217969107888
 30
0.0
 10
210.2310055178436
 20
311.6978301355793
 30
0.0
 10
210.152869028337
 20
311.5500117245472
 30
0.0
 10
210.0458705645071
 20
311.2272996732831
 30
0.0
 10
210.0170445741429
 20
311.052514562247
 30
0.0
 10
210.0149031571676
 20
310.8764959869885
 30
0.0
  0
SPLINE
  5
29F
330
1F
100
AcDbEntity
  8
0
  6
Continuous
 62
     8
370
    18
100
AcDbSpline
210
0.0
220
0.0
230
1.0
 70
     8
 71
     3
 72
    11
 73
     7
 74
     0
 42
0.00000001
 43
0.00000001
 40
-0.00000006
 40
-0.00000006
 40
-0.00000006
 40
-0.00000006
 40
0.0
 40
0.0
 40
0.0
 40
0.0001756985996236
 40
0.0001756985996236
 40
0.0001756985996236
 40
0.0001756985996236
 10
264.993662126705
 20
311.8194384626566
 30
0.0
 10
264.9936739577187
 20
311.8194389682337
 30
0.0
 10
264.9936857886672
 20
311.8194394737918
 30
0.0
 10
264.9936976196273
 20
311.8194399792375
 30
0.0
 10
265.0283423382019
 20
311.8209200810405
 30
0.0
 10
265.0628691738864
 20
311.8217035113892
 30
0.0
 10
265.0972629266279
 20
311.8217969258364
 30
0.0
  0
SPLINE
  5
2A0
330
1F
100
AcDbEntity
  8
0
  6
Continuous
 62
     8
370
    18
100
AcDbSpline
210
0.0
220
0.0
230
1.0
 70
     8
 71
     3
 72
    10
 73
     6
 74
     0
 42
0.00000001
 43
0.00000001
 40
0.0
 40
0.0
 40
0.0
 40
0.0
 40
0.5
 40
0.5
 40
1.0
 40
1.0
 40
1.0
 40
1.0
 10
265.0972629266304
 20
311.8217969258333
 30
0.0
 10
265.1945846749142
 20
311.6978301451813
 30
0.0
 10
265.2727211040131
 20
311.5500117073541
 30
0.0
 10
265.3797193868861
 20
311.2272995770847
 30
0.0
 10
265.4085452567139
 20
311.0525144140097
 30
0.0
 10
265.410686530184
 20
310.8764957858183
 30
0.0
  0
SPLINE
  5
2A1
330
1F
100
AcDbEntity
  8
0
  6
Continuous
 62
     8
370
    18
100
AcDbSpline
210
0.0
220
0.0
230
1.0
 70
     8
 71
     3
 72
    12
 73
     8
 74
     0
 42
0.00000001
 43
0.00000001
 40
0.0
 40
0.0
 40
0.0
 40
0.0
 40
0.2500000000000026
 40
0.2500000000000026
 40
0.5000000000000052
 40
0.5000000000000052
 40
1.0
 40
1.0
 40
1.0
 40
1.0
 10
209.2233801929015
 20
311.8215118432184
 30
0.0
 10
209.2312338809867
 20
311.8220263684497
 30
0.0
 10
209.2613832468203
 20
311.8234259528641
 30
0.0
 10
209.3639046871849
 20
311.825541218148
 30
0.0
 10
209.4362122385498
 20
311.8262754426391
 30
0.0
 10
209.717185289335
 20
311.8263454185201
 30
0.0
 10
209.985799379668
 20
311.8227272268358
 30
0.0
 10
210.3283217589453
 20
311.8217969258301
 30
0.0
  0
SPLINE
  5
2A2
330
1F
100
AcDbEntity
  8
0
  6
Continuous
 62
     8
370
    18
100
AcDbSpline
210
0.0
220
0.0
230
1.0
 70
     8
 71
     3
 72
    14
 73
    10
 74
     0
 42
0.00000001
 43
0.00000001
 40
0.0
 40
0.0
 40
0.0
 40
0.0
 40
0.25
 40
0.25
 40
0.5
 40
0.5
 40
0.75
 40
0.75
 40
1.0
 40
1.0
 40
1.0
 40
1.0
 10
210.0148981552954
 20
310.876495785851
 30
0.0
 10
209.8209697722696
 20
310.871137070728
 30
0.0
 10
209.647380868543
 20
310.8679794641601
 30
0.0
 10
209.347325574634
 20
310.864017346658
 30
0.0
 10
209.2209805952127
 20
310.8632052888725
 30
0.0
 10
209.016047922863
 20
310.8632304502934
 30
0.0
 10
208.9393117113088
 20
310.8640680231871
 30
0.0
 10
208.8362020874555
 20
310.8680787616112
 30
0.0
 10
208.80996715073
 20
310.8712808266136
 30
0.0
 10
208.8101571677624
 20
310.8767222024812
 30
0.0
  0
SPLINE
  5
2A3
330
1F
100
AcDbEntity
  8
0
  6
Continuous
 62
     8
370
    18
100
AcDbSpline
210
0.0
220
0.0
230
1.0
 70
     8
 71
     3
 72
    10
 73
     6
 74
     0
 42
0.00000001
 43
0.00000001
 40
0.0
 40
0.0
 40
0.0
 40
0.0
 40
0.5
 40
0.5
 40
1.0
 40
1.0
 40
1.0
 40
1.0
 10
209.2233801929015
 20
311.8215118432185
 30
0.0
 10
209.0983799251568
 20
311.6975661948847
 30
0.0
 10
208.9970845815632
 20
311.5498137167367
 30
0.0
 10
208.8560207943924
 20
311.2272866630777
 30
0.0
 10
208.8162996633739
 20
311.0526202626024
 30
0.0
 10
208.8101571677624
 20
310.8767222024812
 30
0.0
  0
SPLINE
  5
2A4
330
1F
100
AcDbEntity
  8
0
  6
Continuous
 62
     8
370
    18
100
AcDbSpline
210
0.0
220
0.0
230
1.0
 70
     8
 71
     3
 72
    14
 73
    10
 74
     0
 42
0.00000001
 43
0.00000001
 40
0.0
 40
0.0
 40
0.0
 40
0.0
 40
0.25
 40
0.25
 40
0.5
 40
0.5
 40
0.75
 40
0.75
 40
1.0
 40
1.0
 40
1.0
 40
1.0
 10
266.6154275177394
 20
310.8767222017817
 30
0.0
 10
266.6156178360419
 20
310.8712721986705
 30
0.0
 10
266.5893825903129
 20
310.8680787605077
 30
0.0
 10
266.4862729665384
 20
310.8640680226414
 30
0.0
 10
266.4095367575338
 20
310.8632304498791
 30
0.0
 10
266.2046040953689
 20
310.86320528857
 30
0.0
 10
266.0782591233913
 20
310.8640173463351
 30
0.0
 10
265.7782038491368
 20
310.8679794635028
 30
0.0
 10
265.6049223885889
 20
310.8711285740353
 30
0.0
 10
265.410686530184
 20
310.8764957858183
 30
0.0
  0
SPLINE
  5
2A5
330
1F
100
AcDbEntity
  8
0
  6
Continuous
 62
     8
370
    18
100
AcDbSpline
210
0.0
220
0.0
230
1.0
 70
     8
 71
     3
 72
    12
 73
     8
 74
     0
 42
0.00000001
 43
0.00000001
 40
0.0
 40
0.0
 40
0.0
 40
0.0
 40
0.5
 40
0.5
 40
0.75
 40
0.75
 40
1.0
 40
1.0
 40
1.0
 40
1.0
 10
265.0972629266304
 20
311.8217969258333
 30
0.0
 10
265.4397853059011
 20
311.8227272267221
 30
0.0
 10
265.7083993962314
 20
311.8263454182892
 30
0.0
 10
265.9893724470014
 20
311.826275442227
 30
0.0
 10
266.0616799983626
 20
311.8255412176752
 30
0.0
 10
266.1642014387203
 20
311.8234259522675
 30
0.0
 10
266.19435080455
 20
311.8220263677899
 30
0.0
 10
266.202204492631
 20
311.8215118424942
 30
0.0
  0
SPLINE
  5
2A6
330
1F
100
AcDbEntity
  8
0
  6
Continuous
 62
     8
370
    18
100
AcDbSpline
210
0.0
220
0.0
230
1.0
 70
     8
 71
     3
 72
    10
 73
     6
 74
     0
 42
0.00000001
 43
0.00000001
 40
0.0
 40
0.0
 40
0.0
 40
0.0
 40
0.5
 40
0.5
 40
1.0
 40
1.0
 40
1.0
 40
1.0
 10
266.6154275177394
 20
310.8767222017817
 30
0.0
 10
266.6092850221281
 20
311.0526202618967
 30
0.0
 10
266.5695638911126
 20
311.2272866623659
 30
0.0
 10
266.4285001039526
 20
311.5498137160158
 30
0.0
 10
266.3272047603668
 20
311.6975661941608
 30
0.0
 10
266.202204492631
 20
311.8215118424942
 30
0.0
  0
SPLINE
  5
2A7
330
1F
100
AcDbEntity
  8
0
  6
Continuous
 62
     8
370
    18
100
AcDbSpline
210
0.0
220
0.0
230
1.0
 70
     8
 71
     3
 72
    11
 73
     7
 74
     0
 42
0.00000001
 43
0.00000001
 40
0.0
 40
0.0
 40
0.0
 40
0.0
 40
0.0001513907785829
 40
0.0001513907785829
 40
0.0001513907785829
 40
0.0001514507785829
 40
0.0001514507785829
 40
0.0001514507785829
 40
0.0001514507785829
 10
266.202204492631
 20
311.8215118424941
 30
0.0
 10
266.2035634932313
 20
311.8214228091408
 30
0.0
 10
266.2048860456903
 20
311.8207387932439
 30
0.0
 10
266.2061710426148
 20
311.8194543019565
 30
0.0
 10
266.2061715518917
 20
311.81945379288
 30
0.0
 10
266.2061720612068
 20
311.819453283665
 30
0.0
 10
266.2061725704276
 20
311.8194527744442
 30
0.0
  0
SPLINE
  5
2A8
330
1F
100
AcDbEntity
  8
0
  6
Continuous
 62
     8
370
    18
100
AcDbSpline
210
0.0
220
0.0
230
1.0
 70
     8
 71
     3
 72
    14
 73
    10
 74
     0
 42
0.00000001
 43
0.00000001
 40
0.0
 40
0.0
 40
0.0
 40
0.0
 40
0.25
 40
0.25
 40
0.5
 40
0.5
 40
0.75
 40
0.75
 40
1.0
 40
1.0
 40
1.0
 40
1.0
 10
259.1400106576554
 20
318.885614687082
 30
0.0
 10
259.1220127473124
 20
318.9036125974212
 30
0.0
 10
259.0789407373576
 20
318.917193149239
 30
0.0
 10
258.944087244322
 20
318.9352162351253
 30
0.0
 10
258.8522797547939
 20
318.9397559387644
 30
0.0
 10
258.6181719710203
 20
318.9396902685193
 30
0.0
 10
258.4769736128515
 20
318.9350287046428
 30
0.0
 10
258.1530875666811
 20
318.9169525098853
 30
0.0
 10
257.9696892240685
 20
318.9035372214204
 30
0.0
 10
257.7649126330973
 20
318.8857123929075
 30
0.0
  0
SPLINE
  5
2A9
330
1F
100
AcDbEntity
  8
0
  6
Continuous
 62
     8
370
    18
100
AcDbSpline
210
0.0
220
0.0
230
1.0
 70
     8
 71
     3
 72
    14
 73
    10
 74
     0
 42
0.00000001
 43
0.00000001
 40
0.0
 40
0.0
 40
0.0
 40
0.0
 40
0.25
 40
0.25
 40
0.5
 40
0.5
 40
0.75
 40
0.75
 40
1.0
 40
1.0
 40
1.0
 40
1.0
 10
217.660672051432
 20
318.8857123929074
 30
0.0
 10
217.4558915728738
 20
318.9035375598385
 30
0.0
 10
217.2709175640591
 20
318.9170604740065
 30
0.0
 10
216.9471698975466
 20
318.9350891427907
 30
0.0
 10
216.8073454098521
 20
318.9396918089246
 30
0.0
 10
216.5732558435354
 20
318.939754430223
 30
0.0
 10
216.4806912450856
 20
318.9351564003852
 30
0.0
 10
216.3461982171621
 20
318.9170852173302
 30
0.0
 10
216.3035722790027
 20
318.9036129390911
 30
0.0
 10
216.285574026976
 20
318.8856146870634
 30
0.0
  0
ENDSEC
  0
SECTION
  2
OBJECTS
  0
DICTIONARY
  5
C
330
0
100
AcDbDictionary
281
     1
  3
ACAD_GROUP
350
D
  3
ACAD_LAYOUT
350
1A
  3
ACAD_MLINESTYLE
350
17
  3
ACAD_PLOTSETTINGS
350
19
  3
ACAD_PLOTSTYLENAME
350
E
  3
ACAD_SCALELIST
350
47
  3
DWGPROPS
350
2AA
  0
DICTIONARY
  5
D
102
{ACAD_REACTORS
330
C
102
}
330
C
100
AcDbDictionary
281
     1
  0
DICTIONARY
  5
1A
102
{ACAD_REACTORS
330
C
102
}
330
C
100
AcDbDictionary
281
     1
  3
Layout1
350
1E
  3
Layout2
350
26
  3
Model
350
22
  0
DICTIONARY
  5
17
102
{ACAD_REACTORS
330
C
102
}
330
C
100
AcDbDictionary
281
     1
  3
Standard
350
18
  0
DICTIONARY
  5
19
102
{ACAD_REACTORS
330
C
102
}
330
C
100
AcDbDictionary
281
     1
  0
ACDBDICTIONARYWDFLT
  5
E
102
{ACAD_REACTORS
330
C
102
}
330
C
100
AcDbDictionary
281
     1
  3
Normal
350
F
100
AcDbDictionaryWithDefault
340
F
  0
DICTIONARY
  5
47
102
{ACAD_REACTORS
330
C
102
}
330
C
100
AcDbDictionary
281
     1
  3
A0
350
48
  3
A1
350
49
  3
A2
350
4A
  3
A3
350
4B
  3
A4
350
4C
  3
A5
350
4D
  3
A6
350
4E
  3
A7
350
4F
  3
A8
350
50
  3
A9
350
51
  3
B0
350
52
  3
B1
350
53
  3
B2
350
54
  3
B3
350
55
  3
B4
350
56
  3
B5
350
57
  3
B6
350
58
  3
B7
350
59
  3
B8
350
5A
  3
B9
350
5B
  3
C0
350
5C
  3
C1
350
5D
  3
C2
350
5E
  3
C3
350
5F
  3
C4
350
60
  3
C5
350
61
  3
C6
350
62
  3
C7
350
63
  3
C8
350
64
  3
C9
350
65
  3
D0
350
66
  3
D1
350
67
  3
D2
350
68
  0
XRECORD
  5
2AA
102
{ACAD_REACTORS
330
C
102
}
330
C
100
AcDbXrecord
280
     1
  1
DWGPROPS COOKIE
  2

  3

  4

  6

  7

  8
s-onishi
  9

300
=
301
=
302
=
303
=
304
=
305
=
306
=
307
=
308
=
309
=
 40
0.0
 41
2459723.153833935
 42
2459723.153835162
  1

 90
        0
  0
LAYOUT
  5
1E
102
{ACAD_REACTORS
330
1A
102
}
330
1A
100
AcDbPlotSettings
  1

  2
none_device
  4

  6

 40
0.0
 41
0.0
 42
0.0
 43
0.0
 44
0.0
 45
0.0
 46
0.0
 47
0.0
 48
0.0
 49
0.0
140
0.0
141
0.0
142
1.0
143
1.0
 70
   688
 72
     1
 73
     0
 74
     5
  7

 75
    16
147
1.0
148
0.0
149
0.0
100
AcDbLayout
  1
Layout1
 70
     1
 71
     1
 10
0.0
 20
0.0
 11
420.0
 21
297.0
 12
0.0
 22
0.0
 32
0.0
 14
1.0000000000E+20
 24
1.0000000000E+20
 34
1.0000000000E+20
 15
-1.0000000000E+20
 25
-1.0000000000E+20
 35
-1.0000000000E+20
146
0.0
 13
0.0
 23
0.0
 33
0.0
 16
1.0
 26
0.0
 36
0.0
 17
0.0
 27
1.0
 37
0.0
 76
     0
330
1B
  0
LAYOUT
  5
26
102
{ACAD_REACTORS
330
1A
102
}
330
1A
100
AcDbPlotSettings
  1

  2
none_device
  4

  6

 40
0.0
 41
0.0
 42
0.0
 43
0.0
 44
0.0
 45
0.0
 46
0.0
 47
0.0
 48
0.0
 49
0.0
140
0.0
141
0.0
142
1.0
143
1.0
 70
   688
 72
     1
 73
     0
 74
     5
  7

 75
    16
147
1.0
148
0.0
149
0.0
100
AcDbLayout
  1
Layout2
 70
     1
 71
     2
 10
0.0
 20
0.0
 11
0.0
 21
0.0
 12
0.0
 22
0.0
 32
0.0
 14
0.0
 24
0.0
 34
0.0
 15
0.0
 25
0.0
 35
0.0
146
0.0
 13
0.0
 23
0.0
 33
0.0
 16
1.0
 26
0.0
 36
0.0
 17
0.0
 27
1.0
 37
0.0
 76
     0
330
23
  0
LAYOUT
  5
22
102
{ACAD_REACTORS
330
1A
102
}
330
1A
100
AcDbPlotSettings
  1

  2
none_device
  4
Letter_(8.50_x_11.00_Inches)
  6

 40
6.35
 41
6.35
 42
6.35000508
 43
6.35000508
 44
215.9
 45
279.4
 46
0.0
 47
0.0
 48
0.0
 49
0.0
140
0.0
141
0.0
142
1.0
143
1.0
 70
  1712
 72
     1
 73
     0
 74
     0
  7

 75
     0
147
1.0
148
0.0
149
0.0
100
AcDbLayout
  1
Model
 70
     1
 71
     0
 10
0.0
 20
0.0
 11
594.0
 21
420.0
 12
0.0
 22
0.0
 32
0.0
 14
0.0
 24
0.0
 34
0.0
 15
594.0
 25
420.0
 35
0.0
146
0.0
 13
0.0
 23
0.0
 33
0.0
 16
1.0
 26
0.0
 36
0.0
 17
0.0
 27
1.0
 37
0.0
 76
     0
330
1F
331
29
  0
MLINESTYLE
  5
18
102
{ACAD_REACTORS
330
17
102
}
330
17
100
AcDbMlineStyle
  2
Standard
 70
     0
  3

 62
   256
 51
90.0
 52
90.0
 71
     2
 49
0.5
 62
   256
  6
BYLAYER
 49
-0.5
 62
   256
  6
BYLAYER
  0
ACDBPLACEHOLDER
  5
F
102
{ACAD_REACTORS
330
E
102
}
330
E
  0
SCALE
  5
48
102
{ACAD_REACTORS
330
47
102
}
330
47
100
AcDbScale
 70
     0
300
1:1
140
1.0
141
1.0
290
     1
  0
SCALE
  5
49
102
{ACAD_REACTORS
330
47
102
}
330
47
100
AcDbScale
 70
     0
300
1:2
140
1.0
141
2.0
290
     0
  0
SCALE
  5
4A
102
{ACAD_REACTORS
330
47
102
}
330
47
100
AcDbScale
 70
     0
300
1:4
140
1.0
141
4.0
290
     0
  0
SCALE
  5
4B
102
{ACAD_REACTORS
330
47
102
}
330
47
100
AcDbScale
 70
     0
300
1:5
140
1.0
141
5.0
290
     0
  0
SCALE
  5
4C
102
{ACAD_REACTORS
330
47
102
}
330
47
100
AcDbScale
 70
     0
300
1:8
140
1.0
141
8.0
290
     0
  0
SCALE
  5
4D
102
{ACAD_REACTORS
330
47
102
}
330
47
100
AcDbScale
 70
     0
300
1:10
140
1.0
141
10.0
290
     0
  0
SCALE
  5
4E
102
{ACAD_REACTORS
330
47
102
}
330
47
100
AcDbScale
 70
     0
300
1:16
140
1.0
141
16.0
290
     0
  0
SCALE
  5
4F
102
{ACAD_REACTORS
330
47
102
}
330
47
100
AcDbScale
 70
     0
300
1:20
140
1.0
141
20.0
290
     0
  0
SCALE
  5
50
102
{ACAD_REACTORS
330
47
102
}
330
47
100
AcDbScale
 70
     0
300
1:30
140
1.0
141
30.0
290
     0
  0
SCALE
  5
51
102
{ACAD_REACTORS
330
47
102
}
330
47
100
AcDbScale
 70
     0
300
1:40
140
1.0
141
40.0
290
     0
  0
SCALE
  5
52
102
{ACAD_REACTORS
330
47
102
}
330
47
100
AcDbScale
 70
     0
300
1:50
140
1.0
141
50.0
290
     0
  0
SCALE
  5
53
102
{ACAD_REACTORS
330
47
102
}
330
47
100
AcDbScale
 70
     0
300
1:100
140
1.0
141
100.0
290
     0
  0
SCALE
  5
54
102
{ACAD_REACTORS
330
47
102
}
330
47
100
AcDbScale
 70
     0
300
2:1
140
2.0
141
1.0
290
     0
  0
SCALE
  5
55
102
{ACAD_REACTORS
330
47
102
}
330
47
100
AcDbScale
 70
     0
300
4:1
140
4.0
141
1.0
290
     0
  0
SCALE
  5
56
102
{ACAD_REACTORS
330
47
102
}
330
47
100
AcDbScale
 70
     0
300
8:1
140
8.0
141
1.0
290
     0
  0
SCALE
  5
57
102
{ACAD_REACTORS
330
47
102
}
330
47
100
AcDbScale
 70
     0
300
10:1
140
10.0
141
1.0
290
     0
  0
SCALE
  5
58
102
{ACAD_REACTORS
330
47
102
}
330
47
100
AcDbScale
 70
     0
300
100:1
140
100.0
141
1.0
290
     0
  0
SCALE
  5
59
102
{ACAD_REACTORS
330
47
102
}
330
47
100
AcDbScale
 70
     0
300
1/128" = 1'-0"
140
0.0078125
141
12.0
290
     0
  0
SCALE
  5
5A
102
{ACAD_REACTORS
330
47
102
}
330
47
100
AcDbScale
 70
     0
300
1/64" = 1'-0"
140
0.015625
141
12.0
290
     0
  0
SCALE
  5
5B
102
{ACAD_REACTORS
330
47
102
}
330
47
100
AcDbScale
 70
     0
300
1/32" = 1'-0"
140
0.03125
141
12.0
290
     0
  0
SCALE
  5
5C
102
{ACAD_REACTORS
330
47
102
}
330
47
100
AcDbScale
 70
     0
300
1/16" = 1'-0"
140
0.0625
141
12.0
290
     0
  0
SCALE
  5
5D
102
{ACAD_REACTORS
330
47
102
}
330
47
100
AcDbScale
 70
     0
300
3/32" = 1'-0"
140
0.09375
141
12.0
290
     0
  0
SCALE
  5
5E
102
{ACAD_REACTORS
330
47
102
}
330
47
100
AcDbScale
 70
     0
300
1/8" = 1'-0"
140
0.125
141
12.0
290
     0
  0
SCALE
  5
5F
102
{ACAD_REACTORS
330
47
102
}
330
47
100
AcDbScale
 70
     0
300
3/16" = 1'-0"
140
0.1875
141
12.0
290
     0
  0
SCALE
  5
60
102
{ACAD_REACTORS
330
47
102
}
330
47
100
AcDbScale
 70
     0
300
1/4" = 1'-0"
140
0.25
141
12.0
290
     0
  0
SCALE
  5
61
102
{ACAD_REACTORS
330
47
102
}
330
47
100
AcDbScale
 70
     0
300
3/8" = 1'-0"
140
0.375
141
12.0
290
     0
  0
SCALE
  5
62
102
{ACAD_REACTORS
330
47
102
}
330
47
100
AcDbScale
 70
     0
300
1/2" = 1'-0"
140
0.5
141
12.0
290
     0
  0
SCALE
  5
63
102
{ACAD_REACTORS
330
47
102
}
330
47
100
AcDbScale
 70
     0
300
3/4" = 1'-0"
140
0.75
141
12.0
290
     0
  0
SCALE
  5
64
102
{ACAD_REACTORS
330
47
102
}
330
47
100
AcDbScale
 70
     0
300
1" = 1'-0"
140
1.0
141
12.0
290
     0
  0
SCALE
  5
65
102
{ACAD_REACTORS
330
47
102
}
330
47
100
AcDbScale
 70
     0
300
1-1/2" = 1'-0"
140
1.5
141
12.0
290
     0
  0
SCALE
  5
66
102
{ACAD_REACTORS
330
47
102
}
330
47
100
AcDbScale
 70
     0
300
3" = 1'-0"
140
3.0
141
12.0
290
     0
  0
SCALE
  5
67
102
{ACAD_REACTORS
330
47
102
}
330
47
100
AcDbScale
 70
     0
300
6" = 1'-0"
140
6.0
141
12.0
290
     0
  0
SCALE
  5
68
102
{ACAD_REACTORS
330
47
102
}
330
47
100
AcDbScale
 70
     0
300
1'-0" = 1'-0"
140
12.0
141
12.0
290
     0
  0
ENDSEC
  0
EOF
