  0
SECTION
  2
HEADER
  9
$ACADVER
  1
AC1012
  9
$DWGCODEPAGE
  3
dos932
  9
$INSBASE
 10
0.0
 20
0.0
 30
0.0
  9
$EXTMIN
 10
0.0
 20
0.0
 30
0.0
  9
$EXTMAX
 10
420.0
 20
297.0
 30
0.0
  9
$LIMMIN
 10
0.0
 20
0.0
  9
$LIMMAX
 10
420.0
 20
297.0
  9
$ORTHOMODE
 70
     0
  9
$REGENMODE
 70
     1
  9
$FILLMODE
 70
     1
  9
$QTEXTMODE
 70
     0
  9
$MIRRTEXT
 70
     1
  9
$DRAGMODE
 70
     2
  9
$LTSCALE
 40
1.0
  9
$OSMODE
 70
    37
  9
$ATTMODE
 70
     1
  9
$TEXTSIZE
 40
2.5
  9
$TRACEWID
 40
1.0
  9
$TEXTSTYLE
  7
STANDARD
  9
$CLAYER
  8
0
  9
$CELTYPE
  6
BYLAYER
  9
$CECOLOR
 62
   256
  9
$CELTSCALE
 40
1.0
  9
$DELOBJ
 70
     1
  9
$DISPSILH
 70
     0
  9
$DIMSCALE
 40
1.0
  9
$DIMASZ
 40
2.5
  9
$DIMEXO
 40
1.0
  9
$DIMDLI
 40
3.75
  9
$DIMRND
 40
0.0
  9
$DIMDLE
 40
0.0
  9
$DIMEXE
 40
1.0
  9
$DIMTP
 40
0.0
  9
$DIMTM
 40
0.0
  9
$DIMTXT
 40
5.0
  9
$DIMCEN
 40
2.5
  9
$DIMTSZ
 40
0.0
  9
$DIMTOL
 70
     0
  9
$DIMLIM
 70
     0
  9
$DIMTIH
 70
     1
  9
$DIMTOH
 70
     1
  9
$DIMSE1
 70
     0
  9
$DIMSE2
 70
     0
  9
$DIMTAD
 70
     1
  9
$DIMZIN
 70
     0
  9
$DIMBLK
  1

  9
$DIMASO
 70
     1
  9
$DIMSHO
 70
     1
  9
$DIMPOST
  1

  9
$DIMAPOST
  1

  9
$DIMALT
 70
     0
  9
$DIMALTD
 70
     3
  9
$DIMALTF
 40
0.0393700787
  9
$DIMLFAC
 40
1.0
  9
$DIMTOFL
 70
     1
  9
$DIMTVP
 40
0.0
  9
$DIMTIX
 70
     0
  9
$DIMSOXD
 70
     0
  9
$DIMSAH
 70
     0
  9
$DIMBLK1
  1

  9
$DIMBLK2
  1

  9
$DIMSTYLE
  2
ISO-25
  9
$DIMCLRD
 70
     0
  9
$DIMCLRE
 70
     0
  9
$DIMCLRT
 70
     0
  9
$DIMTFAC
 40
1.0
  9
$DIMGAP
 40
1.524
  9
$DIMJUST
 70
     0
  9
$DIMSD1
 70
     0
  9
$DIMSD2
 70
     0
  9
$DIMTOLJ
 70
     0
  9
$DIMTZIN
 70
     0
  9
$DIMALTZ
 70
     0
  9
$DIMALTTZ
 70
     0
  9
$DIMFIT
 70
     3
  9
$DIMUPT
 70
     0
  9
$DIMUNIT
 70
     2
  9
$DIMDEC
 70
     2
  9
$DIMTDEC
 70
     2
  9
$DIMALTU
 70
     2
  9
$DIMALTTD
 70
     3
  9
$DIMTXSTY
  7
STANDARD
  9
$DIMAUNIT
 70
     0
  9
$LUNITS
 70
     2
  9
$LUPREC
 70
     2
  9
$SKETCHINC
 40
1.0
  9
$FILLETRAD
 40
10.0
  9
$AUNITS
 70
     0
  9
$AUPREC
 70
     2
  9
$MENU
  1
.
  9
$ELEVATION
 40
0.0
  9
$PELEVATION
 40
0.0
  9
$THICKNESS
 40
0.0
  9
$LIMCHECK
 70
     0
  9
$CHAMFERA
 40
0.0
  9
$CHAMFERB
 40
0.0
  9
$CHAMFERC
 40
0.0
  9
$CHAMFERD
 40
0.0
  9
$SKPOLY
 70
     0
  9
$TDCREATE
 40
2459824.588426632
  9
$TDUPDATE
 40
2459824.588427616
  9
$TDINDWG
 40
0.0000000116
  9
$TDUSRTIMER
 40
0.0000000116
  9
$USRTIMER
 70
     1
  9
$ANGBASE
 50
0.0
  9
$ANGDIR
 70
     0
  9
$PDMODE
 70
     0
  9
$PDSIZE
 40
-1.0
  9
$PLINEWID
 40
0.0
  9
$COORDS
 70
     1
  9
$SPLFRAME
 70
     0
  9
$SPLINETYPE
 70
     6
  9
$SPLINESEGS
 70
     8
  9
$ATTDIA
 70
     0
  9
$ATTREQ
 70
     1
  9
$HANDLING
 70
     1
  9
$HANDSEED
  5
3FD
  9
$SURFTAB1
 70
     6
  9
$SURFTAB2
 70
     6
  9
$SURFTYPE
 70
     6
  9
$SURFU
 70
     6
  9
$SURFV
 70
     6
  9
$UCSNAME
  2

  9
$UCSORG
 10
0.0
 20
0.0
 30
0.0
  9
$UCSXDIR
 10
1.0
 20
0.0
 30
0.0
  9
$UCSYDIR
 10
0.0
 20
1.0
 30
0.0
  9
$PUCSNAME
  2

  9
$PUCSORG
 10
0.0
 20
0.0
 30
0.0
  9
$PUCSXDIR
 10
1.0
 20
0.0
 30
0.0
  9
$PUCSYDIR
 10
0.0
 20
1.0
 30
0.0
  9
$USERI1
 70
     0
  9
$USERI2
 70
     0
  9
$USERI3
 70
     0
  9
$USERI4
 70
     0
  9
$USERI5
 70
     0
  9
$USERR1
 40
0.0
  9
$USERR2
 40
0.0
  9
$USERR3
 40
0.0
  9
$USERR4
 40
0.0
  9
$USERR5
 40
0.0
  9
$WORLDVIEW
 70
     1
  9
$SHADEDGE
 70
     3
  9
$SHADEDIF
 70
    70
  9
$TILEMODE
 70
     1
  9
$MAXACTVP
 70
    64
  9
$PINSBASE
 10
0.0
 20
0.0
 30
0.0
  9
$PLIMCHECK
 70
     0
  9
$PEXTMIN
 10
1.0000000000E+20
 20
1.0000000000E+20
 30
1.0000000000E+20
  9
$PEXTMAX
 10
-1.0000000000E+20
 20
-1.0000000000E+20
 30
-1.0000000000E+20
  9
$PLIMMIN
 10
0.0
 20
0.0
  9
$PLIMMAX
 10
420.0
 20
297.0
  9
$UNITMODE
 70
     0
  9
$VISRETAIN
 70
     1
  9
$PLINEGEN
 70
     0
  9
$PSLTSCALE
 70
     1
  9
$TREEDEPTH
 70
  3020
  9
$PICKSTYLE
 70
     1
  9
$CMLSTYLE
  2
STANDARD
  9
$CMLJUST
 70
     0
  9
$CMLSCALE
 40
20.0
  9
$SAVEIMAGES
 70
     1
  0
ENDSEC
  0
SECTION
  2
CLASSES
  0
CLASS
  1
ACDBDICTIONARYWDFLT
  2
AcDbDictionaryWithDefault
  3
ObjectDBX Classes
 90
    32768
280
     0
281
     0
  0
CLASS
  1
VISUALSTYLE
  2
AcDbVisualStyle
  3
ObjectDBX Classes
 90
     4095
280
     0
281
     0
  0
CLASS
  1
MATERIAL
  2
AcDbMaterial
  3
ObjectDBX Classes
 90
     1153
280
     0
281
     0
  0
CLASS
  1
SCALE
  2
AcDbScale
  3
ObjectDBX Classes
 90
     1153
280
     0
281
     0
  0
CLASS
  1
TABLESTYLE
  2
AcDbTableStyle
  3
ObjectDBX Classes
 90
     4095
280
     0
281
     0
  0
CLASS
  1
MLEADERSTYLE
  2
AcDbMLeaderStyle
  3
ACDB_MLEADERSTYLE_CLASS
 90
     4095
280
     0
281
     0
  0
CLASS
  1
SUN
  2
AcDbSun
  3
SCENEOE
 90
     1153
280
     0
281
     0
  0
CLASS
  1
XRECORD
  2
AcDbXrecord
  3
ObjectDBX Classes
 90
    32768
280
     0
281
     0
  0
ENDSEC
  0
SECTION
  2
TABLES
  0
TABLE
  2
VPORT
  5
8
330
0
100
AcDbSymbolTable
 70
     1
  0
VPORT
  5
29
330
8
100
AcDbSymbolTableRecord
100
AcDbViewportTableRecord
  2
*ACTIVE
 70
     0
 10
0.0
 20
0.0
 11
1.0
 21
1.0
 12
210.0
 22
148.5
 13
0.0
 23
0.0
 14
10.0
 24
10.0
 15
10.0
 25
10.0
 16
0.0
 26
0.0
 36
1.0
 17
0.0
 27
0.0
 37
0.0
 40
297.0
 41
1.4141414141
 42
50.0
 43
0.0
 44
0.0
 50
0.0
 51
0.0
 71
     0
 72
  2000
 73
     1
 74
     3
 75
     0
 76
     0
 77
     0
 78
     0
  0
ENDTAB
  0
TABLE
  2
LTYPE
  5
5
330
0
100
AcDbSymbolTable
 70
     6
  0
LTYPE
  5
14
330
5
100
AcDbSymbolTableRecord
100
AcDbLinetypeTableRecord
  2
BYBLOCK
 70
     0
  3

 72
    65
 73
     0
 40
0.0
  0
LTYPE
  5
15
330
5
100
AcDbSymbolTableRecord
100
AcDbLinetypeTableRecord
  2
BYLAYER
 70
     0
  3

 72
    65
 73
     0
 40
0.0
  0
LTYPE
  5
16
330
5
100
AcDbSymbolTableRecord
100
AcDbLinetypeTableRecord
  2
CONTINUOUS
 70
     0
  3
Solid line
 72
    65
 73
     0
 40
0.0
  0
LTYPE
  5
6E
330
5
100
AcDbSymbolTableRecord
100
AcDbLinetypeTableRecord
  2
HIDDEN
 70
     0
  3
Hidden __ __ __ __ __ __ __ __ __ __ __ __ __ __
 72
    65
 73
     2
 40
1.905
 49
1.27
 74
     0
 49
-0.635
 74
     0
  0
LTYPE
  5
6F
330
5
100
AcDbSymbolTableRecord
100
AcDbLinetypeTableRecord
  2
PHANTOM
 70
     0
  3
Phantom ______  __  __  ______  __  __  ______
 72
    65
 73
     6
 40
12.7
 49
6.35
 74
     0
 49
-1.27
 74
     0
 49
1.27
 74
     0
 49
-1.27
 74
     0
 49
1.27
 74
     0
 49
-1.27
 74
     0
  0
LTYPE
  5
70
330
5
100
AcDbSymbolTableRecord
100
AcDbLinetypeTableRecord
  2
CENTER
 70
     0
  3
Center ____ _ ____ _ ____ _ ____ _ ____ _ ____
 72
    65
 73
     4
 40
10.16
 49
6.35
 74
     0
 49
-1.27
 74
     0
 49
1.27
 74
     0
 49
-1.27
 74
     0
  0
LTYPE
  5
71
330
5
100
AcDbSymbolTableRecord
100
AcDbLinetypeTableRecord
  2
CENTERX2
 70
     0
  3
Center (2x) ________  __  ________  __  _____
 72
    65
 73
     4
 40
20.32
 49
12.7
 74
     0
 49
-2.54
 74
     0
 49
2.54
 74
     0
 49
-2.54
 74
     0
  0
LTYPE
  5
72
330
5
100
AcDbSymbolTableRecord
100
AcDbLinetypeTableRecord
  2
DOT2
 70
     0
  3
Dot (.5x) ........................................
 72
    65
 73
     2
 40
0.635
 49
0.0
 74
     0
 49
-0.635
 74
     0
  0
ENDTAB
  0
TABLE
  2
LAYER
  5
2
330
0
100
AcDbSymbolTable
 70
    11
  0
LAYER
  5
10
330
2
100
AcDbSymbolTableRecord
100
AcDbLayerTableRecord
  2
0
 70
     0
 62
     7
  6
CONTINUOUS
  0
LAYER
  5
73
330
2
100
AcDbSymbolTableRecord
100
AcDbLayerTableRecord
  2
寸法
 70
     0
 62
     7
  6
CONTINUOUS
  0
LAYER
  5
74
330
2
100
AcDbSymbolTableRecord
100
AcDbLayerTableRecord
  2
FORMAT
 70
     0
 62
     7
  6
CONTINUOUS
  0
LAYER
  5
75
330
2
100
AcDbSymbolTableRecord
100
AcDbLayerTableRecord
  2
外形線
 70
     0
 62
     7
  6
CONTINUOUS
  0
LAYER
  5
76
330
2
100
AcDbSymbolTableRecord
100
AcDbLayerTableRecord
  2
注記
 70
     0
 62
   196
  6
CONTINUOUS
  0
LAYER
  5
77
330
2
100
AcDbSymbolTableRecord
100
AcDbLayerTableRecord
  2
図枠
 70
     0
 62
     7
  6
CONTINUOUS
  0
LAYER
  5
78
330
2
100
AcDbSymbolTableRecord
100
AcDbLayerTableRecord
  2
隠れ線
 70
     0
 62
     7
  6
HIDDEN
  0
LAYER
  5
79
330
2
100
AcDbSymbolTableRecord
100
AcDbLayerTableRecord
  2
特殊指定線
 70
     0
 62
   196
  6
CENTER
  0
LAYER
  5
7A
330
2
100
AcDbSymbolTableRecord
100
AcDbLayerTableRecord
  2
想像線
 70
     0
 62
     7
  6
PHANTOM
  0
LAYER
  5
7B
330
2
100
AcDbSymbolTableRecord
100
AcDbLayerTableRecord
  2
モデル寸法
 70
     0
 62
     5
  6
CONTINUOUS
  0
LAYER
  5
7C
330
2
100
AcDbSymbolTableRecord
100
AcDbLayerTableRecord
  2
改定記号
 70
     0
 62
   216
  6
CONTINUOUS
  0
ENDTAB
  0
TABLE
  2
STYLE
  5
3
330
0
100
AcDbSymbolTable
 70
     1
  0
STYLE
  5
11
330
3
100
AcDbSymbolTableRecord
100
AcDbTextStyleTableRecord
  2
STANDARD
 70
     0
 40
0.0
 41
1.0
 50
0.0
 71
     0
 42
2.5
  3
txt
  4
bigfont
  0
ENDTAB
  0
TABLE
  2
VIEW
  5
6
330
0
100
AcDbSymbolTable
 70
     0
  0
ENDTAB
  0
TABLE
  2
UCS
  5
7
330
0
100
AcDbSymbolTable
 70
     0
  0
ENDTAB
  0
TABLE
  2
APPID
  5
9
330
0
100
AcDbSymbolTable
 70
     1
  0
APPID
  5
12
330
9
100
AcDbSymbolTableRecord
100
AcDbRegAppTableRecord
  2
ACAD
 70
     0
  0
ENDTAB
  0
TABLE
  2
DIMSTYLE
  5
A
330
0
100
AcDbSymbolTable
 70
     1
  0
DIMSTYLE
105
27
330
A
100
AcDbSymbolTableRecord
100
AcDbDimStyleTableRecord
  2
ISO-25
 70
     0
  3

  4

  5

  6

  7

 40
1.0
 41
2.5
 42
0.625
 43
3.75
 44
1.25
 45
0.0
 46
0.0
 47
0.0
 48
0.0
140
2.5
141
2.5
142
0.0
143
0.0393700787
144
1.0
145
0.0
146
1.0
147
0.625
 71
     0
 72
     0
 73
     0
 74
     0
 75
     0
 76
     0
 77
     1
 78
     8
170
     0
171
     3
172
     1
173
     0
174
     0
175
     0
176
     0
177
     0
178
     0
270
     2
271
     2
272
     2
273
     2
274
     3
340
11
275
     0
280
     0
281
     0
282
     0
283
     0
284
     8
285
     0
286
     0
287
     3
288
     0
  0
ENDTAB
  0
TABLE
  2
BLOCK_RECORD
  5
1
330
0
100
AcDbSymbolTable
 70
     1
  0
BLOCK_RECORD
  5
1F
330
1
100
AcDbSymbolTableRecord
100
AcDbBlockTableRecord
  2
*MODEL_SPACE
  0
BLOCK_RECORD
  5
1B
330
1
100
AcDbSymbolTableRecord
100
AcDbBlockTableRecord
  2
*PAPER_SPACE
  0
BLOCK_RECORD
  5
23
330
1
100
AcDbSymbolTableRecord
100
AcDbBlockTableRecord
  2
*PAPER_SPACE0
  0
ENDTAB
  0
ENDSEC
  0
SECTION
  2
BLOCKS
  0
BLOCK
  5
20
330
1F
100
AcDbEntity
  8
0
100
AcDbBlockBegin
  2
*MODEL_SPACE
 70
     0
 10
0.0
 20
0.0
 30
0.0
  3
*MODEL_SPACE
  1

  0
ENDBLK
  5
21
330
1F
100
AcDbEntity
  8
0
100
AcDbBlockEnd
  0
BLOCK
  5
1C
330
1B
100
AcDbEntity
 67
     1
  8
0
100
AcDbBlockBegin
  2
*PAPER_SPACE
 70
     0
 10
0.0
 20
0.0
 30
0.0
  3
*PAPER_SPACE
  1

  0
ENDBLK
  5
1D
330
1B
100
AcDbEntity
 67
     1
  8
0
100
AcDbBlockEnd
  0
BLOCK
  5
24
330
23
100
AcDbEntity
  8
0
100
AcDbBlockBegin
  2
*PAPER_SPACE0
 70
     0
 10
0.0
 20
0.0
 30
0.0
  3
*PAPER_SPACE0
  1

  0
ENDBLK
  5
25
330
23
100
AcDbEntity
  8
0
100
AcDbBlockEnd
  0
ENDSEC
  0
SECTION
  2
ENTITIES
  0
LINE
  5
7D
330
1F
100
AcDbEntity
  8
0
  6
CONTINUOUS
 62
     7
100
AcDbLine
 10
160.8636000476
 20
113.5979896978
 30
0.0
 11
160.9133708546
 21
114.5305624912
 31
0.0
  0
LINE
  5
7E
330
1F
100
AcDbEntity
  8
0
  6
CONTINUOUS
 62
     7
100
AcDbLine
 10
154.8724102496
 20
113.5979896978
 30
0.0
 11
160.8636000476
 21
113.5979896978
 31
0.0
  0
LINE
  5
7F
330
1F
100
AcDbEntity
  8
0
  6
CONTINUOUS
 62
     7
100
AcDbLine
 10
154.8226394426
 20
114.5305624912
 30
0.0
 11
154.8724102496
 21
113.5979896978
 31
0.0
  0
LINE
  5
80
330
1F
100
AcDbEntity
  8
0
  6
CONTINUOUS
 62
     7
100
AcDbLine
 10
160.9133708546
 20
114.5305624912
 30
0.0
 11
154.8226394426
 21
114.5305624912
 31
0.0
  0
LINE
  5
81
330
1F
100
AcDbEntity
  8
0
  6
CONTINUOUS
 62
     7
100
AcDbLine
 10
154.8724102496
 20
113.5979896978
 30
0.0
 11
154.8680051486
 21
112.4961577034
 31
0.0
  0
LINE
  5
82
330
1F
100
AcDbEntity
  8
0
  6
CONTINUOUS
 62
     7
100
AcDbLine
 10
154.8680051486
 20
112.4961577034
 30
0.0
 11
154.8680051486
 21
105.9547224071
 31
0.0
  0
LINE
  5
83
330
1F
100
AcDbEntity
  8
0
  6
CONTINUOUS
 62
     7
100
AcDbLine
 10
154.8680051486
 20
105.9547224071
 30
0.0
 11
154.8523079438
 21
105.5986115451
 31
0.0
  0
LINE
  5
84
330
1F
100
AcDbEntity
  8
0
  6
CONTINUOUS
 62
     7
100
AcDbLine
 10
154.8523079438
 20
105.5986115451
 30
0.0
 11
154.8456694181
 21
104.9939988602
 31
0.0
  0
LINE
  5
85
330
1F
100
AcDbEntity
  8
0
  6
CONTINUOUS
 62
     7
100
AcDbLine
 10
154.8456694181
 20
104.9939988602
 30
0.0
 11
154.8226394426
 21
103.2539570363
 31
0.0
  0
LINE
  5
86
330
1F
100
AcDbEntity
  8
0
  6
CONTINUOUS
 62
     7
100
AcDbLine
 10
154.8226394426
 20
114.5305624912
 30
0.0
 11
154.8226394426
 21
103.2539570363
 31
0.0
  0
LINE
  5
87
330
1F
100
AcDbEntity
  8
0
  6
CONTINUOUS
 62
     7
100
AcDbLine
 10
160.8903408791
 20
104.9939988602
 30
0.0
 11
160.9133708546
 21
103.2539570363
 31
0.0
  0
LINE
  5
88
330
1F
100
AcDbEntity
  8
0
  6
CONTINUOUS
 62
     7
100
AcDbLine
 10
154.8226394426
 20
103.2539570363
 30
0.0
 11
160.9133708546
 21
103.2539570363
 31
0.0
  0
LINE
  5
89
330
1F
100
AcDbEntity
  8
0
  6
CONTINUOUS
 62
     7
100
AcDbLine
 10
160.8903408791
 20
104.9939988602
 30
0.0
 11
154.8456694181
 21
104.9939988602
 31
0.0
  0
LINE
  5
8A
330
1F
100
AcDbEntity
  8
0
  6
CONTINUOUS
 62
     7
100
AcDbLine
 10
163.8489025373
 20
134.9446611469
 30
0.0
 11
163.8489025373
 21
86.9448171612
 31
0.0
  0
LINE
  5
8B
330
1F
100
AcDbEntity
  8
0
  6
CONTINUOUS
 62
     7
100
AcDbLine
 10
163.8680051486
 20
86.9448171612
 30
0.0
 11
163.8680051486
 21
134.9446611469
 31
0.0
  0
ARC
  5
8C
330
1F
100
AcDbEntity
  8
0
  6
CONTINUOUS
 62
     7
100
AcDbCircle
 10
155.1680051486
 20
86.9448171612
 30
0.0
 40
3.299999999999997
100
AcDbArc
 50
180.0
 51
270.0
  0
ARC
  5
8D
330
1F
100
AcDbEntity
  8
0
  6
CONTINUOUS
 62
     7
100
AcDbCircle
 10
155.1680051486
 20
86.9448171612
 30
0.0
 40
3.280897388655262
100
AcDbArc
 50
180.0
 51
270.0
  0
LINE
  5
8E
330
1F
100
AcDbEntity
  8
0
  6
CONTINUOUS
 62
     7
100
AcDbLine
 10
160.9133708546
 20
103.2539570363
 30
0.0
 11
160.9133708546
 21
114.5305624912
 31
0.0
  0
LINE
  5
8F
330
1F
100
AcDbEntity
  8
0
  6
CONTINUOUS
 62
     7
100
AcDbLine
 10
151.88710776
 20
86.9448171612
 30
0.0
 11
151.88710776
 21
134.9446611469
 31
0.0
  0
ARC
  5
90
330
1F
100
AcDbEntity
  8
0
  6
CONTINUOUS
 62
     7
100
AcDbCircle
 10
155.1680051486
 20
134.9446611469
 30
0.0
 40
3.280897388655262
100
AcDbArc
 50
90.0
 51
180.0
  0
LINE
  5
91
330
1F
100
AcDbEntity
  8
0
  6
CONTINUOUS
 62
     7
100
AcDbLine
 10
155.1680051486
 20
138.2255585355
 30
0.0
 11
160.5680051486
 21
138.2255585355
 31
0.0
  0
ARC
  5
92
330
1F
100
AcDbEntity
  8
0
  6
CONTINUOUS
 62
     7
100
AcDbCircle
 10
160.5680051486
 20
134.9446611469
 30
0.0
 40
3.280897388655262
100
AcDbArc
 50
0.0
 51
90.0
  0
ARC
  5
93
330
1F
100
AcDbEntity
  8
0
  6
CONTINUOUS
 62
     7
100
AcDbCircle
 10
160.5680051486
 20
86.9448171612
 30
0.0
 40
3.280897388655262
100
AcDbArc
 50
270.0
 51
0.0
  0
LINE
  5
94
330
1F
100
AcDbEntity
  8
0
  6
CONTINUOUS
 62
     7
100
AcDbLine
 10
160.5680051486
 20
83.6639197725
 30
0.0
 11
155.1680051486
 21
83.6639197725
 31
0.0
  0
LINE
  5
95
330
1F
100
AcDbEntity
  8
0
  6
CONTINUOUS
 62
     7
100
AcDbLine
 10
151.8680051486
 20
86.9448171612
 30
0.0
 11
151.8680051486
 21
134.9446611469
 31
0.0
  0
ARC
  5
96
330
1F
100
AcDbEntity
  8
0
  6
CONTINUOUS
 62
     7
100
AcDbCircle
 10
155.1680051486
 20
134.9446611469
 30
0.0
 40
3.300000000000011
100
AcDbArc
 50
90.0
 51
180.0
  0
LINE
  5
97
330
1F
100
AcDbEntity
  8
0
  6
CONTINUOUS
 62
     7
100
AcDbLine
 10
160.8903408791
 20
104.9939988602
 30
0.0
 11
160.8837023534
 21
105.5986115451
 31
0.0
  0
LINE
  5
98
330
1F
100
AcDbEntity
  8
0
  6
CONTINUOUS
 62
     7
100
AcDbLine
 10
160.8837023534
 20
105.5986115451
 30
0.0
 11
160.8680051486
 21
105.9547224071
 31
0.0
  0
LINE
  5
99
330
1F
100
AcDbEntity
  8
0
  6
CONTINUOUS
 62
     7
100
AcDbLine
 10
160.8680051486
 20
112.4961577034
 30
0.0
 11
160.8680051486
 21
105.9547224071
 31
0.0
  0
LINE
  5
9A
330
1F
100
AcDbEntity
  8
0
  6
CONTINUOUS
 62
     7
100
AcDbLine
 10
160.8636000476
 20
113.5979896978
 30
0.0
 11
160.8680051486
 21
112.4961577034
 31
0.0
  0
LINE
  5
9B
330
1F
100
AcDbEntity
  8
0
  6
CONTINUOUS
 62
     7
100
AcDbLine
 10
160.3680051486
 20
83.6535446936
 30
0.0
 11
155.3680051486
 21
83.6535446936
 31
0.0
  0
LINE
  5
9C
330
1F
100
AcDbEntity
  8
0
  6
CONTINUOUS
 62
     7
100
AcDbLine
 10
155.1680051486
 20
83.6448171612
 30
0.0
 11
155.3680051486
 21
83.6448171612
 31
0.0
  0
LINE
  5
9D
330
1F
100
AcDbEntity
  8
0
  6
CONTINUOUS
 62
     7
100
AcDbLine
 10
160.5680051486
 20
83.6448171612
 30
0.0
 11
160.3680051486
 21
83.6448171612
 31
0.0
  0
ARC
  5
9E
330
1F
100
AcDbEntity
  8
0
  6
CONTINUOUS
 62
     7
100
AcDbCircle
 10
160.5680051486
 20
86.9448171612
 30
0.0
 40
3.299999999999997
100
AcDbArc
 50
270.0
 51
0.0
  0
LINE
  5
9F
330
1F
100
AcDbEntity
  8
0
  6
CONTINUOUS
 62
     7
100
AcDbLine
 10
160.5680051486
 20
138.2446611469
 30
0.0
 11
160.3680051486
 21
138.2446611469
 31
0.0
  0
LINE
  5
A0
330
1F
100
AcDbEntity
  8
0
  6
CONTINUOUS
 62
     7
100
AcDbLine
 10
155.1680051486
 20
138.2446611469
 30
0.0
 11
155.3680051486
 21
138.2446611469
 31
0.0
  0
LINE
  5
A1
330
1F
100
AcDbEntity
  8
0
  6
CONTINUOUS
 62
     7
100
AcDbLine
 10
160.3680051486
 20
138.2359336144
 30
0.0
 11
155.3680051486
 21
138.2359336144
 31
0.0
  0
ARC
  5
A2
330
1F
100
AcDbEntity
  8
0
  6
CONTINUOUS
 62
     7
100
AcDbCircle
 10
160.5680051486
 20
134.9446611469
 30
0.0
 40
3.300000000000011
100
AcDbArc
 50
0.0
 51
90.0
  0
LINE
  5
A3
330
1F
100
AcDbEntity
  8
0
  6
CONTINUOUS
 62
     7
100
AcDbLine
 10
155.3680051486
 20
138.5166154859
 30
0.0
 11
155.3680051486
 21
138.2359336144
 31
0.0
  0
LINE
  5
A4
330
1F
100
AcDbEntity
  8
0
  6
CONTINUOUS
 62
     7
100
AcDbLine
 10
160.3680051486
 20
138.2359336144
 30
0.0
 11
160.3680051486
 21
138.5166154859
 31
0.0
  0
LINE
  5
A5
330
1F
100
AcDbEntity
  8
0
  6
CONTINUOUS
 62
     7
100
AcDbLine
 10
155.3680051486
 20
83.6535446936
 30
0.0
 11
155.3680051486
 21
83.3804570136
 31
0.0
  0
LINE
  5
A6
330
1F
100
AcDbEntity
  8
0
  6
CONTINUOUS
 62
     7
100
AcDbLine
 10
160.3680051486
 20
83.3804570136
 30
0.0
 11
160.3680051486
 21
83.6535446936
 31
0.0
  0
LINE
  5
A7
330
1F
100
AcDbEntity
  8
0
  6
CONTINUOUS
 62
     7
100
AcDbLine
 10
160.8837023534
 20
105.5986115451
 30
0.0
 11
154.8523079438
 21
105.5986115451
 31
0.0
  0
LINE
  5
A8
330
1F
100
AcDbEntity
  8
0
  6
CONTINUOUS
 62
     7
100
AcDbLine
 10
154.8680051486
 20
105.9547224071
 30
0.0
 11
160.8680051486
 21
105.9547224071
 31
0.0
  0
LINE
  5
A9
330
1F
100
AcDbEntity
  8
0
  6
CONTINUOUS
 62
     7
100
AcDbLine
 10
160.8680051486
 20
112.4961577034
 30
0.0
 11
154.8680051486
 21
112.4961577034
 31
0.0
  0
CIRCLE
  5
AA
330
1F
100
AcDbEntity
  8
0
  6
CONTINUOUS
 62
     7
100
AcDbCircle
 10
157.8680051486
 20
53.3446611468
 30
0.0
 40
0.3500000000000227
  0
LINE
  5
AB
330
1F
100
AcDbEntity
  8
0
  6
CONTINUOUS
 62
     7
100
AcDbLine
 10
131.903047827
 20
35.361913733
 30
0.0
 11
131.903047827
 21
53.8427397762
 31
0.0
  0
LINE
  5
AC
330
1F
100
AcDbEntity
  8
0
  6
CONTINUOUS
 62
     7
100
AcDbLine
 10
183.8329624703
 20
53.842730305
 30
0.0
 11
183.8329624703
 21
35.3619142513
 31
0.0
  0
SPLINE
  5
AD
330
1F
100
AcDbEntity
  8
0
  6
CONTINUOUS
 62
     7
100
AcDbSpline
210
0.0
220
0.0
230
1.0
 70
     8
 71
     3
 72
    51
 73
    47
 74
     0
 42
0.00000001
 43
0.00000001
 40
0.0
 40
0.0
 40
0.0
 40
0.0
 40
0.0226107805098484
 40
0.0452293095921781
 40
0.0678375366171749
 40
0.0900473357379683
 40
0.1122751977054956
 40
0.1345029127058369
 40
0.1567125112535991
 40
0.1795304205843119
 40
0.2023681034566957
 40
0.2252060601279387
 40
0.2480243431434604
 40
0.2708788727713214
 40
0.2937531437949051
 40
0.3166274511723409
 40
0.3394820304164431
 40
0.3630002495256672
 40
0.3865400592759529
 40
0.4100799346707982
 40
0.4335982433774636
 40
0.4564519949316164
 40
0.4793254518303661
 40
0.5021989742115857
 40
0.5250528151369612
 40
0.548571111812548
 40
0.5721111312200088
 40
0.5956512620466461
 40
0.6191697107976774
 40
0.6420018692122915
 40
0.6648536431442474
 40
0.6877050085274544
 40
0.7105366093496894
 40
0.7340302015219435
 40
0.7575452474593607
 40
0.7810603781661354
 40
0.8045540860384498
 40
0.8274239262800429
 40
0.8503135552452847
 40
0.8732030581485839
 40
0.8960727263386115
 40
0.9196082190467497
 40
0.9431653967264956
 40
0.9667219798908055
 40
0.9902566611453674
 40
1.0
 40
1.0
 40
1.0
 40
1.0
 10
132.648917400512
 20
33.20376399868502
 30
0.0
 10
132.9230060662403
 20
32.86204859297512
 30
0.0
 10
133.4712773261613
 20
32.17850067783182
 30
0.0
 10
134.3423258514719
 20
31.19386096276117
 30
0.0
 10
135.2453730118685
 20
30.24945615947916
 30
0.0
 10
136.1825036209217
 20
29.34966542600341
 30
0.0
 10
137.1490360337981
 20
28.49268232701609
 30
0.0
 10
138.1493691515288
 20
27.67538012389365
 30
0.0
 10
139.1909614979549
 20
26.89218261953828
 30
0.0
 10
140.2738659654596
 20
26.14609060946754
 30
0.0
 10
141.397219898818
 20
25.43929883653971
 30
0.0
 10
142.5488755987999
 20
24.77961821419271
 30
0.0
 10
143.72708359613
 20
24.16790823875733
 30
0.0
 10
144.9303854116733
 20
23.60549617310116
 30
0.0
 10
146.1570000736643
 20
23.09311706344552
 30
0.0
 10
147.4037642839219
 20
22.63192895940461
 30
0.0
 10
148.680437285484
 20
22.21893914931578
 30
0.0
 10
149.9859412516249
 20
21.85704514551414
 30
0.0
 10
151.3186673588203
 20
21.54836693804883
 30
0.0
 10
152.6633425265285
 20
21.29679029983073
 30
0.0
 10
154.0043825149323
 20
21.10474900598833
 30
0.0
 10
155.3394828528391
 20
20.97103370663111
 30
0.0
 10
156.6665033634157
 20
20.8935164865377
 30
0.0
 10
157.9955940106744
 20
20.87093968630081
 30
0.0
 10
159.3369771774353
 20
20.90361480414926
 30
0.0
 10
160.6886808450261
 20
20.99411167078845
 30
0.0
 10
162.0484542830367
 20
21.14408785047634
 30
0.0
 10
163.4005803136981
 20
21.35202577723878
 30
0.0
 10
164.7290961762106
 20
21.61508835518019
 30
0.0
 10
166.0323385270223
 20
21.93079552501519
 30
0.0
 10
167.3090647207366
 20
22.29628582792781
 30
0.0
 10
168.5695788421017
 20
22.71426404390395
 30
0.0
 10
169.8231928431669
 20
23.18887586148605
 30
0.0
 10
171.0672773549421
 20
23.72156953413024
 30
0.0
 10
172.2994615269808
 20
24.31252223518024
 30
0.0
 10
173.5053945036672
 20
24.95535714088883
 30
0.0
 10
174.6720963940366
 20
25.6426125542098
 30
0.0
 10
175.798504876574
 20
26.37197747877629
 30
0.0
 10
176.8841463913896
 20
27.14065235030952
 30
0.0
 10
177.9370117130865
 20
27.95364142630451
 30
0.0
 10
178.9646601123688
 20
28.81786199408601
 30
0.0
 10
179.964359962886
 20
29.73355378230809
 30
0.0
 10
180.9337082183703
 20
30.70028155244048
 30
0.0
 10
181.8604244433981
 20
31.70786873475023
 30
0.0
 10
182.5711141095303
 20
32.54930115363264
 30
0.0
 10
182.9702362909215
 20
33.05554453695843
 30
0.0
 10
183.0870936834267
 20
33.20376551917054
 30
0.0
  0
SPLINE
  5
AE
330
1F
100
AcDbEntity
  8
0
  6
CONTINUOUS
 62
     7
100
AcDbSpline
210
0.0
220
0.0
230
1.0
 70
     8
 71
     3
 72
    15
 73
    11
 74
     0
 42
0.00000001
 43
0.00000001
 40
0.0
 40
0.0
 40
0.0
 40
0.0
 40
0.1232586909476956
 40
0.2465173320326749
 40
0.3732574782971497
 40
0.4999976050838787
 40
0.6232571664949754
 40
0.7465167448584997
 40
0.8732583448007224
 40
1.0
 40
1.0
 40
1.0
 40
1.0
 10
132.648917400512
 20
33.20376399868502
 30
0.0
 10
132.5916971402611
 20
33.28034356800753
 30
0.0
 10
132.4772566429069
 20
33.4335026756733
 30
0.0
 10
132.3287283423902
 20
33.68236678679087
 30
0.0
 10
132.1988728866627
 20
33.94423938621468
 30
0.0
 10
132.091846795829
 20
34.21634014072052
 30
0.0
 10
132.0084787102605
 20
34.4937547665953
 30
0.0
 10
131.9484974746437
 20
34.77705440522788
 30
0.0
 10
131.9102649324033
 20
35.06710164883363
 30
0.0
 10
131.9054535291192
 20
35.26364302401692
 30
0.0
 10
131.9030478269528
 20
35.3619137330307
 30
0.0
  0
SPLINE
  5
AF
330
1F
100
AcDbEntity
  8
0
  6
CONTINUOUS
 62
     7
100
AcDbSpline
210
0.0
220
0.0
230
1.0
 70
     8
 71
     3
 72
    15
 73
    11
 74
     0
 42
0.00000001
 43
0.00000001
 40
0.0
 40
0.0
 40
0.0
 40
0.0
 40
0.123258692866826
 40
0.2465173358711607
 40
0.3732574802875118
 40
0.4999976052276823
 40
0.6232571685505072
 40
0.7465167488270937
 40
0.873258346785018
 40
1.0
 40
1.0
 40
1.0
 40
1.0
 10
183.8329624702516
 20
35.3619142512705
 30
0.0
 10
183.830687188414
 20
35.2663454175342
 30
0.0
 10
183.8261366256593
 20
35.0752077887226
 30
0.0
 10
183.7893055783912
 20
34.78774060024585
 30
0.0
 10
183.7297542332589
 20
34.50157064991754
 30
0.0
 10
183.645929810199
 20
34.22145143214473
 30
0.0
 10
183.5402148705317
 20
33.95176017778601
 30
0.0
 10
183.4124700480787
 20
33.69188019958195
 30
0.0
 10
183.2634513042482
 20
33.44012148613702
 30
0.0
 10
183.145879565577
 20
33.28255085294235
 30
0.0
 10
183.0870936834267
 20
33.20376551917054
 30
0.0
  0
SPLINE
  5
B0
330
1F
100
AcDbEntity
  8
0
  6
CONTINUOUS
 62
     7
100
AcDbSpline
210
0.0
220
0.0
230
1.0
 70
     8
 71
     3
 72
     8
 73
     4
 74
     0
 42
0.00000001
 43
0.00000001
 40
0.0
 40
0.0
 40
0.0
 40
0.0
 40
1.0
 40
1.0
 40
1.0
 40
1.0
 10
131.0997215233894
 20
158.6156022848847
 30
0.0
 10
131.0162121162666
 20
158.5064124843676
 30
0.0
 10
130.9345382686799
 20
158.3957591016974
 30
0.0
 10
130.8547534155262
 20
158.2836001003891
 30
0.0
  0
SPLINE
  5
B1
330
1F
100
AcDbEntity
  8
0
  6
CONTINUOUS
 62
     7
100
AcDbSpline
210
0.0
220
0.0
230
1.0
 70
     8
 71
     3
 72
    41
 73
    37
 74
     0
 42
0.00000001
 43
0.00000001
 40
0.0
 40
0.0
 40
0.0
 40
0.0
 40
0.1250000000000012
 40
0.1250000000000012
 40
0.1562500000000012
 40
0.1562500000000012
 40
0.1875000000000012
 40
0.1875000000000012
 40
0.2500000000000011
 40
0.3125000000000012
 40
0.3125000000000012
 40
0.3437500000000012
 40
0.3437500000000012
 40
0.3750000000000011
 40
0.3750000000000011
 40
0.5000000000000011
 40
0.5000000000000011
 40
0.5312500000000012
 40
0.5312500000000012
 40
0.5625000000000011
 40
0.5625000000000011
 40
0.6250000000000011
 40
0.6250000000000011
 40
0.687500000000001
 40
0.687500000000001
 40
0.718750000000001
 40
0.718750000000001
 40
0.7500000000000009
 40
0.7500000000000009
 40
0.8750000000000007
 40
0.8750000000000007
 40
0.9062500000000006
 40
0.9062500000000006
 40
0.9375000000000004
 40
0.9375000000000004
 40
1.0
 40
1.0
 40
1.0
 40
1.0
 10
184.6376623396521
 20
158.6138062496473
 30
0.0
 10
183.0576598822761
 20
160.6798654334027
 30
0.0
 10
181.2695238725518
 20
162.5289175060851
 30
0.0
 10
178.7810421302709
 20
164.5761208751733
 30
0.0
 10
178.270522547124
 20
164.9721916052619
 30
0.0
 10
177.2233682768053
 20
165.7371045885426
 30
0.0
 10
176.6865507524319
 20
166.1058934667344
 30
0.0
 10
175.0558957537287
 20
167.158311364682
 30
0.0
 10
172.815629428201
 20
168.4274114928338
 30
0.0
 10
170.4458764129633
 20
169.4336095310452
 30
0.0
 10
168.6190482099066
 20
170.0877288593373
 30
0.0
 10
167.9998744903935
 20
170.2895130524512
 30
0.0
 10
166.7558497264566
 20
170.6554660498136
 30
0.0
 10
166.1312833019028
 20
170.8197090108068
 30
0.0
 10
162.9959471022705
 20
171.5492081204117
 30
0.0
 10
160.4481515450568
 20
171.8428851158324
 30
0.0
 10
157.2132586654886
 20
171.8421485511302
 30
0.0
 10
156.5617819355181
 20
171.8232026809715
 30
0.0
 10
155.2684948571485
 20
171.748128711722
 30
0.0
 10
154.625632774177
 20
171.6921202409854
 30
0.0
 10
152.7081664258925
 20
171.4697768622068
 30
0.0
 10
151.4446465413065
 20
171.2492974940376
 30
0.0
 10
148.9468906835934
 20
170.6652941838386
 30
0.0
 10
147.7126528540385
 20
170.3017793097917
 30
0.0
 10
145.8839095131087
 20
169.6460462454033
 30
0.0
 10
145.2769701116619
 20
169.4084102653999
 30
0.0
 10
144.0859424128029
 20
168.9019881049507
 30
0.0
 10
143.5000818676002
 20
168.6326466219833
 30
0.0
 10
140.6181477417576
 20
167.2067876084151
 30
0.0
 10
138.4623210135191
 20
165.8159215552786
 30
0.0
 10
135.9592170992366
 20
163.7570479633806
 30
0.0
 10
135.4683489174345
 20
163.3288931047852
 30
0.0
 10
134.518452500358
 20
162.450915499007
 30
0.0
 10
134.057794864067
 20
161.9998044331092
 30
0.0
 10
132.7180144975359
 20
160.610680557625
 30
0.0
 10
131.8809490013241
 20
159.6369918382827
 30
0.0
 10
131.0998768822097
 20
158.6158056334203
 30
0.0
  0
SPLINE
  5
B2
330
1F
100
AcDbEntity
  8
0
  6
CONTINUOUS
 62
     7
100
AcDbSpline
210
0.0
220
0.0
230
1.0
 70
     8
 71
     3
 72
     8
 73
     4
 74
     0
 42
0.00000001
 43
0.00000001
 40
0.0
 40
0.0
 40
0.0
 40
0.0
 40
1.0
 40
1.0
 40
1.0
 40
1.0
 10
184.6376621568479
 20
158.6138061071608
 30
0.0
 10
184.7207129773453
 20
158.5052063482125
 30
0.0
 10
184.8019130399829
 20
158.3951391747618
 30
0.0
 10
184.8812568870712
 20
158.2836003222947
 30
0.0
  0
SPLINE
  5
B3
330
1F
100
AcDbEntity
  8
0
  6
CONTINUOUS
 62
     7
100
AcDbSpline
210
0.0
220
0.0
230
1.0
 70
     8
 71
     3
 72
     8
 73
     4
 74
     0
 42
0.00000001
 43
0.00000001
 40
0.0
 40
0.0
 40
0.0
 40
0.0
 40
1.0
 40
1.0
 40
1.0
 40
1.0
 10
160.5680051486143
 20
138.5682482122261
 30
0.0
 10
160.8789266944948
 20
138.5666025186132
 30
0.0
 10
161.1843111807894
 20
138.5253567522169
 30
0.0
 10
161.484178757725
 20
138.4446611468779
 30
0.0
  0
SPLINE
  5
B4
330
1F
100
AcDbEntity
  8
0
  6
CONTINUOUS
 62
     7
100
AcDbSpline
210
0.0
220
0.0
230
1.0
 70
     8
 71
     3
 72
    10
 73
     6
 74
     0
 42
0.00000001
 43
0.00000001
 40
0.0
 40
0.0
 40
0.0
 40
0.0
 40
0.5
 40
0.5
 40
1.0
 40
1.0
 40
1.0
 40
1.0
 10
155.1680051486143
 20
138.5682482122261
 30
0.0
 10
156.0634616171227
 20
138.5729878226209
 30
0.0
 10
156.9634237579849
 20
138.5753871246544
 30
0.0
 10
158.7725865392403
 20
138.5753871246544
 30
0.0
 10
159.672548680106
 20
138.5729878226209
 30
0.0
 10
160.5680051486143
 20
138.5682482122261
 30
0.0
  0
SPLINE
  5
B5
330
1F
100
AcDbEntity
  8
0
  6
CONTINUOUS
 62
     7
100
AcDbSpline
210
0.0
220
0.0
230
1.0
 70
     8
 71
     3
 72
     8
 73
     4
 74
     0
 42
0.00000001
 43
0.00000001
 40
0.0
 40
0.0
 40
0.0
 40
0.0
 40
1.0
 40
1.0
 40
1.0
 40
1.0
 10
155.1680051486143
 20
138.5682482122261
 30
0.0
 10
154.8570836027326
 20
138.5666025186132
 30
0.0
 10
154.5516991164369
 20
138.5253567522167
 30
0.0
 10
154.2518315395002
 20
138.444661146877
 30
0.0
  0
POLYLINE
  5
B6
330
1F
100
AcDbEntity
  8
0
  6
CONTINUOUS
 62
     7
100
AcDb2dPolyline
 66
     1
 10
0.0
 20
0.0
 30
0.0
 70
   128
  0
VERTEX
  5
2C0
330
B6
100
AcDbEntity
  8
0
  6
CONTINUOUS
 62
     7
100
AcDbVertex
100
AcDb2dVertex
 10
183.7653294191
 20
53.9086838331
 30
0.0
  0
VERTEX
  5
2C1
330
B6
100
AcDbEntity
  8
0
  6
CONTINUOUS
 62
     7
100
AcDbVertex
100
AcDb2dVertex
 10
183.8319463395
 20
53.8437211082
 30
0.0
  0
VERTEX
  5
2C2
330
B6
100
AcDbEntity
  8
0
  6
CONTINUOUS
 62
     7
100
AcDbVertex
100
AcDb2dVertex
 10
183.8985632765
 20
53.7787646328
 30
0.0
  0
VERTEX
  5
2C3
330
B6
100
AcDbEntity
  8
0
  6
CONTINUOUS
 62
     7
100
AcDbVertex
100
AcDb2dVertex
 10
183.9651802303
 20
53.7138144312
 30
0.0
  0
VERTEX
  5
2C4
330
B6
100
AcDbEntity
  8
0
  6
CONTINUOUS
 62
     7
100
AcDbVertex
100
AcDb2dVertex
 10
184.0317972009
 20
53.6488705279
 30
0.0
  0
SEQEND
  5
3DB
330
B6
100
AcDbEntity
  8
0
  6
CONTINUOUS
 62
     7
  0
LINE
  5
B7
330
1F
100
AcDbEntity
  8
0
  6
CONTINUOUS
 62
     7
100
AcDbLine
 10
131.7042130963
 20
53.6488705279
 30
0.0
 11
131.9706808781
 21
53.9086838331
 31
0.0
  0
LINE
  5
B8
330
1F
100
AcDbEntity
  8
0
  6
CONTINUOUS
 62
     7
100
AcDbLine
 10
129.8715478825
 20
53.9255110866
 30
0.0
 11
129.7665208234
 21
53.7705872812
 31
0.0
  0
SPLINE
  5
B9
330
1F
100
AcDbEntity
  8
0
  6
CONTINUOUS
 62
     7
100
AcDbSpline
210
0.0
220
0.0
230
1.0
 70
     8
 71
     3
 72
    12
 73
     8
 74
     0
 42
0.00000001
 43
0.00000001
 40
0.0
 40
0.0
 40
0.0
 40
0.0
 40
0.2499999999999996
 40
0.2499999999999996
 40
0.4999999999999991
 40
0.4999999999999991
 40
1.0
 40
1.0
 40
1.0
 40
1.0
 10
131.0712826092393
 20
54.01448136137546
 30
0.0
 10
130.8910135079978
 20
54.01212460275953
 30
0.0
 10
130.7291914876541
 20
54.00836858136804
 30
0.0
 10
130.4410259199053
 20
53.99816539700052
 30
0.0
 10
130.3139780506079
 20
53.99161751546931
 30
0.0
 10
130.0050469111833
 20
53.96872329746314
 30
0.0
 10
129.8872480504554
 20
53.94867016377245
 30
0.0
 10
129.8715478825025
 20
53.92551108662939
 30
0.0
  0
SPLINE
  5
BA
330
1F
100
AcDbEntity
  8
0
  6
CONTINUOUS
 62
     7
100
AcDbSpline
210
0.0
220
0.0
230
1.0
 70
     8
 71
     3
 72
    30
 73
    26
 74
     0
 42
0.00000001
 43
0.00000001
 40
0.0
 40
0.0
 40
0.0
 40
0.0
 40
0.1250000000000001
 40
0.1250000000000001
 40
0.2500000000000001
 40
0.2500000000000001
 40
0.2812500000000001
 40
0.2812500000000001
 40
0.3125000000000001
 40
0.3125000000000001
 40
0.3750000000000002
 40
0.3750000000000002
 40
0.5000000000000001
 40
0.5000000000000001
 40
0.5625
 40
0.5625
 40
0.6249999999999999
 40
0.6249999999999999
 40
0.7499999999999999
 40
0.7499999999999999
 40
0.8124999999999999
 40
0.8124999999999999
 40
0.8749999999999999
 40
0.8749999999999999
 40
1.0
 40
1.0
 40
1.0
 40
1.0
 10
184.6647276879893
 20
54.01448136137535
 30
0.0
 10
182.7311291105348
 20
54.03976037522737
 30
0.0
 10
180.707398911889
 20
54.06109881013684
 30
0.0
 10
176.4872327300059
 20
54.09898834478236
 30
0.0
 10
174.2907846681277
 20
54.1150286331114
 30
0.0
 10
171.4334305495887
 20
54.13140254686771
 30
0.0
 10
170.8558240004117
 20
54.13449507478813
 30
0.0
 10
169.6997725848077
 20
54.1402502993004
 30
0.0
 10
169.1200723968452
 20
54.14292064720141
 30
0.0
 10
167.376023650549
 20
54.15031317465118
 30
0.0
 10
166.2067348228591
 20
54.15441709794021
 30
0.0
 10
162.6794020928553
 20
54.16427356844816
 30
0.0
 10
160.3020185933167
 20
54.16757576174253
 30
0.0
 10
156.6961387210446
 20
54.16761683779098
 30
0.0
 10
155.485468154077
 20
54.16680010857727
 30
0.0
 10
153.0941489963256
 20
54.16351567730568
 30
0.0
 10
151.9081612635525
 20
54.16105167374574
 30
0.0
 10
148.3786569174014
 20
54.15122703115549
 30
0.0
 10
146.0634171667724
 20
54.14143642055289
 30
0.0
 10
142.6483001163517
 20
54.12195001957486
 30
0.0
 10
141.5151915957898
 20
54.11461776129441
 30
0.0
 10
139.2998907908137
 20
54.09849662397799
 30
0.0
 10
138.2158839960621
 20
54.08970509549325
 30
0.0
 10
135.0336948419771
 20
54.06116365561213
 30
0.0
 10
133.004881466306
 20
54.03976037888179
 30
0.0
 10
131.0712826092393
 20
54.01448136137546
 30
0.0
  0
SPLINE
  5
BB
330
1F
100
AcDbEntity
  8
0
  6
CONTINUOUS
 62
     7
100
AcDbSpline
210
0.0
220
0.0
230
1.0
 70
     8
 71
     3
 72
    12
 73
     8
 74
     0
 42
0.00000001
 43
0.00000001
 40
0.0
 40
0.0
 40
0.0
 40
0.0
 40
0.2499999999999983
 40
0.2499999999999983
 40
0.4999999999999966
 40
0.4999999999999966
 40
1.0
 40
1.0
 40
1.0
 40
1.0
 10
185.8644624147261
 20
53.92551108662853
 30
0.0
 10
185.8566122593946
 20
53.9370907304548
 30
0.0
 10
185.8239431039791
 20
53.94775395190925
 30
0.0
 10
185.7107888401508
 20
53.9673148277563
 30
0.0
 10
185.6288371159675
 20
53.97627362035288
 30
0.0
 10
185.320325611734
 20
53.99919058268494
 30
0.0
 10
185.0252700754691
 20
54.00976778943046
 30
0.0
 10
184.6647276879893
 20
54.01448136137535
 30
0.0
  0
LINE
  5
BC
330
1F
100
AcDbEntity
  8
0
  6
CONTINUOUS
 62
     7
100
AcDbLine
 10
185.9694894739
 20
53.7705872812
 30
0.0
 11
185.8644624147
 21
53.9255110866
 31
0.0
  0
SPLINE
  5
BD
330
1F
100
AcDbEntity
  8
0
  6
CONTINUOUS
 62
     7
100
AcDbSpline
210
0.0
220
0.0
230
1.0
 70
     8
 71
     3
 72
    38
 73
    34
 74
     0
 42
0.00000001
 43
0.00000001
 40
0.0
 40
0.0
 40
0.0
 40
0.0
 40
0.0312499999999999
 40
0.0312499999999999
 40
0.0624999999999998
 40
0.0624999999999998
 40
0.1249999999999999
 40
0.1249999999999999
 40
0.2500000000000001
 40
0.2500000000000001
 40
0.2812500000000001
 40
0.2812500000000001
 40
0.3125000000000001
 40
0.3125000000000001
 40
0.3750000000000002
 40
0.3750000000000002
 40
0.5000000000000002
 40
0.5000000000000002
 40
0.5625000000000002
 40
0.5625000000000002
 40
0.5937500000000002
 40
0.5937500000000002
 40
0.6250000000000002
 40
0.6250000000000002
 40
0.7500000000000001
 40
0.7500000000000001
 40
0.8125000000000001
 40
0.8125000000000001
 40
0.8750000000000001
 40
0.8750000000000001
 40
0.9375
 40
0.9375
 40
1.0
 40
1.0
 40
1.0
 40
1.0
 10
183.7653294191022
 20
53.90868383306154
 30
0.0
 10
183.2997567945874
 20
53.91548094155709
 30
0.0
 10
182.8264199239403
 20
53.9220858002061
 30
0.0
 10
181.8712027022721
 20
53.93482472583243
 30
0.0
 10
181.3883472246359
 20
53.94097321428531
 30
0.0
 10
179.9242950047946
 20
53.95877276105697
 30
0.0
 10
178.9276376607296
 20
53.9697787394975
 30
0.0
 10
175.8768790184705
 20
54.0003178941538
 30
0.0
 10
173.762387910688
 20
54.01738380705492
 30
0.0
 10
171.0160742307371
 20
54.03475387447714
 30
0.0
 10
170.4616198423025
 20
54.03802804334901
 30
0.0
 10
169.3421356316064
 20
54.04416724667468
 30
0.0
 10
168.7765808632614
 20
54.04703343225035
 30
0.0
 10
167.0810841939603
 20
54.05492876346158
 30
0.0
 10
165.9468039307769
 20
54.05928790026186
 30
0.0
 10
162.5324598672378
 20
54.06973512255059
 30
0.0
 10
160.2409650523532
 20
54.07320254780604
 30
0.0
 10
156.7808207762307
 20
54.07330054199196
 30
0.0
 10
155.6236042822412
 20
54.07248114229748
 30
0.0
 10
153.8818536841707
 20
54.06991119254768
 30
0.0
 10
153.2989519069994
 20
54.06882731309936
 30
0.0
 10
152.1408601066732
 20
54.06622341690573
 30
0.0
 10
151.5650461608379
 20
54.06470359635473
 30
0.0
 10
148.7018777270906
 20
54.05602814041107
 30
0.0
 10
146.4619171242643
 20
54.04565526351893
 30
0.0
 10
143.1767308535944
 20
54.02504757037113
 30
0.0
 10
142.0941884393329
 20
54.01733884161472
 30
0.0
 10
139.9547053079114
 20
54.00015216242478
 30
0.0
 10
138.8955812486723
 20
53.99064514905638
 30
0.0
 10
136.8332180996017
 20
53.97005371007975
 30
0.0
 10
135.8264716345047
 20
53.95894571683269
 30
0.0
 10
133.8616793309519
 20
53.93507114969788
 30
0.0
 10
132.9018278188243
 20
53.92227807474926
 30
0.0
 10
131.9706808781264
 20
53.90868383306114
 30
0.0
  0
LINE
  5
BE
330
1F
100
AcDbEntity
  8
0
  6
CONTINUOUS
 62
     7
100
AcDbLine
 10
160.5945793639
 20
138.3834196146
 30
0.0
 11
160.606755005
 21
138.444446633
 31
0.0
  0
LINE
  5
BF
330
1F
100
AcDbEntity
  8
0
  6
CONTINUOUS
 62
     7
100
AcDbLine
 10
160.5945793639
 20
138.3834196146
 30
0.0
 11
160.5445717475
 21
138.3834196146
 31
0.0
  0
LINE
  5
C0
330
1F
100
AcDbEntity
  8
0
  6
CONTINUOUS
 62
     7
100
AcDbLine
 10
160.5179975322
 20
138.5166154859
 30
0.0
 11
160.5445717475
 21
138.3834196146
 31
0.0
  0
LINE
  5
C1
330
1F
100
AcDbEntity
  8
0
  6
CONTINUOUS
 62
     7
100
AcDbLine
 10
155.2180051486
 20
138.5166154859
 30
0.0
 11
160.5179975322
 21
138.5166154859
 31
0.0
  0
LINE
  5
C2
330
1F
100
AcDbEntity
  8
0
  6
CONTINUOUS
 62
     7
100
AcDbLine
 10
155.2180051486
 20
138.5166154859
 30
0.0
 11
155.1914309333
 21
138.3834196146
 31
0.0
  0
LINE
  5
C3
330
1F
100
AcDbEntity
  8
0
  6
CONTINUOUS
 62
     7
100
AcDbLine
 10
155.1914309333
 20
138.3834196146
 30
0.0
 11
155.1414309333
 21
138.3834196146
 31
0.0
  0
LINE
  5
C4
330
1F
100
AcDbEntity
  8
0
  6
CONTINUOUS
 62
     7
100
AcDbLine
 10
155.1414309333
 20
138.3834196146
 30
0.0
 11
155.1292552922
 21
138.444446633
 31
0.0
  0
SPLINE
  5
C5
330
1F
100
AcDbEntity
  8
0
  6
CONTINUOUS
 62
     7
100
AcDbSpline
210
0.0
220
0.0
230
1.0
 70
     8
 71
     3
 72
    16
 73
    12
 74
     0
 42
0.00000001
 43
0.00000001
 40
0.0
 40
0.0
 40
0.0
 40
0.0
 40
0.250000000000001
 40
0.250000000000001
 40
0.500000000000002
 40
0.500000000000002
 40
0.750000000000003
 40
0.750000000000003
 40
0.8750000000000014
 40
0.8750000000000014
 40
1.0
 40
1.0
 40
1.0
 40
1.0
 10
151.5761973079784
 20
134.9446611468769
 30
0.0
 10
151.5761973079784
 20
135.3441270089887
 30
0.0
 10
151.640268179286
 20
135.7325491016637
 30
0.0
 10
151.8957677269562
 20
136.487480787354
 30
0.0
 10
152.0812313072388
 20
136.8352727942775
 30
0.0
 10
152.5638015434588
 20
137.4663113451607
 30
0.0
 10
152.8512973965843
 20
137.7364585279353
 30
0.0
 10
153.3448906846319
 20
138.0675816930553
 30
0.0
 10
153.5185242037831
 20
138.1642624491408
 30
0.0
 10
153.8758481050249
 20
138.3266907553375
 30
0.0
 10
154.0606681573767
 20
138.3932182900106
 30
0.0
 10
154.2518315395002
 20
138.444661146877
 30
0.0
  0
ARC
  5
C6
330
1F
100
AcDbEntity
  8
0
  6
CONTINUOUS
 62
     7
100
AcDbCircle
 10
155.1680051486
 20
134.9446611469
 30
0.0
 40
3.50000055651239
100
AcDbArc
 50
90.0
 51
90.635059216
  0
ARC
  5
C7
330
1F
100
AcDbEntity
  8
0
  6
CONTINUOUS
 62
     7
100
AcDbCircle
 10
155.1680051486
 20
134.9446611469
 30
0.0
 40
3.5
100
AcDbArc
 50
90.635059216
 51
180.0
  0
SPLINE
  5
C8
330
1F
100
AcDbEntity
  8
0
  6
CONTINUOUS
 62
     7
100
AcDbSpline
210
0.0
220
0.0
230
1.0
 70
     8
 71
     3
 72
    22
 73
    18
 74
     0
 42
0.00000001
 43
0.00000001
 40
0.0
 40
0.0
 40
0.0
 40
0.0
 40
0.125
 40
0.125
 40
0.25
 40
0.25
 40
0.375
 40
0.375
 40
0.5
 40
0.5
 40
0.625
 40
0.625
 40
0.75
 40
0.75
 40
0.875
 40
0.875
 40
1.0
 40
1.0
 40
1.0
 40
1.0
 10
161.484178757725
 20
138.4446611468779
 30
0.0
 10
161.674232245424
 20
138.3935169671924
 30
0.0
 10
161.8625385903542
 20
138.3257835918975
 30
0.0
 10
162.2204069699523
 20
138.1627590561535
 30
0.0
 10
162.3914693989836
 20
138.0672721192801
 30
0.0
 10
162.7179390432047
 20
137.8484119442474
 30
0.0
 10
162.874394841093
 20
137.7238078805414
 30
0.0
 10
163.1611196903831
 20
137.4542173239447
 30
0.0
 10
163.2925030864938
 20
137.3087848219831
 30
0.0
 10
163.5314790722196
 20
136.9967268265498
 30
0.0
 10
163.6398195419492
 20
136.8284275831751
 30
0.0
 10
163.8254881157885
 20
136.4802258922374
 30
0.0
 10
163.9034642373367
 20
136.3000092625034
 30
0.0
 10
164.0300037193935
 20
135.9274436943846
 30
0.0
 10
164.0787565591792
 20
135.7335386332827
 30
0.0
 10
164.1435127432547
 20
135.3417847370129
 30
0.0
 10
164.1598129892503
 20
135.1441263859968
 30
0.0
 10
164.1598129892503
 20
134.9446611468768
 30
0.0
  0
ARC
  5
C9
330
1F
100
AcDbEntity
  8
0
  6
CONTINUOUS
 62
     7
100
AcDbCircle
 10
160.5680051486
 20
134.9446611469
 30
0.0
 40
3.5
100
AcDbArc
 50
0.0
 51
89.364940784
  0
ARC
  5
CA
330
1F
100
AcDbEntity
  8
0
  6
CONTINUOUS
 62
     7
100
AcDbCircle
 10
160.5680051486
 20
134.9446611469
 30
0.0
 40
3.50000055651239
100
AcDbArc
 50
89.364940784
 51
90.0
  0
SPLINE
  5
CB
330
1F
100
AcDbEntity
  8
0
  6
CONTINUOUS
 62
     7
100
AcDbSpline
210
0.0
220
0.0
230
1.0
 70
     8
 71
     3
 72
    22
 73
    18
 74
     0
 42
0.00000001
 43
0.00000001
 40
0.0
 40
0.0
 40
0.0
 40
0.0
 40
0.1249999999999987
 40
0.1249999999999987
 40
0.2499999999999973
 40
0.2499999999999973
 40
0.374999999999996
 40
0.374999999999996
 40
0.4999999999999947
 40
0.4999999999999947
 40
0.624999999999996
 40
0.624999999999996
 40
0.7499999999999973
 40
0.7499999999999973
 40
0.8749999999999987
 40
0.8749999999999987
 40
1.0
 40
1.0
 40
1.0
 40
1.0
 10
155.1680051486143
 20
83.32121567775245
 30
0.0
 10
154.9299084524985
 20
83.32247621330602
 30
0.0
 10
154.6958117073212
 20
83.34714226166699
 30
0.0
 10
154.2359958268856
 20
83.44119592071034
 30
0.0
 10
154.0077969984646
 20
83.51169776756642
 30
0.0
 10
153.5729701739204
 20
83.69473043439292
 30
0.0
 10
153.3668935922673
 20
83.80636209380415
 30
0.0
 10
152.9770910025173
 20
84.06944010253181
 30
0.0
 10
152.7926635173025
 20
84.2222528755556
 30
0.0
 10
152.4620493186461
 20
84.55571787686821
 30
0.0
 10
152.3136898848369
 20
84.73750986702358
 30
0.0
 10
152.051621222966
 20
85.1319989648293
 30
0.0
 10
151.9401019474872
 20
85.3421583227463
 30
0.0
 10
151.7610451993944
 20
85.77640123137981
 30
0.0
 10
151.6921580976146
 20
86.0032730517386
 30
0.0
 10
151.599453306442
 20
86.47019747224421
 30
0.0
 10
151.5761973079784
 20
86.70621830545896
 30
0.0
 10
151.5761973079784
 20
86.94481716117595
 30
0.0
  0
ARC
  5
CC
330
1F
100
AcDbEntity
  8
0
  6
CONTINUOUS
 62
     7
100
AcDbCircle
 10
155.1680051486
 20
86.9448171612
 30
0.0
 40
3.500000000000001
100
AcDbArc
 50
180.0
 51
269.3649560522
  0
ARC
  5
CD
330
1F
100
AcDbEntity
  8
0
  6
CONTINUOUS
 62
     7
100
AcDbCircle
 10
155.1680051486
 20
86.9448171612
 30
0.0
 40
3.500002312918634
100
AcDbArc
 50
269.3649489173
 51
270.0
  0
ARC
  5
CE
330
1F
100
AcDbEntity
  8
0
  6
CONTINUOUS
 62
     7
100
AcDbCircle
 10
160.5680051486
 20
86.9448171612
 30
0.0
 40
3.5
100
AcDbArc
 50
270.2350060923
 51
0.0
  0
SPLINE
  5
CF
330
1F
100
AcDbEntity
  8
0
  6
CONTINUOUS
 62
     7
100
AcDbSpline
210
0.0
220
0.0
230
1.0
 70
     8
 71
     3
 72
    22
 73
    18
 74
     0
 42
0.00000001
 43
0.00000001
 40
0.0
 40
0.0
 40
0.0
 40
0.0
 40
0.1249999999999999
 40
0.1249999999999999
 40
0.2499999999999999
 40
0.2499999999999999
 40
0.3749999999999998
 40
0.3749999999999998
 40
0.4999999999999998
 40
0.4999999999999998
 40
0.6249999999999998
 40
0.6249999999999998
 40
0.7499999999999997
 40
0.7499999999999997
 40
0.8749999999999998
 40
0.8749999999999998
 40
1.0
 40
1.0
 40
1.0
 40
1.0
 10
164.1598129892503
 20
86.94481716117595
 30
0.0
 10
164.1598129892503
 20
86.70599561618275
 30
0.0
 10
164.1365170100617
 20
86.47118876443879
 30
0.0
 10
164.0452750479775
 20
86.00926471820216
 30
0.0
 10
163.9762195135906
 20
85.7797556084156
 30
0.0
 10
163.7960401490886
 20
85.34216814318765
 30
0.0
 10
163.685804847892
 20
85.13461480056917
 30
0.0
 10
163.4254265835855
 20
84.74170920349297
 30
0.0
 10
163.2739538872073
 20
84.55568848982684
 30
0.0
 10
162.9430143723973
 20
84.22193985910172
 30
0.0
 10
162.7624027475696
 20
84.07200416146176
 30
0.0
 10
162.3700710127086
 20
83.80679547823858
 30
0.0
 10
162.1610856583536
 20
83.69385038841106
 30
0.0
 10
161.7286681021035
 20
83.51194675674027
 30
0.0
 10
161.5021751265249
 20
83.4416097507966
 30
0.0
 10
161.037218180316
 20
83.3465608036441
 30
0.0
 10
160.8033116581715
 20
83.32246144145317
 30
0.0
 10
160.5680051486143
 20
83.32121567775245
 30
0.0
  0
ARC
  5
D0
330
1F
100
AcDbEntity
  8
0
  6
CONTINUOUS
 62
     7
100
AcDbCircle
 10
160.5680051486
 20
86.9448171612
 30
0.0
 40
3.500002312918635
100
AcDbArc
 50
270.0
 51
270.2349983828
  0
LINE
  5
D1
330
1F
100
AcDbEntity
  8
0
  6
CONTINUOUS
 62
     7
100
AcDbLine
 10
151.576197308
 20
86.9448171612
 30
0.0
 11
151.576197308
 21
134.9446611469
 31
0.0
  0
ELLIPSE
  5
D2
330
1F
100
AcDbEntity
  8
0
  6
CONTINUOUS
 62
     7
100
AcDbEllipse
 10
157.8680051486
 20
87.2248182756
 30
0.0
 11
44.69999999999999
 21
0.0
 31
0.0
210
0.0
220
0.0
230
1.0
 40
0.0874886635
 41
4.651949505678409
 42
4.772828455090973
  0
LINE
  5
D3
330
1F
100
AcDbEntity
  8
0
  6
CONTINUOUS
 62
     7
100
AcDbLine
 10
164.1598129893
 20
134.9446611469
 30
0.0
 11
164.1598129893
 21
86.9448171612
 31
0.0
  0
LINE
  5
D4
330
1F
100
AcDbEntity
  8
0
  6
CONTINUOUS
 62
     7
100
AcDbLine
 10
155.1292556515
 20
83.445029358
 30
0.0
 11
155.1414315176
 21
83.506057504
 31
0.0
  0
LINE
  5
D5
330
1F
100
AcDbEntity
  8
0
  6
CONTINUOUS
 62
     7
100
AcDbLine
 10
155.1929464232
 20
83.5060592256
 30
0.0
 11
155.1414313996
 21
83.5060592256
 31
0.0
  0
LINE
  5
D6
330
1F
100
AcDbEntity
  8
0
  6
CONTINUOUS
 62
     7
100
AcDbLine
 10
155.2180051486
 20
83.3804570136
 30
0.0
 11
155.1929464197
 21
83.5060569303
 31
0.0
  0
LINE
  5
D7
330
1F
100
AcDbEntity
  8
0
  6
CONTINUOUS
 62
     7
100
AcDbLine
 10
160.5179975322
 20
83.3804570136
 30
0.0
 11
155.2180051486
 21
83.3804570136
 31
0.0
  0
LINE
  5
D8
330
1F
100
AcDbEntity
  8
0
  6
CONTINUOUS
 62
     7
100
AcDbLine
 10
160.5179975322
 20
83.3804570136
 30
0.0
 11
160.5430562576
 21
83.5060592256
 31
0.0
  0
LINE
  5
D9
330
1F
100
AcDbEntity
  8
0
  6
CONTINUOUS
 62
     7
100
AcDbLine
 10
160.5823608136
 20
83.5060592256
 30
0.0
 11
160.5430562576
 21
83.5060592256
 31
0.0
  0
LINE
  5
DA
330
1F
100
AcDbEntity
  8
0
  6
CONTINUOUS
 62
     7
100
AcDbLine
 10
164.0680051486
 20
134.9446611469
 30
0.0
 11
164.0680051486
 21
86.9448171612
 31
0.0
  0
LINE
  5
DB
330
1F
100
AcDbEntity
  8
0
  6
CONTINUOUS
 62
     7
100
AcDbLine
 10
151.6680051486
 20
86.9448171612
 30
0.0
 11
151.6680051486
 21
134.9446611469
 31
0.0
  0
LINE
  5
DC
330
1F
100
AcDbEntity
  8
0
  6
CONTINUOUS
 62
     7
100
AcDbLine
 10
155.1292133156
 20
83.64504517
 30
0.0
 11
155.1292133156
 21
83.4450321401
 31
0.0
  0
LINE
  5
DD
330
1F
100
AcDbEntity
  8
0
  6
CONTINUOUS
 62
     7
100
AcDbLine
 10
155.1414313996
 20
83.5060592256
 30
0.0
 11
155.1414313996
 21
83.6449241575
 31
0.0
  0
LINE
  5
DE
330
1F
100
AcDbEntity
  8
0
  6
CONTINUOUS
 62
     7
100
AcDbLine
 10
155.129212383
 20
138.4444461576
 30
0.0
 11
155.129212383
 21
138.2444331271
 31
0.0
  0
LINE
  5
DF
330
1F
100
AcDbEntity
  8
0
  6
CONTINUOUS
 62
     7
100
AcDbLine
 10
160.6067979142
 20
138.4444461576
 30
0.0
 11
160.6067979142
 21
138.2444331271
 31
0.0
  0
LINE
  5
E0
330
1F
100
AcDbEntity
  8
0
  6
CONTINUOUS
 62
     7
100
AcDbLine
 10
160.5823608136
 20
83.6448483863
 30
0.0
 11
160.5823608136
 21
83.444846602
 31
0.0
  0
LINE
  5
E1
330
1F
100
AcDbEntity
  8
0
  6
CONTINUOUS
 62
     7
100
AcDbLine
 10
160.5945793639
 20
138.2445541468
 30
0.0
 11
160.5945793639
 21
138.3834196146
 31
0.0
  0
LINE
  5
E2
330
1F
100
AcDbEntity
  8
0
  6
CONTINUOUS
 62
     7
100
AcDbLine
 10
155.1414309333
 20
138.2445541468
 30
0.0
 11
155.1414309333
 21
138.3834196146
 31
0.0
  0
LINE
  5
E3
330
1F
100
AcDbEntity
  8
0
  6
CONTINUOUS
 62
     7
100
AcDbLine
 10
160.5430567191
 20
83.5060592256
 30
0.0
 11
160.3680051486
 21
83.5060592256
 31
0.0
  0
LINE
  5
E4
330
1F
100
AcDbEntity
  8
0
  6
CONTINUOUS
 62
     7
100
AcDbLine
 10
155.3680051486
 20
83.5060592256
 30
0.0
 11
155.1929464232
 21
83.5060592256
 31
0.0
  0
LINE
  5
E5
330
1F
100
AcDbEntity
  8
0
  6
CONTINUOUS
 62
     7
100
AcDbLine
 10
155.1914309333
 20
138.3834196146
 30
0.0
 11
155.3680051486
 21
138.3834196146
 31
0.0
  0
LINE
  5
E6
330
1F
100
AcDbEntity
  8
0
  6
CONTINUOUS
 62
     7
100
AcDbLine
 10
160.3680051486
 20
138.3834196146
 30
0.0
 11
160.5445717475
 21
138.3834196146
 31
0.0
  0
SPLINE
  5
E7
330
1F
100
AcDbEntity
  8
0
  6
CONTINUOUS
 62
     7
100
AcDbSpline
210
0.0
220
0.0
230
1.0
 70
     8
 71
     3
 72
    10
 73
     6
 74
     0
 42
0.00000001
 43
0.00000001
 40
0.0
 40
0.0
 40
0.0
 40
0.0
 40
0.5
 40
0.5
 40
1.0
 40
1.0
 40
1.0
 40
1.0
 10
184.8812568870752
 20
158.2836003222968
 30
0.0
 10
185.2184598843988
 20
157.8095719413925
 30
0.0
 10
185.4544733131853
 20
157.2867481312122
 30
0.0
 10
185.7923072814031
 20
156.1778186369118
 30
0.0
 10
185.8869965332098
 20
155.6097163275126
 30
0.0
 10
185.9386046875234
 20
155.034313242277
 30
0.0
  0
SPLINE
  5
E8
330
1F
100
AcDbEntity
  8
0
  6
CONTINUOUS
 62
     7
100
AcDbSpline
210
0.0
220
0.0
230
1.0
 70
     8
 71
     3
 72
     8
 73
     4
 74
     0
 42
0.00000001
 43
0.00000001
 40
0.0
 40
0.0
 40
0.0
 40
0.0
 40
1.0
 40
1.0
 40
1.0
 40
1.0
 10
185.9386046875234
 20
155.034313242277
 30
0.0
 10
185.9775012708303
 20
154.6006373176527
 30
0.0
 10
185.9978037935122
 20
154.1657045130673
 30
0.0
 10
185.9978037935133
 20
153.7293993437
 30
0.0
  0
SPLINE
  5
E9
330
1F
100
AcDbEntity
  8
0
  6
CONTINUOUS
 62
     7
100
AcDbSpline
210
0.0
220
0.0
230
1.0
 70
     8
 71
     3
 72
     8
 73
     4
 74
     0
 42
0.00000001
 43
0.00000001
 40
0.0
 40
0.0
 40
0.0
 40
0.0
 40
1.0
 40
1.0
 40
1.0
 40
1.0
 10
129.7382065037147
 20
153.729399343699
 30
0.0
 10
129.7382065037147
 20
154.1657045130658
 30
0.0
 10
129.7585090264017
 20
154.6006373176526
 30
0.0
 10
129.7974056097097
 20
155.034313242277
 30
0.0
  0
SPLINE
  5
EA
330
1F
100
AcDbEntity
  8
0
  6
CONTINUOUS
 62
     7
100
AcDbSpline
210
0.0
220
0.0
230
1.0
 70
     8
 71
     3
 72
    12
 73
     8
 74
     0
 42
0.00000001
 43
0.00000001
 40
0.0
 40
0.0
 40
0.0
 40
0.0
 40
0.4999999999999947
 40
0.4999999999999947
 40
0.7499999999999973
 40
0.7499999999999973
 40
1.0
 40
1.0
 40
1.0
 40
1.0
 10
129.7974056097097
 20
155.034313242277
 30
0.0
 10
129.8490506288492
 20
155.6101274965578
 30
0.0
 10
129.943874923851
 20
156.1754715780324
 30
0.0
 10
130.192738841354
 20
156.9966899758001
 30
0.0
 10
130.2934474043837
 20
157.2659679933838
 30
0.0
 10
130.5409036471558
 20
157.7928427543445
 30
0.0
 10
130.6856367013104
 20
158.045861218619
 30
0.0
 10
130.8547534155266
 20
158.2836001003895
 30
0.0
  0
LINE
  5
EB
330
1F
100
AcDbEntity
  8
0
  6
CONTINUOUS
 62
     7
100
AcDbLine
 10
185.9978037935
 20
53.0471701328
 30
0.0
 11
185.9978037935
 21
153.7293993437
 31
0.0
  0
SPLINE
  5
EC
330
1F
100
AcDbEntity
  8
0
  6
CONTINUOUS
 62
     7
100
AcDbSpline
210
0.0
220
0.0
230
1.0
 70
     8
 71
     3
 72
    14
 73
    10
 74
     0
 42
0.00000001
 43
0.00000001
 40
0.0
 40
0.0
 40
0.0
 40
0.0
 40
0.25
 40
0.25
 40
0.5
 40
0.5
 40
0.75
 40
0.75
 40
1.0
 40
1.0
 40
1.0
 40
1.0
 10
185.9694894738607
 20
53.77058728123343
 30
0.0
 10
185.9729927389929
 20
53.76541966852434
 30
0.0
 10
185.976375763129
 20
53.7456841516647
 30
0.0
 10
185.9828981737402
 20
53.67669498179063
 30
0.0
 10
185.9859737788431
 20
53.62753999828178
 30
0.0
 10
185.9913279214113
 20
53.50183848253116
 30
0.0
 10
185.9936421784054
 20
53.42408448300167
 30
0.0
 10
185.9968933751741
 20
53.24645169203066
 30
0.0
 10
185.9978037935134
 20
53.14828700608683
 30
0.0
 10
185.9978037935133
 20
53.04717013281537
 30
0.0
  0
SPLINE
  5
ED
330
1F
100
AcDbEntity
  8
0
  6
CONTINUOUS
 62
     7
100
AcDbSpline
210
0.0
220
0.0
230
1.0
 70
     8
 71
     3
 72
    14
 73
    10
 74
     0
 42
0.00000001
 43
0.00000001
 40
0.0
 40
0.0
 40
0.0
 40
0.0
 40
0.25
 40
0.25
 40
0.5
 40
0.5
 40
0.75
 40
0.75
 40
1.0
 40
1.0
 40
1.0
 40
1.0
 10
129.7382065037281
 20
53.04717013281643
 30
0.0
 10
129.7382065037281
 20
53.1478504884723
 30
0.0
 10
129.7391198177148
 20
53.24627708550712
 30
0.0
 10
129.7423314608691
 20
53.4224109737545
 30
0.0
 10
129.7446275982454
 20
53.50028070302488
 30
0.0
 10
129.7499979475259
 20
53.62690151841552
 30
0.0
 10
129.7530661083335
 20
53.67608273216664
 30
0.0
 10
129.7596071252267
 20
53.74551837605333
 30
0.0
 10
129.7630263080183
 20
53.76543257519527
 30
0.0
 10
129.766520823368
 20
53.77058728123432
 30
0.0
  0
LINE
  5
EE
330
1F
100
AcDbEntity
  8
0
  6
CONTINUOUS
 62
     7
100
AcDbLine
 10
129.7382065037
 20
153.7293993437
 30
0.0
 11
129.7382065037
 21
53.0471701328
 31
0.0
  0
ARC
  5
EF
330
1F
100
AcDbEntity
  8
0
  6
CONTINUOUS
 62
     7
100
AcDbCircle
 10
157.8680051486
 20
137.6446611469
 30
0.0
 40
36.21458638862417
100
AcDbArc
 50
38.0743976737
 51
141.9256018924
  0
ARC
  5
F0
330
1F
100
AcDbEntity
  8
0
  6
CONTINUOUS
 62
     7
100
AcDbCircle
 10
157.8680051486
 20
52.8446611469
 30
0.0
 40
36.21458638862423
100
AcDbArc
 50
218.0743976737
 51
321.9256018924
  0
SPLINE
  5
F1
330
1F
100
AcDbEntity
  8
0
  6
CONTINUOUS
 62
     7
100
AcDbSpline
210
0.0
220
0.0
230
1.0
 70
     8
 71
     3
 72
     8
 73
     4
 74
     0
 42
0.00000001
 43
0.00000001
 40
0.0000001999783641
 40
0.0000001999783641
 40
0.0000001999783641
 40
0.0000001999783641
 40
0.0000079812632617
 40
0.0000079812632617
 40
0.0000079812632617
 40
0.0000079812632617
 10
127.653418759992
 20
155.0332441518949
 30
0.0
 10
127.6534187607802
 20
155.035838180685
 30
0.0
 10
127.6534187300133
 20
155.0384322096405
 30
0.0
 10
127.6534186676914
 20
155.0410262378161
 30
0.0
  0
SPLINE
  5
F2
330
1F
100
AcDbEntity
  8
0
  6
CONTINUOUS
 62
     7
100
AcDbSpline
210
0.0
220
0.0
230
1.0
 70
     8
 71
     3
 72
    10
 73
     6
 74
     0
 42
0.00000001
 43
0.00000001
 40
0.0
 40
0.0
 40
0.0
 40
0.0
 40
0.5
 40
0.5
 40
1.0
 40
1.0
 40
1.0
 40
1.0
 10
127.6534186676914
 20
155.0410262378161
 30
0.0
 10
127.6533972045741
 20
155.9343870515616
 30
0.0
 10
127.7990134584716
 20
156.802948786404
 30
0.0
 10
128.3808087778046
 20
158.490595461305
 30
0.0
 10
128.8025919385496
 20
159.2663557736871
 30
0.0
 10
129.3533363537271
 20
159.9697577736829
 30
0.0
  0
SPLINE
  5
F3
330
1F
100
AcDbEntity
  8
0
  6
CONTINUOUS
 62
     7
100
AcDbSpline
210
0.0
220
0.0
230
1.0
 70
     8
 71
     3
 72
     8
 73
     4
 74
     0
 42
0.00000001
 43
0.00000001
 40
0.0
 40
0.0
 40
0.0
 40
0.0
 40
1.0
 40
1.0
 40
1.0
 40
1.0
 10
129.3533363537271
 20
159.9697577736829
 30
0.0
 10
129.3553895257787
 20
159.9723800523435
 30
0.0
 10
129.3574429967957
 20
159.9750020333038
 30
0.0
 10
129.3594967667511
 20
159.9776237165906
 30
0.0
  0
SPLINE
  5
F4
330
1F
100
AcDbEntity
  8
0
  6
CONTINUOUS
 62
     7
100
AcDbSpline
210
0.0
220
0.0
230
1.0
 70
     8
 71
     3
 72
     8
 73
     4
 74
     0
 42
0.00000001
 43
0.00000001
 40
0.0003208366294901
 40
0.0003208366294901
 40
0.0003208366294901
 40
0.0003208366294901
 40
0.0003286179143881
 40
0.0003286179143881
 40
0.0003286179143881
 40
0.0003286179143881
 10
188.0825916295373
 20
35.44829605593758
 30
0.0
 10
188.0825915672154
 20
35.45089008411323
 30
0.0
 10
188.0825915364485
 20
35.45348411306889
 30
0.0
 10
188.0825915372367
 20
35.4560781418591
 30
0.0
  0
SPLINE
  5
F5
330
1F
100
AcDbEntity
  8
0
  6
CONTINUOUS
 62
     7
100
AcDbSpline
210
0.0
220
0.0
230
1.0
 70
     8
 71
     3
 72
    14
 73
    10
 74
     0
 42
0.00000001
 43
0.00000001
 40
0.0
 40
0.0
 40
0.0
 40
0.0
 40
0.25
 40
0.25
 40
0.5
 40
0.5
 40
0.75
 40
0.75
 40
1.0
 40
1.0
 40
1.0
 40
1.0
 10
188.0825916295373
 20
35.44829605593797
 30
0.0
 10
188.0826023434148
 20
35.00235157537901
 30
0.0
 10
188.0455669091607
 20
34.56161236606904
 30
0.0
 10
187.8994564374945
 20
33.6902560667828
 30
0.0
 10
187.7889410296818
 20
33.25604073435133
 30
0.0
 10
187.4999393573866
 20
32.4194449053863
 30
0.0
 10
187.322320045509
 20
32.01706028852269
 30
0.0
 10
186.9019159556958
 20
31.2436028046207
 30
0.0
 10
186.6575923833647
 20
30.87068597515374
 30
0.0
 10
186.3826739435015
 20
30.51956452007114
 30
0.0
  0
SPLINE
  5
F6
330
1F
100
AcDbEntity
  8
0
  6
CONTINUOUS
 62
     7
100
AcDbSpline
210
0.0
220
0.0
230
1.0
 70
     8
 71
     3
 72
     8
 73
     4
 74
     0
 42
0.00000001
 43
0.00000001
 40
0.0
 40
0.0
 40
0.0
 40
0.0
 40
1.0
 40
1.0
 40
1.0
 40
1.0
 10
186.3826739435015
 20
30.51956452007114
 30
0.0
 10
186.3806207714499
 20
30.51694224141033
 30
0.0
 10
186.3785673004327
 20
30.51432026044984
 30
0.0
 10
186.3765135304772
 20
30.51169857716284
 30
0.0
  0
SPLINE
  5
F7
330
1F
100
AcDbEntity
  8
0
  6
CONTINUOUS
 62
     7
100
AcDbSpline
210
0.0
220
0.0
230
1.0
 70
     8
 71
     3
 72
     8
 73
     4
 74
     0
 42
0.00000001
 43
0.00000001
 40
0.0
 40
0.0
 40
0.0
 40
0.0
 40
1.0
 40
1.0
 40
1.0
 40
1.0
 10
186.3765136995914
 20
159.9776235007131
 30
0.0
 10
186.3785674131588
 20
159.9750018893695
 30
0.0
 10
186.3806208278045
 20
159.9723799803683
 30
0.0
 10
186.3826739435015
 20
159.9697577736829
 30
0.0
  0
SPLINE
  5
F8
330
1F
100
AcDbEntity
  8
0
  6
CONTINUOUS
 62
     7
100
AcDbSpline
210
0.0
220
0.0
230
1.0
 70
     8
 71
     3
 72
    10
 73
     6
 74
     0
 42
0.00000001
 43
0.00000001
 40
0.0
 40
0.0
 40
0.0
 40
0.0
 40
0.5
 40
0.5
 40
1.0
 40
1.0
 40
1.0
 40
1.0
 10
186.3826739435015
 20
159.9697577736829
 30
0.0
 10
186.9334182593849
 20
159.2663559005031
 30
0.0
 10
187.3542029543507
 20
158.4926988489286
 30
0.0
 10
187.9364875260282
 20
156.8052173331415
 30
0.0
 10
188.0826130926566
 20
155.934387158765
 30
0.0
 10
188.0825916295373
 20
155.041026237816
 30
0.0
  0
SPLINE
  5
F9
330
1F
100
AcDbEntity
  8
0
  6
CONTINUOUS
 62
     7
100
AcDbSpline
210
0.0
220
0.0
230
1.0
 70
     8
 71
     3
 72
     8
 73
     4
 74
     0
 42
0.00000001
 43
0.00000001
 40
0.0000002234835478
 40
0.0000002234835478
 40
0.0000002234835478
 40
0.0000002234835478
 40
0.0000080050427674
 40
0.0000080050427674
 40
0.0000080050427674
 40
0.0000080050427674
 10
188.0825915372368
 20
155.0332438776622
 30
0.0
 10
188.0825915364464
 20
155.0358379978632
 30
0.0
 10
188.0825915672132
 20
155.0384321182297
 30
0.0
 10
188.0825916295373
 20
155.0410262378161
 30
0.0
  0
SPLINE
  5
FA
330
1F
100
AcDbEntity
  8
0
  6
CONTINUOUS
 62
     7
100
AcDbSpline
210
0.0
220
0.0
230
1.0
 70
     8
 71
     3
 72
     8
 73
     4
 74
     0
 42
0.00000001
 43
0.00000001
 40
0.0
 40
0.0
 40
0.0
 40
0.0
 40
1.0
 40
1.0
 40
1.0
 40
1.0
 10
129.3594965976373
 20
30.5116987930409
 30
0.0
 10
129.3574428840699
 20
30.51432040438451
 30
0.0
 10
129.3553894694241
 20
30.51694231338564
 30
0.0
 10
129.3533363537272
 20
30.51956452007112
 30
0.0
  0
SPLINE
  5
FB
330
1F
100
AcDbEntity
  8
0
  6
CONTINUOUS
 62
     7
100
AcDbSpline
210
0.0
220
0.0
230
1.0
 70
     8
 71
     3
 72
    10
 73
     6
 74
     0
 42
0.00000001
 43
0.00000001
 40
0.0
 40
0.0
 40
0.0
 40
0.0
 40
0.5
 40
0.5
 40
1.0
 40
1.0
 40
1.0
 40
1.0
 10
129.3533363537272
 20
30.51956452007112
 30
0.0
 10
128.8025958286697
 20
31.22296155166782
 30
0.0
 10
128.3814985129395
 20
31.99708634217592
 30
0.0
 10
127.7990083527702
 20
33.68602847747097
 30
0.0
 10
127.653397204723
 20
34.5549414303281
 30
0.0
 10
127.6534186676914
 20
35.44829605593798
 30
0.0
  0
SPLINE
  5
FC
330
1F
100
AcDbEntity
  8
0
  6
CONTINUOUS
 62
     7
100
AcDbSpline
210
0.0
220
0.0
230
1.0
 70
     8
 71
     3
 72
     8
 73
     4
 74
     0
 42
0.00000001
 43
0.00000001
 40
0.0003208366293684
 40
0.0003208366293684
 40
0.0003208366293684
 40
0.0003208366293684
 40
0.0003286181885876
 40
0.0003286181885876
 40
0.0003286181885876
 40
0.0003286181885876
 10
127.6534186676914
 20
35.44829605593797
 30
0.0
 10
127.6534187300155
 20
35.45089017552424
 30
0.0
 10
127.6534187607823
 20
35.4534842958906
 30
0.0
 10
127.6534187599919
 20
35.45607841609147
 30
0.0
  0
SPLINE
  5
FD
330
1F
100
AcDbEntity
  8
0
  6
CONTINUOUS
 62
     7
100
AcDbSpline
210
0.0
220
0.0
230
1.0
 70
     8
 71
     3
 72
     8
 73
     4
 74
     0
 42
0.00000001
 43
0.00000001
 40
0.0
 40
0.0
 40
0.0
 40
0.0
 40
1.0
 40
1.0
 40
1.0
 40
1.0
 10
132.4970606950206
 20
33.16429731240289
 30
0.0
 10
132.5280500018189
 20
33.12424759234328
 30
0.0
 10
132.5591852455804
 20
33.08425491442569
 30
0.0
 10
132.590467326238
 20
33.04431954429414
 30
0.0
  0
SPLINE
  5
FE
330
1F
100
AcDbEntity
  8
0
  6
CONTINUOUS
 62
     7
100
AcDbSpline
210
0.0
220
0.0
230
1.0
 70
     8
 71
     3
 72
    10
 73
     6
 74
     0
 42
0.00000001
 43
0.00000001
 40
0.0
 40
0.0
 40
0.0
 40
0.0
 40
0.5
 40
0.5
 40
1.0
 40
1.0
 40
1.0
 40
1.0
 10
132.4970606950206
 20
33.16429731240287
 30
0.0
 10
132.2423788801551
 20
33.49344102174844
 30
0.0
 10
132.0444653865518
 20
33.85310105277908
 30
0.0
 10
131.7610032017646
 20
34.63282248752976
 30
0.0
 10
131.6812235109978
 20
35.03919087713811
 30
0.0
 10
131.6652823724986
 20
35.455009051477
 30
0.0
  0
SPLINE
  5
FF
330
1F
100
AcDbEntity
  8
0
  6
CONTINUOUS
 62
     7
100
AcDbSpline
210
0.0
220
0.0
230
1.0
 70
     8
 71
     3
 72
    12
 73
     8
 74
     0
 42
0.00000001
 43
0.00000001
 40
0.0
 40
0.0
 40
0.0
 40
0.0
 40
0.2500000000000001
 40
0.2500000000000001
 40
0.5000000000000002
 40
0.5000000000000002
 40
1.0
 40
1.0
 40
1.0
 40
1.0
 10
184.0737710879629
 20
52.92670332429607
 30
0.0
 10
184.0737710879629
 20
53.02668232502415
 30
0.0
 10
184.0724364903041
 20
53.12448443041939
 30
0.0
 10
184.0677141704139
 20
53.30002946561163
 30
0.0
 10
184.0643268168465
 20
53.37790655144559
 30
0.0
 10
184.0524097668189
 20
53.56804491023461
 30
0.0
 10
184.0422076802284
 20
53.63872199964204
 30
0.0
 10
184.0317972009213
 20
53.64887052786823
 30
0.0
  0
SPLINE
  5
100
330
1F
100
AcDbEntity
  8
0
  6
CONTINUOUS
 62
     7
100
AcDbSpline
210
0.0
220
0.0
230
1.0
 70
     8
 71
     3
 72
    14
 73
    10
 74
     0
 42
0.00000001
 43
0.00000001
 40
0.0
 40
0.0
 40
0.0
 40
0.0
 40
0.25
 40
0.25
 40
0.5
 40
0.5
 40
0.75
 40
0.75
 40
1.0
 40
1.0
 40
1.0
 40
1.0
 10
131.7042130963074
 20
53.64887052786801
 30
0.0
 10
131.6989941430649
 20
53.64378289523074
 30
0.0
 10
131.693960032739
 20
53.62400422479887
 30
0.0
 10
131.6842646737697
 20
53.55481239663657
 30
0.0
 10
131.6796931193949
 20
53.50541870445198
 30
0.0
 10
131.6717620872974
 20
53.37943852208228
 30
0.0
 10
131.6683501485934
 20
53.30170079525784
 30
0.0
 10
131.6635695055616
 20
53.12465789058493
 30
0.0
 10
131.6622392092658
 20
53.02711275533449
 30
0.0
 10
131.6622392092658
 20
52.92670332429565
 30
0.0
  0
SPLINE
  5
101
330
1F
100
AcDbEntity
  8
0
  6
CONTINUOUS
 62
     7
100
AcDbSpline
210
0.0
220
0.0
230
1.0
 70
     8
 71
     3
 72
    34
 73
    30
 74
     0
 42
0.00000001
 43
0.00000001
 40
0.0
 40
0.0
 40
0.0
 40
0.0
 40
0.1250000000000001
 40
0.1250000000000001
 40
0.1875000000000001
 40
0.1875000000000001
 40
0.2500000000000001
 40
0.2500000000000001
 40
0.3750000000000002
 40
0.3750000000000002
 40
0.5000000000000003
 40
0.5000000000000003
 40
0.5625000000000006
 40
0.5625000000000006
 40
0.6250000000000006
 40
0.6250000000000006
 40
0.6875000000000007
 40
0.6875000000000007
 40
0.7187500000000007
 40
0.7187500000000007
 40
0.7500000000000007
 40
0.7500000000000007
 40
0.8750000000000006
 40
0.8750000000000006
 40
0.9062500000000004
 40
0.9062500000000004
 40
0.9375000000000003
 40
0.9375000000000003
 40
1.0
 40
1.0
 40
1.0
 40
1.0
 10
132.5904673242161
 20
33.04431954491174
 30
0.0
 10
134.1001161140116
 20
31.11706974525036
 30
0.0
 10
135.7980423470879
 20
29.39761525240857
 30
0.0
 10
138.6165687008842
 20
27.11822988617753
 30
0.0
 10
139.6017872545016
 20
26.40888305621876
 30
0.0
 10
141.6672449759534
 20
25.09506036340568
 30
0.0
 10
142.7277332355306
 20
24.50317757860808
 30
0.0
 10
145.9877035396449
 20
22.91628111770841
 30
0.0
 10
148.2669973440616
 20
22.10678147649511
 30
0.0
 10
153.0364126424498
 20
21.00674910068651
 30
0.0
 10
155.4379017911013
 20
20.73629386006336
 30
0.0
 10
159.064403654939
 20
20.73489099168982
 30
0.0
 10
160.2790573861666
 20
20.80265139697821
 30
0.0
 10
162.7097037809228
 20
21.07893297739516
 30
0.0
 10
163.9056905915284
 20
21.28497852930778
 30
0.0
 10
166.2603879926241
 20
21.8279747959019
 30
0.0
 10
167.4190944049365
 20
22.16494018362715
 30
0.0
 10
169.1291378024159
 20
22.76877453192536
 30
0.0
 10
169.6944719173866
 20
22.98648892071019
 30
0.0
 10
170.8156343718917
 20
23.45529970839716
 30
0.0
 10
171.3725252985685
 20
23.70691768131528
 30
0.0
 10
174.1207992494455
 20
25.04479480898739
 30
0.0
 10
176.1582822342194
 20
26.34331594133067
 30
0.0
 10
178.5102819750645
 20
28.24244181081398
 30
0.0
 10
178.9708201946506
 20
28.63623429002196
 30
0.0
 10
179.871858640649
 20
29.45219934109644
 30
0.0
 10
180.3133839038566
 20
29.87542388016512
 30
0.0
 10
181.5999564520359
 20
31.18142688291288
 30
0.0
 10
182.4004149566369
 20
32.09307405703782
 30
0.0
 10
183.1455421401215
 20
33.04431845984858
 30
0.0
  0
SPLINE
  5
102
330
1F
100
AcDbEntity
  8
0
  6
CONTINUOUS
 62
     7
100
AcDbSpline
210
0.0
220
0.0
230
1.0
 70
     8
 71
     3
 72
     8
 73
     4
 74
     0
 42
0.00000001
 43
0.00000001
 40
0.0
 40
0.0
 40
0.0
 40
0.0
 40
1.0
 40
1.0
 40
1.0
 40
1.0
 10
183.2389496886517
 20
33.16429728688926
 30
0.0
 10
183.2079599958197
 20
33.12424719132976
 30
0.0
 10
183.1768244782766
 20
33.08425417656011
 30
0.0
 10
183.1455421364722
 20
33.04431847696412
 30
0.0
  0
SPLINE
  5
103
330
1F
100
AcDbEntity
  8
0
  6
CONTINUOUS
 62
     7
100
AcDbSpline
210
0.0
220
0.0
230
1.0
 70
     8
 71
     3
 72
    10
 73
     6
 74
     0
 42
0.00000001
 43
0.00000001
 40
0.0
 40
0.0
 40
0.0
 40
0.0
 40
0.5
 40
0.5
 40
1.0
 40
1.0
 40
1.0
 40
1.0
 10
184.0707278960274
 20
35.455008570577
 30
0.0
 10
184.0547867824437
 20
35.03919229059588
 30
0.0
 10
183.9758838466639
 20
34.63633763157589
 30
0.0
 10
183.6931270379789
 20
33.85635848655998
 30
0.0
 10
183.4936311196422
 20
33.49343948599647
 30
0.0
 10
183.2389496886517
 20
33.16429728688924
 30
0.0
  0
SPLINE
  5
104
330
1F
100
AcDbEntity
  8
0
  6
CONTINUOUS
 62
     7
100
AcDbSpline
210
0.0
220
0.0
230
1.0
 70
     8
 71
     3
 72
     8
 73
     4
 74
     0
 42
0.00000001
 43
0.00000001
 40
0.0
 40
0.0
 40
0.0
 40
0.0
 40
0.0001588305743054
 40
0.0001588305743054
 40
0.0001588305743054
 40
0.0001588305743054
 10
184.0737710879629
 20
35.6137957001301
 30
0.0
 10
184.0737710879629
 20
35.56085217536165
 30
0.0
 10
184.0727553790582
 20
35.50789422035698
 30
0.0
 10
184.0707279062939
 20
35.455008570577
 30
0.0
  0
LINE
  5
105
330
1F
100
AcDbEntity
  8
0
  6
CONTINUOUS
 62
     7
100
AcDbLine
 10
184.073771088
 20
52.9267033243
 30
0.0
 11
184.073771088
 21
35.6137957001
 31
0.0
  0
SPLINE
  5
106
330
1F
100
AcDbEntity
  8
0
  6
CONTINUOUS
 62
     7
100
AcDbSpline
210
0.0
220
0.0
230
1.0
 70
     8
 71
     3
 72
     8
 73
     4
 74
     0
 42
0.00000001
 43
0.00000001
 40
0.0
 40
0.0
 40
0.0
 40
0.0
 40
0.0001588300930106
 40
0.0001588300930106
 40
0.0001588300930106
 40
0.0001588300930106
 10
131.6652823724986
 20
35.455009051477
 30
0.0
 10
131.6632549120106
 20
35.50789454135106
 30
0.0
 10
131.6622392092658
 20
35.56085233579324
 30
0.0
 10
131.6622392092658
 20
35.6137957001301
 30
0.0
  0
LINE
  5
107
330
1F
100
AcDbEntity
  8
0
  6
CONTINUOUS
 62
     7
100
AcDbLine
 10
131.6622392093
 20
52.9267033243
 30
0.0
 11
131.6622392093
 21
35.6137957001
 31
0.0
  0
LINE
  5
108
330
1F
100
AcDbEntity
  8
0
  6
CONTINUOUS
 62
     7
100
AcDbLine
 10
188.0825915372
 20
35.4560781419
 30
0.0
 11
188.0825915372
 21
155.0332438777
 31
0.0
  0
LINE
  5
109
330
1F
100
AcDbEntity
  8
0
  6
CONTINUOUS
 62
     7
100
AcDbLine
 10
127.65341876
 20
35.4560784161
 30
0.0
 11
127.65341876
 21
155.0332441519
 31
0.0
  0
SPLINE
  5
10A
330
1F
100
AcDbEntity
  8
0
  6
CONTINUOUS
 62
     7
100
AcDbSpline
210
0.0
220
0.0
230
1.0
 70
     8
 71
     3
 72
    12
 73
     8
 74
     0
 42
0.00000001
 43
0.00000001
 40
0.0
 40
0.0
 40
0.0
 40
0.0
 40
0.4999999999999959
 40
0.4999999999999959
 40
0.7499999999999979
 40
0.7499999999999979
 40
1.0
 40
1.0
 40
1.0
 40
1.0
 10
128.3904147694776
 20
160.2121972688013
 30
0.0
 10
127.8563442370689
 20
159.5145973047266
 30
0.0
 10
127.4491092688299
 20
158.750753202477
 30
0.0
 10
127.0268738906497
 20
157.5064754399511
 30
0.0
 10
126.9208260814976
 20
157.0815546970997
 30
0.0
 10
126.7795438455424
 20
156.2250074864392
 30
0.0
 10
126.743592410168
 20
155.7913275805378
 30
0.0
 10
126.743592410168
 20
155.3520447330407
 30
0.0
  0
SPLINE
  5
10B
330
1F
100
AcDbEntity
  8
0
  6
CONTINUOUS
 62
     7
100
AcDbSpline
210
0.0
220
0.0
230
1.0
 70
     8
 71
     3
 72
    12
 73
     8
 74
     0
 42
0.00000001
 43
0.00000001
 40
0.0
 40
0.0
 40
0.0
 40
0.0
 40
0.5
 40
0.5
 40
0.75
 40
0.75
 40
1.0
 40
1.0
 40
1.0
 40
1.0
 10
187.3455955277511
 20
30.27712502495267
 30
0.0
 10
187.8796603158317
 20
30.97471748581797
 30
0.0
 10
188.2869476131947
 20
31.73862413710829
 30
0.0
 10
188.7092293497489
 20
32.98316188034791
 30
0.0
 10
188.8152097692458
 20
33.40789545820011
 30
0.0
 10
188.9564673059481
 20
34.26434705239577
 30
0.0
 10
188.9924178870606
 20
34.69799945086298
 30
0.0
 10
188.9924178870606
 20
35.13727756071331
 30
0.0
  0
SPLINE
  5
10C
330
1F
100
AcDbEntity
  8
0
  6
CONTINUOUS
 62
     7
100
AcDbSpline
210
0.0
220
0.0
230
1.0
 70
     8
 71
     3
 72
    12
 73
     8
 74
     0
 42
0.00000001
 43
0.00000001
 40
0.0
 40
0.0
 40
0.0
 40
0.0
 40
0.5000000000000003
 40
0.5000000000000003
 40
0.7500000000000001
 40
0.7500000000000001
 40
1.0
 40
1.0
 40
1.0
 40
1.0
 10
188.9924178870606
 20
155.3520447330407
 30
0.0
 10
188.9924178870606
 20
156.2306013197234
 30
0.0
 10
188.8514418482318
 20
157.0847391153059
 30
0.0
 10
188.4302108237707
 20
158.3296115793287
 30
0.0
 10
188.2561658476247
 20
158.7312983876362
 30
0.0
 10
187.8476966136897
 20
159.4972155073148
 30
0.0
 10
187.6126282387116
 20
159.8634006244092
 30
0.0
 10
187.3455955277511
 20
160.2121972688013
 30
0.0
  0
SPLINE
  5
10D
330
1F
100
AcDbEntity
  8
0
  6
CONTINUOUS
 62
     7
100
AcDbSpline
210
0.0
220
0.0
230
1.0
 70
     8
 71
     3
 72
    12
 73
     8
 74
     0
 42
0.00000001
 43
0.00000001
 40
0.0
 40
0.0
 40
0.0
 40
0.0
 40
0.5000000000000009
 40
0.5000000000000009
 40
0.7500000000000004
 40
0.7500000000000004
 40
1.0
 40
1.0
 40
1.0
 40
1.0
 10
126.743592410168
 20
35.13727756071331
 30
0.0
 10
126.743592410168
 20
34.2587296859197
 30
0.0
 10
126.8845651441621
 20
33.40451073354343
 30
0.0
 10
127.3059167245449
 20
32.15940532273883
 30
0.0
 10
127.4799007045556
 20
31.75790927685389
 30
0.0
 10
127.8883320597831
 20
30.99208147706642
 30
0.0
 10
128.1233847141724
 20
30.62591820054254
 30
0.0
 10
128.3904147694776
 20
30.27712502495265
 30
0.0
  0
SPLINE
  5
10E
330
1F
100
AcDbEntity
  8
0
  6
CONTINUOUS
 62
     7
100
AcDbSpline
210
0.0
220
0.0
230
1.0
 70
    11
 71
     3
 72
    71
 73
    67
 74
     0
 42
0.00000001
 43
0.00000001
 40
0.0
 40
0.0
 40
0.0
 40
0.0
 40
0.0156575277164145
 40
0.0311991738650375
 40
0.0467737327995238
 40
0.0624498568809182
 40
0.0779928733544053
 40
0.0935056987918057
 40
0.1091375956171457
 40
0.1247315479515796
 40
0.1402328502186111
 40
0.1557947838444778
 40
0.1714563303692891
 40
0.1869943775768274
 40
0.2025339227670035
 40
0.2182115981963094
 40
0.2338231168934333
 40
0.2493759923133821
 40
0.265020369232648
 40
0.280729222271016
 40
0.2963205842529062
 40
0.3119371427095637
 40
0.327689244592723
 40
0.3433403402990374
 40
0.3589463473838629
 40
0.3746576721063156
 40
0.3903824923963539
 40
0.4059913866468607
 40
0.4216346471746594
 40
0.4373861575801168
 40
0.4530068199236967
 40
0.4685942989751665
 40
0.4842951419363114
 40
0.4999948043333023
 40
0.5156794355955243
 40
0.5313576764687297
 40
0.5468979635388658
 40
0.562445038347147
 40
0.5781128942153804
 40
0.5936705653952478
 40
0.6091762635186628
 40
0.6247834926280235
 40
0.6404036929264307
 40
0.6559150809568027
 40
0.671469921196757
 40
0.6871424725849239
 40
0.7027001610687863
 40
0.7182427153094706
 40
0.7339156776452135
 40
0.749556222658071
 40
0.7651169693308792
 40
0.7807462461077724
 40
0.7964784851232614
 40
0.8120861938482289
 40
0.8276918054410165
 40
0.8434353247483446
 40
0.8591136394008289
 40
0.8747175089772931
 40
0.8903996623795278
 40
0.9061452004124783
 40
0.9217588671073165
 40
0.9373829963115106
 40
0.9531255982507564
 40
0.9687533645043963
 40
0.9843285356982051
 40
1.0
 40
1.0
 40
1.0
 40
1.0
 10
154.6644996534562
 20
15.94073279458829
 30
0.0
 10
154.5636146198386
 20
15.95314339813696
 30
0.0
 10
154.3728094158722
 20
15.97816756662139
 30
0.0
 10
154.1200124602916
 20
16.01546426138887
 30
0.0
 10
153.9027239339692
 20
16.05149519968251
 30
0.0
 10
153.7233400083401
 20
16.08523511954586
 30
0.0
 10
153.5838468906524
 20
16.11573142569417
 30
0.0
 10
153.4853370505399
 20
16.14225167113174
 30
0.0
 10
153.428793161047
 20
16.1642265938699
 30
0.0
 10
153.4150862445978
 20
16.1811772935318
 30
0.0
 10
153.4441779334911
 20
16.19288288424893
 30
0.0
 10
153.5158544871703
 20
16.19936092564697
 30
0.0
 10
153.6296747522975
 20
16.2007500538183
 30
0.0
 10
153.7843119590264
 20
16.19742894761444
 30
0.0
 10
153.9781643753465
 20
16.18995959544545
 30
0.0
 10
154.2097655137895
 20
16.17899832845918
 30
0.0
 10
154.4766316426327
 20
16.16535720275938
 30
0.0
 10
154.775705766923
 20
16.14994086499053
 30
0.0
 10
155.1049876206271
 20
16.13361573895812
 30
0.0
 10
155.461090039021
 20
16.11731757657212
 30
0.0
 10
155.8400192395415
 20
16.10195340032031
 30
0.0
 10
156.238676927935
 20
16.08829849119686
 30
0.0
 10
156.6535284523394
 20
16.07706259634118
 30
0.0
 10
157.0799691702522
 20
16.06884132276037
 30
0.0
 10
157.5135846159457
 20
16.06403266791737
 30
0.0
 10
157.9513023443121
 20
16.06287286843203
 30
0.0
 10
158.3882444932227
 20
16.06544175644234
 30
0.0
 10
158.8195414352089
 20
16.0715898963029
 30
0.0
 10
159.2419671401967
 20
16.08101192488429
 30
0.0
 10
159.6512852006135
 20
16.09324856387356
 30
0.0
 10
160.0429726333481
 20
16.10765093208957
 30
0.0
 10
160.4134746534296
 20
16.12346382305824
 30
0.0
 10
160.7602012730308
 20
16.13989988308111
 30
0.0
 10
161.0797205659301
 20
16.15606067863876
 30
0.0
 10
161.3680555369428
 20
16.17097061202133
 30
0.0
 10
161.6216611764595
 20
16.18367482445673
 30
0.0
 10
161.8384943065445
 20
16.19334383416637
 30
0.0
 10
162.0172487947639
 20
16.19926680857227
 30
0.0
 10
162.1560583770937
 20
16.20079161339268
 30
0.0
 10
162.2533305119323
 20
16.19743007902058
 30
0.0
 10
162.3083586370764
 20
16.18892058838065
 30
0.0
 10
162.3206891055398
 20
16.17512999795301
 30
0.0
 10
162.2900095146981
 20
16.15615287864911
 30
0.0
 10
162.2169125748071
 20
16.13234557289739
 30
0.0
 10
162.1021312681141
 20
16.10416654388436
 30
0.0
 10
161.9465977510403
 20
16.07226819575364
 30
0.0
 10
161.7520918852569
 20
16.03752471786282
 30
0.0
 10
161.5206732823361
 20
16.0008838439509
 30
0.0
 10
161.2539904233522
 20
15.96330300728055
 30
0.0
 10
160.95481296535
 20
15.9259249170149
 30
0.0
 10
160.6265086499093
 20
15.88989908446159
 30
0.0
 10
160.2711868805795
 20
15.85619625265361
 30
0.0
 10
159.8923182110361
 20
15.82589664342202
 30
0.0
 10
159.4940916176093
 20
15.79998534007472
 30
0.0
 10
159.0800629730912
 20
15.77922713730691
 30
0.0
 10
158.6535817661503
 20
15.76428093948975
 30
0.0
 10
158.2194322538426
 20
15.75567108474515
 30
0.0
 10
157.7824317153409
 20
15.75364597793189
 30
0.0
 10
157.345632005902
 20
15.75826630899824
 30
0.0
 10
156.9138561706727
 20
15.76941931397338
 30
0.0
 10
156.4919380875543
 20
15.78671018353633
 30
0.0
 10
156.0833796318772
 20
15.80958266162713
 30
0.0
 10
155.6919988092659
 20
15.83735208329547
 30
0.0
 10
155.3220615761892
 20
15.86910946934214
 30
0.0
 10
154.9770465707867
 20
15.9038396927199
 30
0.0
 10
154.7654744836822
 20
15.9283111445041
 30
0.0
 10
154.6644996534562
 20
15.94073279458829
 30
0.0
  0
ARC
  5
10F
330
1F
100
AcDbEntity
  8
0
  6
CONTINUOUS
 62
     7
100
AcDbCircle
 10
157.8680051486
 20
52.8446611469
 30
0.0
 40
37.12441273844659
100
AcDbArc
 50
217.4370471293
 51
322.5629528707
  0
ARC
  5
110
330
1F
100
AcDbEntity
  8
0
  6
CONTINUOUS
 62
     7
100
AcDbCircle
 10
157.8680051486
 20
137.6446611469
 30
0.0
 40
37.12441273844661
100
AcDbArc
 50
37.4370471293
 51
142.5629528707
  0
LINE
  5
111
330
1F
100
AcDbEntity
  8
0
  6
CONTINUOUS
 62
     7
100
AcDbLine
 10
126.7435924102
 20
155.352044733
 30
0.0
 11
126.7435924102
 21
35.1372775607
 31
0.0
  0
LINE
  5
112
330
1F
100
AcDbEntity
  8
0
  6
CONTINUOUS
 62
     7
100
AcDbLine
 10
188.9924178871
 20
155.352044733
 30
0.0
 11
188.9924178871
 21
35.1372775607
 31
0.0
  0
SPLINE
  5
113
330
1F
100
AcDbEntity
  8
0
  6
CONTINUOUS
 62
     7
100
AcDbSpline
210
0.0
220
0.0
230
1.0
 70
     8
 71
     3
 72
    24
 73
    20
 74
     0
 42
0.00000001
 43
0.00000001
 40
0.0
 40
0.0
 40
0.0
 40
0.0
 40
0.0535381784035668
 40
0.1148378001081864
 40
0.1764957096540418
 40
0.2534347327760065
 40
0.3302873345733013
 40
0.4081048994590279
 40
0.4849132244058816
 40
0.5615182334153911
 40
0.6388138139601237
 40
0.716294266316703
 40
0.7931274512203383
 40
0.8310302134587094
 40
0.8700340281587976
 40
0.9080279512055232
 40
0.9476012083589479
 40
0.9850094970648207
 40
1.0
 40
1.0
 40
1.0
 40
1.0
 10
155.4066987784238
 20
16.12011924980516
 30
0.0
 10
155.4830012311897
 20
16.11236274383754
 30
0.0
 10
155.6466677226504
 20
16.095725269265
 30
0.0
 10
155.9153396428577
 20
16.07264752612359
 30
0.0
 10
156.2312063284314
 20
16.04919227400406
 30
0.0
 10
156.585827992204
 20
16.02801027872508
 30
0.0
 10
156.9795006742623
 20
16.01077133232619
 30
0.0
 10
157.3818590885439
 20
15.9997102191792
 30
0.0
 10
157.7885914369554
 20
15.99510494057033
 30
0.0
 10
158.1951882919608
 20
15.99713565578334
 30
0.0
 10
158.5997413718009
 20
16.00567469117567
 30
0.0
 10
158.9973835007178
 20
16.02056150272515
 30
0.0
 10
159.3181540966476
 20
16.03773509436623
 30
0.0
 10
159.5672302729074
 20
16.05400676295926
 30
0.0
 10
159.7492549267115
 20
16.06734213553146
 30
0.0
 10
159.929394759828
 20
16.08195251308306
 30
0.0
 10
160.1016604215501
 20
16.09736814527979
 30
0.0
 10
160.2363071012834
 20
16.11024830834956
 30
0.0
 10
160.3095032518688
 20
16.11799772980399
 30
0.0
 10
160.3304435651056
 20
16.12021472224637
 30
0.0
  0
LINE
  5
114
330
1F
100
AcDbEntity
  8
0
  6
CONTINUOUS
 62
     8
100
AcDbLine
 10
163.8489025373
 20
86.9448171612
 30
0.0
 11
163.8680051486
 21
86.9448171612
 31
0.0
  0
LINE
  5
115
330
1F
100
AcDbEntity
  8
0
  6
CONTINUOUS
 62
     8
100
AcDbLine
 10
163.8680051486
 20
134.9446611469
 30
0.0
 11
163.8489025373
 21
134.9446611469
 31
0.0
  0
LINE
  5
116
330
1F
100
AcDbEntity
  8
0
  6
CONTINUOUS
 62
     8
100
AcDbLine
 10
155.1680051486
 20
83.6639197725
 30
0.0
 11
155.1680051486
 21
83.6448171612
 31
0.0
  0
LINE
  5
117
330
1F
100
AcDbEntity
  8
0
  6
CONTINUOUS
 62
     8
100
AcDbLine
 10
151.8680051486
 20
86.9448171612
 30
0.0
 11
151.88710776
 21
86.9448171612
 31
0.0
  0
LINE
  5
118
330
1F
100
AcDbEntity
  8
0
  6
CONTINUOUS
 62
     8
100
AcDbLine
 10
151.88710776
 20
134.9446611469
 30
0.0
 11
151.8680051486
 21
134.9446611469
 31
0.0
  0
LINE
  5
119
330
1F
100
AcDbEntity
  8
0
  6
CONTINUOUS
 62
     8
100
AcDbLine
 10
155.1680051486
 20
138.2446611469
 30
0.0
 11
155.1680051486
 21
138.2255585355
 31
0.0
  0
LINE
  5
11A
330
1F
100
AcDbEntity
  8
0
  6
CONTINUOUS
 62
     8
100
AcDbLine
 10
160.5680051486
 20
83.6448171612
 30
0.0
 11
160.5680051486
 21
83.6639197725
 31
0.0
  0
LINE
  5
11B
330
1F
100
AcDbEntity
  8
0
  6
CONTINUOUS
 62
     8
100
AcDbLine
 10
160.5680051486
 20
138.2255585355
 30
0.0
 11
160.5680051486
 21
138.2446611469
 31
0.0
  0
LINE
  5
11C
330
1F
100
AcDbEntity
  8
0
  6
CONTINUOUS
 62
     8
100
AcDbLine
 10
183.0991402015
 20
53.8446611469
 30
0.0
 11
183.0991444649
 21
53.9180759542
 31
0.0
  0
LINE
  5
11D
330
1F
100
AcDbEntity
  8
0
  6
CONTINUOUS
 62
     8
100
AcDbLine
 10
132.6368700958
 20
53.8446611469
 30
0.0
 11
183.0991402015
 21
53.8446611469
 31
0.0
  0
LINE
  5
11E
330
1F
100
AcDbEntity
  8
0
  6
CONTINUOUS
 62
     8
100
AcDbLine
 10
132.6368658341
 20
53.9180599402
 30
0.0
 11
132.6368700958
 21
53.8446611469
 31
0.0
  0
LINE
  5
11F
330
1F
100
AcDbEntity
  8
0
  6
CONTINUOUS
 62
     8
100
AcDbLine
 10
183.0991402015
 20
52.8446611469
 30
0.0
 11
183.0991402015
 21
53.8446611469
 31
0.0
  0
LINE
  5
120
330
1F
100
AcDbEntity
  8
0
  6
CONTINUOUS
 62
     8
100
AcDbLine
 10
132.6368700958
 20
52.8446611469
 30
0.0
 11
183.0991402015
 21
52.8446611469
 31
0.0
  0
LINE
  5
121
330
1F
100
AcDbEntity
  8
0
  6
CONTINUOUS
 62
     8
100
AcDbLine
 10
132.6368700958
 20
53.8446611469
 30
0.0
 11
132.6368700958
 21
52.8446611469
 31
0.0
  0
SPLINE
  5
122
330
1F
100
AcDbEntity
  8
0
  6
CONTINUOUS
 62
     8
100
AcDbSpline
210
0.0
220
0.0
230
1.0
 70
     8
 71
     3
 72
    13
 73
     9
 74
     0
 42
0.00000001
 43
0.00000001
 40
0.0
 40
0.0
 40
0.0
 40
0.0
 40
0.1630036901831898
 40
0.3311385107025466
 40
0.4940080660522879
 40
0.6605551940735137
 40
0.8290665944415014
 40
0.9999999999999999
 40
0.9999999999999999
 40
0.9999999999999999
 40
0.9999999999999999
 10
182.858350957708
 20
33.37394456964722
 30
0.0
 10
182.9168748212559
 20
33.45420213375886
 30
0.0
 10
183.0357647984953
 20
33.61724365890882
 30
0.0
 10
183.1707923530269
 20
33.8820734223009
 30
0.0
 10
183.2727272968153
 20
34.15394612605868
 30
0.0
 10
183.3388030933695
 20
34.42639657922137
 30
0.0
 10
183.3749076376338
 20
34.69897660614615
 30
0.0
 10
183.3742192835598
 20
34.87465307269014
 30
0.0
 10
183.3738726507523
 20
34.96311804896482
 30
0.0
  0
SPLINE
  5
123
330
1F
100
AcDbEntity
  8
0
  6
CONTINUOUS
 62
     8
100
AcDbSpline
210
0.0
220
0.0
230
1.0
 70
     8
 71
     3
 72
    51
 73
    47
 74
     0
 42
0.00000001
 43
0.00000001
 40
0.0
 40
0.0
 40
0.0
 40
0.0
 40
0.0236820861888649
 40
0.0473847570395666
 40
0.0710850217257141
 40
0.0947638238680908
 40
0.1175633938827665
 40
0.1403826393812626
 40
0.1632016744343419
 40
0.1860009572298608
 40
0.2094609051373577
 40
0.2329422013890667
 40
0.2564235311961991
 40
0.2798835249027182
 40
0.3027225723932385
 40
0.3255812924468732
 40
0.3484399379686584
 40
0.3712788837372345
 40
0.3947797332611541
 40
0.4183020854537061
 40
0.4418245881721174
 40
0.4653256431461416
 40
0.4881969490992509
 40
0.5110880545809978
 40
0.5339790768047531
 40
0.5568502691258765
 40
0.5803881869953066
 40
0.6039477484333123
 40
0.6275077937017797
 40
0.6510463719442084
 40
0.6739111905537115
 40
0.6967959431545377
 40
0.7196806912002712
 40
0.7425455035928689
 40
0.7660759306909334
 40
0.7896277903027842
 40
0.8131795958893238
 40
0.8367099492493756
 40
0.8568886869945728
 40
0.8770810626845584
 40
0.8972734682872524
 40
0.9174522468500634
 40
0.9380809615724855
 40
0.9587238676442054
 40
0.9793686817148878
 40
1.0
 40
1.0
 40
1.0
 40
1.0
 10
132.8776602151761
 20
33.37394289937436
 30
0.0
 10
133.1625625080905
 20
33.01966152560575
 30
0.0
 10
133.7326147333083
 20
32.31079083381835
 30
0.0
 10
134.6413826539905
 20
31.29225257888599
 30
0.0
 10
135.5889406886812
 20
30.31012994378508
 30
0.0
 10
136.5666299196707
 20
29.38280437976186
 30
0.0
 10
137.5705218233302
 20
28.50961730556871
 30
0.0
 10
138.5966396905907
 20
27.68882763338233
 30
0.0
 10
139.6558919923717
 20
26.91127075352545
 30
0.0
 10
140.7568219610841
 20
26.17164098966374
 30
0.0
 10
141.8990472400088
 20
25.47280452865557
 30
0.0
 10
143.0814044008779
 20
24.81683402469021
 30
0.0
 10
144.2905563970598
 20
24.21167080911114
 30
0.0
 10
145.5131149844976
 20
23.66354260691579
 30
0.0
 10
146.7466117201186
 20
23.17199178582219
 30
0.0
 10
147.9884955894095
 20
22.73572765451982
 30
0.0
 10
149.2473549000866
 20
22.35118691962476
 30
0.0
 10
150.5330084080788
 20
22.016055185148
 30
0.0
 10
151.8442229672346
 20
21.73315153327143
 30
0.0
 10
153.1792592450855
 20
21.5043453103308
 30
0.0
 10
154.5228248487358
 20
21.33255748005655
 30
0.0
 10
155.8600356268022
 20
21.21916586688138
 30
0.0
 10
157.1887084399434
 20
21.16293135149396
 30
0.0
 10
158.5068566391867
 20
21.16188687032168
 30
0.0
 10
159.8239119894756
 20
21.21549055748807
 30
0.0
 10
161.1499875247223
 20
21.32476842091957
 30
0.0
 10
162.4829467733078
 20
21.49223466187372
 30
0.0
 10
163.8204989439828
 20
21.71907957121165
 30
0.0
 10
165.1471754150735
 20
22.00271164227796
 30
0.0
 10
166.4477422714249
 20
22.33892919944162
 30
0.0
 10
167.7205264843507
 20
22.72599782806013
 30
0.0
 10
168.9641885090558
 20
23.16172956501174
 30
0.0
 10
170.1886758427573
 20
23.64874571963857
 30
0.0
 10
171.4030992734193
 20
24.19148326222473
 30
0.0
 10
172.6048869925218
 20
24.79097563222618
 30
0.0
 10
173.7916334194944
 20
25.44740619305039
 30
0.0
 10
174.9493979729918
 20
26.1536928430928
 30
0.0
 10
176.0222322242518
 20
26.87262396092219
 30
0.0
 10
177.0132732419024
 20
27.59577354909201
 30
0.0
 10
177.9267548663065
 20
28.31517788214258
 30
0.0
 10
178.8132275068452
 20
29.06760660362501
 30
0.0
 10
179.677850018949
 20
29.85751898599182
 30
0.0
 10
180.5180069545913
 20
30.68585023679717
 30
0.0
 10
181.3314465381779
 20
31.55260706215324
 30
0.0
 10
182.1151497973025
 20
32.44661417473139
 30
0.0
 10
182.6106712433691
 20
33.06490182382422
 30
0.0
 10
182.858350957708
 20
33.37394456964722
 30
0.0
  0
SPLINE
  5
124
330
1F
100
AcDbEntity
  8
0
  6
CONTINUOUS
 62
     8
100
AcDbSpline
210
0.0
220
0.0
230
1.0
 70
     8
 71
     3
 72
    13
 73
     9
 74
     0
 42
0.00000001
 43
0.00000001
 40
0.0
 40
0.0
 40
0.0
 40
0.0
 40
0.2295941141803125
 40
0.3476495731369335
 40
0.4656736657683298
 40
0.6331905689845722
 40
0.8051367606128694
 40
1.0
 40
1.0
 40
1.0
 40
1.0
 10
132.3621376290191
 20
34.9631175305294
 30
0.0
 10
132.3626606982437
 20
34.84383791031137
 30
0.0
 10
132.363452725484
 20
34.66322566247228
 30
0.0
 10
132.4025877047279
 20
34.41156852788542
 30
0.0
 10
132.4536276122169
 20
34.19134396329763
 30
0.0
 10
132.5398600432548
 20
33.94084546326541
 30
0.0
 10
132.6777018158491
 20
33.65205525318959
 30
0.0
 10
132.8082878859018
 20
33.47042947782791
 30
0.0
 10
132.8776602151761
 20
33.37394289937436
 30
0.0
  0
POLYLINE
  5
125
330
1F
100
AcDbEntity
  8
0
  6
CONTINUOUS
 62
     8
100
AcDb2dPolyline
 66
     1
 10
0.0
 20
0.0
 30
0.0
 70
   128
  0
VERTEX
  5
2C5
330
125
100
AcDbEntity
  8
0
  6
CONTINUOUS
 62
     8
100
AcDbVertex
100
AcDb2dVertex
 10
132.6368700958
 20
52.8446611469
 30
0.0
  0
VERTEX
  5
2C6
330
125
100
AcDbEntity
  8
0
  6
CONTINUOUS
 62
     8
100
AcDbVertex
100
AcDb2dVertex
 10
132.6363364321
 20
52.0233619819
 30
0.0
  0
VERTEX
  5
2C7
330
125
100
AcDbEntity
  8
0
  6
CONTINUOUS
 62
     8
100
AcDbVertex
100
AcDb2dVertex
 10
132.6347357701
 20
51.2025691387
 30
0.0
  0
VERTEX
  5
2C8
330
125
100
AcDbEntity
  8
0
  6
CONTINUOUS
 62
     8
100
AcDbVertex
100
AcDb2dVertex
 10
132.6320690967
 20
50.3827886269
 30
0.0
  0
VERTEX
  5
2C9
330
125
100
AcDbEntity
  8
0
  6
CONTINUOUS
 62
     8
100
AcDbVertex
100
AcDb2dVertex
 10
132.6283380557
 20
49.564525832
 30
0.0
  0
VERTEX
  5
2CA
330
125
100
AcDbEntity
  8
0
  6
CONTINUOUS
 62
     8
100
AcDbVertex
100
AcDb2dVertex
 10
132.6235449472
 20
48.7482852039
 30
0.0
  0
VERTEX
  5
2CB
330
125
100
AcDbEntity
  8
0
  6
CONTINUOUS
 62
     8
100
AcDbVertex
100
AcDb2dVertex
 10
132.6176927263
 20
47.9345699457
 30
0.0
  0
VERTEX
  5
2CC
330
125
100
AcDbEntity
  8
0
  6
CONTINUOUS
 62
     8
100
AcDbVertex
100
AcDb2dVertex
 10
132.6107850007
 20
47.123881704
 30
0.0
  0
VERTEX
  5
2CD
330
125
100
AcDbEntity
  8
0
  6
CONTINUOUS
 62
     8
100
AcDbVertex
100
AcDb2dVertex
 10
132.602826029
 20
46.3167202588
 30
0.0
  0
VERTEX
  5
2CE
330
125
100
AcDbEntity
  8
0
  6
CONTINUOUS
 62
     8
100
AcDbVertex
100
AcDb2dVertex
 10
132.5938207178
 20
45.5135832162
 30
0.0
  0
VERTEX
  5
2CF
330
125
100
AcDbEntity
  8
0
  6
CONTINUOUS
 62
     8
100
AcDbVertex
100
AcDb2dVertex
 10
132.5837746187
 20
44.7149657013
 30
0.0
  0
VERTEX
  5
2D0
330
125
100
AcDbEntity
  8
0
  6
CONTINUOUS
 62
     8
100
AcDbVertex
100
AcDb2dVertex
 10
132.5726939251
 20
43.9213600528
 30
0.0
  0
VERTEX
  5
2D1
330
125
100
AcDbEntity
  8
0
  6
CONTINUOUS
 62
     8
100
AcDbVertex
100
AcDb2dVertex
 10
132.5605854681
 20
43.1332555197
 30
0.0
  0
VERTEX
  5
2D2
330
125
100
AcDbEntity
  8
0
  6
CONTINUOUS
 62
     8
100
AcDbVertex
100
AcDb2dVertex
 10
132.5474567124
 20
42.3511379596
 30
0.0
  0
VERTEX
  5
2D3
330
125
100
AcDbEntity
  8
0
  6
CONTINUOUS
 62
     8
100
AcDbVertex
100
AcDb2dVertex
 10
132.5333157517
 20
41.5754895394
 30
0.0
  0
VERTEX
  5
2D4
330
125
100
AcDbEntity
  8
0
  6
CONTINUOUS
 62
     8
100
AcDbVertex
100
AcDb2dVertex
 10
132.5181713038
 20
40.8067884375
 30
0.0
  0
VERTEX
  5
2D5
330
125
100
AcDbEntity
  8
0
  6
CONTINUOUS
 62
     8
100
AcDbVertex
100
AcDb2dVertex
 10
132.5020327051
 20
40.0455085497
 30
0.0
  0
VERTEX
  5
2D6
330
125
100
AcDbEntity
  8
0
  6
CONTINUOUS
 62
     8
100
AcDbVertex
100
AcDb2dVertex
 10
132.4849099049
 20
39.2921191964
 30
0.0
  0
VERTEX
  5
2D7
330
125
100
AcDbEntity
  8
0
  6
CONTINUOUS
 62
     8
100
AcDbVertex
100
AcDb2dVertex
 10
132.4668134591
 20
38.5470848338
 30
0.0
  0
VERTEX
  5
2D8
330
125
100
AcDbEntity
  8
0
  6
CONTINUOUS
 62
     8
100
AcDbVertex
100
AcDb2dVertex
 10
132.447754524
 20
37.8108647672
 30
0.0
  0
VERTEX
  5
2D9
330
125
100
AcDbEntity
  8
0
  6
CONTINUOUS
 62
     8
100
AcDbVertex
100
AcDb2dVertex
 10
132.4277448493
 20
37.0839128682
 30
0.0
  0
VERTEX
  5
2DA
330
125
100
AcDbEntity
  8
0
  6
CONTINUOUS
 62
     8
100
AcDbVertex
100
AcDb2dVertex
 10
132.4067967706
 20
36.3666772943
 30
0.0
  0
VERTEX
  5
2DB
330
125
100
AcDbEntity
  8
0
  6
CONTINUOUS
 62
     8
100
AcDbVertex
100
AcDb2dVertex
 10
132.3849232022
 20
35.6596002134
 30
0.0
  0
VERTEX
  5
2DC
330
125
100
AcDbEntity
  8
0
  6
CONTINUOUS
 62
     8
100
AcDbVertex
100
AcDb2dVertex
 10
132.362137629
 20
34.9631175305
 30
0.0
  0
SEQEND
  5
3DC
330
125
100
AcDbEntity
  8
0
  6
CONTINUOUS
 62
     8
  0
POLYLINE
  5
126
330
1F
100
AcDbEntity
  8
0
  6
CONTINUOUS
 62
     8
100
AcDb2dPolyline
 66
     1
 10
0.0
 20
0.0
 30
0.0
 70
   128
  0
VERTEX
  5
2DD
330
126
100
AcDbEntity
  8
0
  6
CONTINUOUS
 62
     8
100
AcDbVertex
100
AcDb2dVertex
 10
183.3738726508
 20
34.963118049
 30
0.0
  0
VERTEX
  5
2DE
330
126
100
AcDbEntity
  8
0
  6
CONTINUOUS
 62
     8
100
AcDbVertex
100
AcDb2dVertex
 10
183.351087079
 20
35.6596007171
 30
0.0
  0
VERTEX
  5
2DF
330
126
100
AcDbEntity
  8
0
  6
CONTINUOUS
 62
     8
100
AcDbVertex
100
AcDb2dVertex
 10
183.329213512
 20
36.3666777822
 30
0.0
  0
VERTEX
  5
2E0
330
126
100
AcDbEntity
  8
0
  6
CONTINUOUS
 62
     8
100
AcDbVertex
100
AcDb2dVertex
 10
183.3082654346
 20
37.0839133393
 30
0.0
  0
VERTEX
  5
2E1
330
126
100
AcDbEntity
  8
0
  6
CONTINUOUS
 62
     8
100
AcDbVertex
100
AcDb2dVertex
 10
183.2882557611
 20
37.8108652207
 30
0.0
  0
VERTEX
  5
2E2
330
126
100
AcDbEntity
  8
0
  6
CONTINUOUS
 62
     8
100
AcDbVertex
100
AcDb2dVertex
 10
183.2691968272
 20
38.5470852687
 30
0.0
  0
VERTEX
  5
2E3
330
126
100
AcDbEntity
  8
0
  6
CONTINUOUS
 62
     8
100
AcDbVertex
100
AcDb2dVertex
 10
183.2511003825
 20
39.2921196119
 30
0.0
  0
VERTEX
  5
2E4
330
126
100
AcDbEntity
  8
0
  6
CONTINUOUS
 62
     8
100
AcDbVertex
100
AcDb2dVertex
 10
183.2339775834
 20
40.045508945
 30
0.0
  0
VERTEX
  5
2E5
330
126
100
AcDbEntity
  8
0
  6
CONTINUOUS
 62
     8
100
AcDbVertex
100
AcDb2dVertex
 10
183.2178389857
 20
40.8067888118
 30
0.0
  0
VERTEX
  5
2E6
330
126
100
AcDbEntity
  8
0
  6
CONTINUOUS
 62
     8
100
AcDbVertex
100
AcDb2dVertex
 10
183.2026945388
 20
41.575489892
 30
0.0
  0
VERTEX
  5
2E7
330
126
100
AcDbEntity
  8
0
  6
CONTINUOUS
 62
     8
100
AcDbVertex
100
AcDb2dVertex
 10
183.1885535791
 20
42.3511382899
 30
0.0
  0
VERTEX
  5
2E8
330
126
100
AcDbEntity
  8
0
  6
CONTINUOUS
 62
     8
100
AcDbVertex
100
AcDb2dVertex
 10
183.1754248242
 20
43.133255827
 30
0.0
  0
VERTEX
  5
2E9
330
126
100
AcDbEntity
  8
0
  6
CONTINUOUS
 62
     8
100
AcDbVertex
100
AcDb2dVertex
 10
183.1633163679
 20
43.9213603366
 30
0.0
  0
VERTEX
  5
2EA
330
126
100
AcDbEntity
  8
0
  6
CONTINUOUS
 62
     8
100
AcDbVertex
100
AcDb2dVertex
 10
183.152235675
 20
44.714965961
 30
0.0
  0
VERTEX
  5
2EB
330
126
100
AcDbEntity
  8
0
  6
CONTINUOUS
 62
     8
100
AcDbVertex
100
AcDb2dVertex
 10
183.1421895766
 20
45.5135834514
 30
0.0
  0
VERTEX
  5
2EC
330
126
100
AcDbEntity
  8
0
  6
CONTINUOUS
 62
     8
100
AcDbVertex
100
AcDb2dVertex
 10
183.133184266
 20
46.3167204689
 30
0.0
  0
VERTEX
  5
2ED
330
126
100
AcDbEntity
  8
0
  6
CONTINUOUS
 62
     8
100
AcDbVertex
100
AcDb2dVertex
 10
183.1252252948
 20
47.1238818887
 30
0.0
  0
VERTEX
  5
2EE
330
126
100
AcDbEntity
  8
0
  6
CONTINUOUS
 62
     8
100
AcDbVertex
100
AcDb2dVertex
 10
183.1183175696
 20
47.9345701047
 30
0.0
  0
VERTEX
  5
2EF
330
126
100
AcDbEntity
  8
0
  6
CONTINUOUS
 62
     8
100
AcDbVertex
100
AcDb2dVertex
 10
183.1124653491
 20
48.7482853368
 30
0.0
  0
VERTEX
  5
2F0
330
126
100
AcDbEntity
  8
0
  6
CONTINUOUS
 62
     8
100
AcDbVertex
100
AcDb2dVertex
 10
183.107672241
 20
49.5645259387
 30
0.0
  0
VERTEX
  5
2F1
330
126
100
AcDbEntity
  8
0
  6
CONTINUOUS
 62
     8
100
AcDbVertex
100
AcDb2dVertex
 10
183.1039412002
 20
50.3827887071
 30
0.0
  0
VERTEX
  5
2F2
330
126
100
AcDbEntity
  8
0
  6
CONTINUOUS
 62
     8
100
AcDbVertex
100
AcDb2dVertex
 10
183.1012745269
 20
51.2025691923
 30
0.0
  0
VERTEX
  5
2F3
330
126
100
AcDbEntity
  8
0
  6
CONTINUOUS
 62
     8
100
AcDbVertex
100
AcDb2dVertex
 10
183.0996738651
 20
52.0233620087
 30
0.0
  0
VERTEX
  5
2F4
330
126
100
AcDbEntity
  8
0
  6
CONTINUOUS
 62
     8
100
AcDbVertex
100
AcDb2dVertex
 10
183.0991402015
 20
52.8446611469
 30
0.0
  0
SEQEND
  5
3DD
330
126
100
AcDbEntity
  8
0
  6
CONTINUOUS
 62
     8
  0
LINE
  5
127
330
1F
100
AcDbEntity
  8
0
  6
CONTINUOUS
 62
     8
100
AcDbLine
 10
132.2291336536
 20
52.8446611469
 30
0.0
 11
132.2291336536
 21
53.8446611469
 31
0.0
  0
LINE
  5
128
330
1F
100
AcDbEntity
  8
0
  6
CONTINUOUS
 62
     8
100
AcDbLine
 10
132.2291336536
 20
53.8446611469
 30
0.0
 11
132.6368700958
 21
53.8446611469
 31
0.0
  0
LINE
  5
129
330
1F
100
AcDbEntity
  8
0
  6
CONTINUOUS
 62
     8
100
AcDbLine
 10
132.2291336536
 20
52.8446611469
 30
0.0
 11
132.6368700958
 21
52.8446611469
 31
0.0
  0
LINE
  5
12A
330
1F
100
AcDbEntity
  8
0
  6
CONTINUOUS
 62
     8
100
AcDbLine
 10
132.2291336536
 20
53.8446611469
 30
0.0
 11
132.2291299317
 21
53.9124468625
 31
0.0
  0
POLYLINE
  5
12B
330
1F
100
AcDbEntity
  8
0
  6
CONTINUOUS
 62
     8
100
AcDb2dPolyline
 66
     1
 10
0.0
 20
0.0
 30
0.0
 70
   128
  0
VERTEX
  5
2F5
330
12B
100
AcDbEntity
  8
0
  6
CONTINUOUS
 62
     8
100
AcDbVertex
100
AcDb2dVertex
 10
131.9608352025
 20
35.3818890438
 30
0.0
  0
VERTEX
  5
2F6
330
12B
100
AcDbEntity
  8
0
  6
CONTINUOUS
 62
     8
100
AcDbVertex
100
AcDb2dVertex
 10
131.9830871557
 20
36.0620606568
 30
0.0
  0
VERTEX
  5
2F7
330
12B
100
AcDbEntity
  8
0
  6
CONTINUOUS
 62
     8
100
AcDbVertex
100
AcDb2dVertex
 10
132.0044484625
 20
36.7525785555
 30
0.0
  0
VERTEX
  5
2F8
330
12B
100
AcDbEntity
  8
0
  6
CONTINUOUS
 62
     8
100
AcDbVertex
100
AcDb2dVertex
 10
132.0249059538
 20
37.4530170433
 30
0.0
  0
VERTEX
  5
2F9
330
12B
100
AcDbEntity
  8
0
  6
CONTINUOUS
 62
     8
100
AcDbVertex
100
AcDb2dVertex
 10
132.0444470179
 20
38.1629443078
 30
0.0
  0
VERTEX
  5
2FA
330
12B
100
AcDbEntity
  8
0
  6
CONTINUOUS
 62
     8
100
AcDbVertex
100
AcDb2dVertex
 10
132.0630596079
 20
38.8819226866
 30
0.0
  0
VERTEX
  5
2FB
330
12B
100
AcDbEntity
  8
0
  6
CONTINUOUS
 62
     8
100
AcDbVertex
100
AcDb2dVertex
 10
132.0807322494
 20
39.6095089376
 30
0.0
  0
VERTEX
  5
2FC
330
12B
100
AcDbEntity
  8
0
  6
CONTINUOUS
 62
     8
100
AcDbVertex
100
AcDb2dVertex
 10
132.0974540473
 20
40.3452545121
 30
0.0
  0
VERTEX
  5
2FD
330
12B
100
AcDbEntity
  8
0
  6
CONTINUOUS
 62
     8
100
AcDbVertex
100
AcDb2dVertex
 10
132.1132146928
 20
41.0887058312
 30
0.0
  0
VERTEX
  5
2FE
330
12B
100
AcDbEntity
  8
0
  6
CONTINUOUS
 62
     8
100
AcDbVertex
100
AcDb2dVertex
 10
132.1280044698
 20
41.8394045653
 30
0.0
  0
VERTEX
  5
2FF
330
12B
100
AcDbEntity
  8
0
  6
CONTINUOUS
 62
     8
100
AcDbVertex
100
AcDb2dVertex
 10
132.1418142604
 20
42.5968879172
 30
0.0
  0
VERTEX
  5
300
330
12B
100
AcDbEntity
  8
0
  6
CONTINUOUS
 62
     8
100
AcDbVertex
100
AcDb2dVertex
 10
132.1546355511
 20
43.3606889067
 30
0.0
  0
VERTEX
  5
301
330
12B
100
AcDbEntity
  8
0
  6
CONTINUOUS
 62
     8
100
AcDbVertex
100
AcDb2dVertex
 10
132.1664604377
 20
44.1303366592
 30
0.0
  0
VERTEX
  5
302
330
12B
100
AcDbEntity
  8
0
  6
CONTINUOUS
 62
     8
100
AcDbVertex
100
AcDb2dVertex
 10
132.1772816303
 20
44.9053566953
 30
0.0
  0
VERTEX
  5
303
330
12B
100
AcDbEntity
  8
0
  6
CONTINUOUS
 62
     8
100
AcDbVertex
100
AcDb2dVertex
 10
132.1870924578
 20
45.685271224
 30
0.0
  0
VERTEX
  5
304
330
12B
100
AcDbEntity
  8
0
  6
CONTINUOUS
 62
     8
100
AcDbVertex
100
AcDb2dVertex
 10
132.1958868718
 20
46.4695994365
 30
0.0
  0
VERTEX
  5
305
330
12B
100
AcDbEntity
  8
0
  6
CONTINUOUS
 62
     8
100
AcDbVertex
100
AcDb2dVertex
 10
132.2036594507
 20
47.2578578033
 30
0.0
  0
VERTEX
  5
306
330
12B
100
AcDbEntity
  8
0
  6
CONTINUOUS
 62
     8
100
AcDbVertex
100
AcDb2dVertex
 10
132.2104054029
 20
48.049560372
 30
0.0
  0
VERTEX
  5
307
330
12B
100
AcDbEntity
  8
0
  6
CONTINUOUS
 62
     8
100
AcDbVertex
100
AcDb2dVertex
 10
132.2161205694
 20
48.8442190667
 30
0.0
  0
VERTEX
  5
308
330
12B
100
AcDbEntity
  8
0
  6
CONTINUOUS
 62
     8
100
AcDbVertex
100
AcDb2dVertex
 10
132.2208014271
 20
49.6413439893
 30
0.0
  0
VERTEX
  5
309
330
12B
100
AcDbEntity
  8
0
  6
CONTINUOUS
 62
     8
100
AcDbVertex
100
AcDb2dVertex
 10
132.2244450901
 20
50.4404437211
 30
0.0
  0
VERTEX
  5
30A
330
12B
100
AcDbEntity
  8
0
  6
CONTINUOUS
 62
     8
100
AcDbVertex
100
AcDb2dVertex
 10
132.2270493122
 20
51.2410256261
 30
0.0
  0
VERTEX
  5
30B
330
12B
100
AcDbEntity
  8
0
  6
CONTINUOUS
 62
     8
100
AcDbVertex
100
AcDb2dVertex
 10
132.2286124879
 20
52.0425961544
 30
0.0
  0
VERTEX
  5
30C
330
12B
100
AcDbEntity
  8
0
  6
CONTINUOUS
 62
     8
100
AcDbVertex
100
AcDb2dVertex
 10
132.2291336536
 20
52.8446611469
 30
0.0
  0
SEQEND
  5
3DE
330
12B
100
AcDbEntity
  8
0
  6
CONTINUOUS
 62
     8
  0
ARC
  5
12C
330
1F
100
AcDbEntity
  8
0
  6
CONTINUOUS
 62
     8
100
AcDbCircle
 10
132.5216858855
 20
35.5176770077
 30
0.0
 40
0.577054468695749
100
AcDbArc
 50
193.6100273523
 51
253.9493303125
  0
LINE
  5
12D
330
1F
100
AcDbEntity
  8
0
  6
CONTINUOUS
 62
     8
100
AcDbLine
 10
183.5068803644
 20
53.9124364372
 30
0.0
 11
183.5068766436
 21
53.8446611469
 31
0.0
  0
LINE
  5
12E
330
1F
100
AcDbEntity
  8
0
  6
CONTINUOUS
 62
     8
100
AcDbLine
 10
183.0991402015
 20
53.8446611469
 30
0.0
 11
183.5068766436
 21
53.8446611469
 31
0.0
  0
LINE
  5
12F
330
1F
100
AcDbEntity
  8
0
  6
CONTINUOUS
 62
     8
100
AcDbLine
 10
183.5068766436
 20
53.8446611469
 30
0.0
 11
183.5068766436
 21
52.8446611469
 31
0.0
  0
LINE
  5
130
330
1F
100
AcDbEntity
  8
0
  6
CONTINUOUS
 62
     8
100
AcDbLine
 10
183.0991402015
 20
52.8446611469
 30
0.0
 11
183.5068766436
 21
52.8446611469
 31
0.0
  0
POLYLINE
  5
131
330
1F
100
AcDbEntity
  8
0
  6
CONTINUOUS
 62
     8
100
AcDb2dPolyline
 66
     1
 10
0.0
 20
0.0
 30
0.0
 70
   128
  0
VERTEX
  5
30D
330
131
100
AcDbEntity
  8
0
  6
CONTINUOUS
 62
     8
100
AcDbVertex
100
AcDb2dVertex
 10
183.5068766436
 20
52.8446611469
 30
0.0
  0
VERTEX
  5
30E
330
131
100
AcDbEntity
  8
0
  6
CONTINUOUS
 62
     8
100
AcDbVertex
100
AcDb2dVertex
 10
183.5073978093
 20
52.0425961806
 30
0.0
  0
VERTEX
  5
30F
330
131
100
AcDbEntity
  8
0
  6
CONTINUOUS
 62
     8
100
AcDbVertex
100
AcDb2dVertex
 10
183.5089609849
 20
51.2410256783
 30
0.0
  0
VERTEX
  5
310
330
131
100
AcDbEntity
  8
0
  6
CONTINUOUS
 62
     8
100
AcDbVertex
100
AcDb2dVertex
 10
183.5115652068
 20
50.4404437993
 30
0.0
  0
VERTEX
  5
311
330
131
100
AcDbEntity
  8
0
  6
CONTINUOUS
 62
     8
100
AcDbVertex
100
AcDb2dVertex
 10
183.5152088696
 20
49.6413440934
 30
0.0
  0
VERTEX
  5
312
330
131
100
AcDbEntity
  8
0
  6
CONTINUOUS
 62
     8
100
AcDbVertex
100
AcDb2dVertex
 10
183.5198897269
 20
48.8442191965
 30
0.0
  0
VERTEX
  5
313
330
131
100
AcDbEntity
  8
0
  6
CONTINUOUS
 62
     8
100
AcDbVertex
100
AcDb2dVertex
 10
183.5256048931
 20
48.0495605272
 30
0.0
  0
VERTEX
  5
314
330
131
100
AcDbEntity
  8
0
  6
CONTINUOUS
 62
     8
100
AcDbVertex
100
AcDb2dVertex
 10
183.5323508448
 20
47.2578579837
 30
0.0
  0
VERTEX
  5
315
330
131
100
AcDbEntity
  8
0
  6
CONTINUOUS
 62
     8
100
AcDbVertex
100
AcDb2dVertex
 10
183.5401234233
 20
46.4695996417
 30
0.0
  0
VERTEX
  5
316
330
131
100
AcDbEntity
  8
0
  6
CONTINUOUS
 62
     8
100
AcDbVertex
100
AcDb2dVertex
 10
183.5489178367
 20
45.6852714536
 30
0.0
  0
VERTEX
  5
317
330
131
100
AcDbEntity
  8
0
  6
CONTINUOUS
 62
     8
100
AcDbVertex
100
AcDb2dVertex
 10
183.5587286635
 20
44.905356949
 30
0.0
  0
VERTEX
  5
318
330
131
100
AcDbEntity
  8
0
  6
CONTINUOUS
 62
     8
100
AcDbVertex
100
AcDb2dVertex
 10
183.5695498554
 20
44.1303369363
 30
0.0
  0
VERTEX
  5
319
330
131
100
AcDbEntity
  8
0
  6
CONTINUOUS
 62
     8
100
AcDbVertex
100
AcDb2dVertex
 10
183.5813747412
 20
43.3606892069
 30
0.0
  0
VERTEX
  5
31A
330
131
100
AcDbEntity
  8
0
  6
CONTINUOUS
 62
     8
100
AcDbVertex
100
AcDb2dVertex
 10
183.5941960311
 20
42.5968882398
 30
0.0
  0
VERTEX
  5
31B
330
131
100
AcDbEntity
  8
0
  6
CONTINUOUS
 62
     8
100
AcDbVertex
100
AcDb2dVertex
 10
183.6080058209
 20
41.8394049097
 30
0.0
  0
VERTEX
  5
31C
330
131
100
AcDbEntity
  8
0
  6
CONTINUOUS
 62
     8
100
AcDbVertex
100
AcDb2dVertex
 10
183.6227955969
 20
41.0887061967
 30
0.0
  0
VERTEX
  5
31D
330
131
100
AcDbEntity
  8
0
  6
CONTINUOUS
 62
     8
100
AcDbVertex
100
AcDb2dVertex
 10
183.6385562414
 20
40.3452548982
 30
0.0
  0
VERTEX
  5
31E
330
131
100
AcDbEntity
  8
0
  6
CONTINUOUS
 62
     8
100
AcDbVertex
100
AcDb2dVertex
 10
183.6552780383
 20
39.6095093434
 30
0.0
  0
VERTEX
  5
31F
330
131
100
AcDbEntity
  8
0
  6
CONTINUOUS
 62
     8
100
AcDbVertex
100
AcDb2dVertex
 10
183.6729506786
 20
38.8819231113
 30
0.0
  0
VERTEX
  5
320
330
131
100
AcDbEntity
  8
0
  6
CONTINUOUS
 62
     8
100
AcDbVertex
100
AcDb2dVertex
 10
183.6915632674
 20
38.1629447506
 30
0.0
  0
VERTEX
  5
321
330
131
100
AcDbEntity
  8
0
  6
CONTINUOUS
 62
     8
100
AcDbVertex
100
AcDb2dVertex
 10
183.7111043303
 20
37.4530175034
 30
0.0
  0
VERTEX
  5
322
330
131
100
AcDbEntity
  8
0
  6
CONTINUOUS
 62
     8
100
AcDbVertex
100
AcDb2dVertex
 10
183.7315618204
 20
36.752579032
 30
0.0
  0
VERTEX
  5
323
330
131
100
AcDbEntity
  8
0
  6
CONTINUOUS
 62
     8
100
AcDbVertex
100
AcDb2dVertex
 10
183.7529231259
 20
36.0620611487
 30
0.0
  0
VERTEX
  5
324
330
131
100
AcDbEntity
  8
0
  6
CONTINUOUS
 62
     8
100
AcDbVertex
100
AcDb2dVertex
 10
183.7751750777
 20
35.3818895501
 30
0.0
  0
SEQEND
  5
3DF
330
131
100
AcDbEntity
  8
0
  6
CONTINUOUS
 62
     8
  0
ARC
  5
132
330
1F
100
AcDbEntity
  8
0
  6
CONTINUOUS
 62
     8
100
AcDbCircle
 10
183.2143244057
 20
35.5176775196
 30
0.0
 40
0.5770544592348704
100
AcDbArc
 50
286.0506687697
 51
346.3899718476
  0
POLYLINE
  5
133
330
1F
100
AcDbEntity
  8
0
  6
CONTINUOUS
 62
     8
100
AcDb2dPolyline
 66
     1
 10
0.0
 20
0.0
 30
0.0
 70
   128
  0
VERTEX
  5
325
330
133
100
AcDbEntity
  8
0
  6
CONTINUOUS
 62
     8
100
AcDbVertex
100
AcDb2dVertex
 10
131.903047827
 20
35.361913733
 30
0.0
  0
VERTEX
  5
326
330
133
100
AcDbEntity
  8
0
  6
CONTINUOUS
 62
     8
100
AcDbVertex
100
AcDb2dVertex
 10
131.9244809545
 20
35.3693216036
 30
0.0
  0
VERTEX
  5
327
330
133
100
AcDbEntity
  8
0
  6
CONTINUOUS
 62
     8
100
AcDbVertex
100
AcDb2dVertex
 10
131.9608352025
 20
35.3818890438
 30
0.0
  0
SEQEND
  5
3E0
330
133
100
AcDbEntity
  8
0
  6
CONTINUOUS
 62
     8
  0
POLYLINE
  5
134
330
1F
100
AcDbEntity
  8
0
  6
CONTINUOUS
 62
     8
100
AcDb2dPolyline
 66
     1
 10
0.0
 20
0.0
 30
0.0
 70
   128
  0
VERTEX
  5
328
330
134
100
AcDbEntity
  8
0
  6
CONTINUOUS
 62
     8
100
AcDbVertex
100
AcDb2dVertex
 10
183.7751750777
 20
35.3818895501
 30
0.0
  0
VERTEX
  5
329
330
134
100
AcDbEntity
  8
0
  6
CONTINUOUS
 62
     8
100
AcDbVertex
100
AcDb2dVertex
 10
183.8115293427
 20
35.3693221168
 30
0.0
  0
VERTEX
  5
32A
330
134
100
AcDbEntity
  8
0
  6
CONTINUOUS
 62
     8
100
AcDbVertex
100
AcDb2dVertex
 10
183.8329624703
 20
35.3619142513
 30
0.0
  0
SEQEND
  5
3E1
330
134
100
AcDbEntity
  8
0
  6
CONTINUOUS
 62
     8
  0
ARC
  5
135
330
1F
100
AcDbEntity
  8
0
  6
CONTINUOUS
 62
     8
100
AcDbCircle
 10
176.3069655148
 20
25.0080082346
 30
0.0
 40
10.6258901737047
100
AcDbArc
 50
50.5510819025
 51
51.9354163449
  0
SPLINE
  5
136
330
1F
100
AcDbEntity
  8
0
  6
CONTINUOUS
 62
     8
100
AcDbSpline
210
0.0
220
0.0
230
1.0
 70
     8
 71
     3
 72
    51
 73
    47
 74
     0
 42
0.00000001
 43
0.00000001
 40
0.0
 40
0.0
 40
0.0
 40
0.0
 40
0.020180606602442
 40
0.0403738486510362
 40
0.0605653231846729
 40
0.0807435179917661
 40
0.1013628442126364
 40
0.12199670572932
 40
0.1426305368266518
 40
0.1632498215373352
 40
0.1861185670025724
 40
0.2090070026711163
 40
0.2318954849130932
 40
0.2547642939422153
 40
0.2782970388452783
 40
0.3018514959967352
 40
0.3254059323462924
 40
0.3489386488569523
 40
0.3718136234554844
 40
0.3947082868149452
 40
0.4176025225130164
 40
0.4404769134329855
 40
0.4640171055263042
 40
0.4875789281349228
 40
0.5111408578786363
 40
0.5346811961993861
 40
0.5575228185828714
 40
0.5803841249040949
 40
0.603245294019427
 40
0.62608672914253
 40
0.6495901652375271
 40
0.6731150718129301
 40
0.6966400589990847
 40
0.7201436051181808
 40
0.742946649781787
 40
0.7657692774536803
 40
0.7885918956625854
 40
0.811394927411034
 40
0.8348580535098505
 40
0.8583427052878988
 40
0.8818275791084454
 40
0.9052910082697455
 40
0.9289561589853982
 40
0.9526427448039815
 40
0.9763316642458577
 40
1.0
 40
1.0
 40
1.0
 40
1.0
 10
183.05855016653
 20
33.21322893084816
 30
0.0
 10
182.8144144066665
 20
32.90847702979584
 30
0.0
 10
182.3259900290841
 20
32.29878241696328
 30
0.0
 10
181.5543337491387
 20
31.41647059215118
 30
0.0
 10
180.753952387939
 20
30.56039517246138
 30
0.0
 10
179.9157438524107
 20
29.72943570714213
 30
0.0
 10
179.0402875637701
 20
28.92514265380256
 30
0.0
 10
178.128751666858
 20
28.14832260086364
 30
0.0
 10
177.1887441326332
 20
27.40620269710595
 30
0.0
 10
176.1866370046716
 20
26.67436156730626
 30
0.0
 10
175.1199266991896
 20
25.958587206401
 30
0.0
 10
173.9870559948222
 20
25.26466504412701
 30
0.0
 10
172.8264735653179
 20
24.61815046281104
 30
0.0
 10
171.6290261032948
 20
24.01454062578387
 30
0.0
 10
170.3952827229937
 20
23.45693519166948
 30
0.0
 10
169.1264467392487
 20
22.94783184699664
 30
0.0
 10
167.8370167619782
 20
22.49340433557226
 30
0.0
 10
166.5418229330908
 20
22.09864051278743
 30
0.0
 10
165.2435003939607
 20
21.76216964183536
 30
0.0
 10
163.9445140074066
 20
21.48200139255509
 30
0.0
 10
162.6350450364374
 20
21.25586082155964
 30
0.0
 10
161.304879301887
 20
21.08299093937965
 30
0.0
 10
159.9556444523418
 20
20.96601160798986
 30
0.0
 10
158.5893591064885
 20
20.9062651762604
 30
0.0
 10
157.2217655581309
 20
20.90486001553096
 30
0.0
 10
155.8692795879875
 20
20.96127691059593
 30
0.0
 10
154.5339294758865
 20
21.07369146964716
 30
0.0
 10
153.2174138316568
 20
21.23959683039996
 30
0.0
 10
151.90888925665
 20
21.4598160314366
 30
0.0
 10
150.5984793414939
 20
21.73677272103429
 30
0.0
 10
149.2885491361142
 20
22.07234190018153
 30
0.0
 10
147.9814744713954
 20
22.46731749321615
 30
0.0
 10
146.6923834952529
 20
22.91753772291113
 30
0.0
 10
145.4366061064782
 20
23.41707808281572
 30
0.0
 10
144.2154942090661
 20
23.9636784800003
 30
0.0
 10
143.0298278655465
 20
24.55443177184749
 30
0.0
 10
141.8695602585162
 20
25.19362578422325
 30
0.0
 10
140.7260832318601
 20
25.88663157479261
 30
0.0
 10
139.6023796923411
 20
26.63469544517949
 30
0.0
 10
138.5011139453726
 20
27.4380013409128
 30
0.0
 10
137.4350957733709
 20
28.28752906744086
 30
0.0
 10
136.4034190769873
 20
29.18377904618684
 30
0.0
 10
135.4089652351126
 20
30.12694040893676
 30
0.0
 10
134.4543246716433
 20
31.11624630030314
 30
0.0
 10
133.5387555755519
 20
32.14223655802117
 30
0.0
 10
132.9644762125897
 20
32.85633354892411
 30
0.0
 10
132.6774613355026
 20
33.21322685432698
 30
0.0
  0
ARC
  5
137
330
1F
100
AcDbEntity
  8
0
  6
CONTINUOUS
 62
     8
100
AcDbCircle
 10
139.4281585437
 20
25.0091461826
 30
0.0
 40
10.62444598394068
100
AcDbArc
 50
128.0646062579
 51
129.4491288704
  0
POLYLINE
  5
138
330
1F
100
AcDbEntity
  8
0
  6
CONTINUOUS
 62
     8
100
AcDb2dPolyline
 66
     1
 10
0.0
 20
0.0
 30
0.0
 70
   128
  0
VERTEX
  5
32B
330
138
100
AcDbEntity
  8
0
  6
CONTINUOUS
 62
     8
100
AcDbVertex
100
AcDb2dVertex
 10
132.6774613355
 20
33.2132268543
 30
0.0
  0
VERTEX
  5
32C
330
138
100
AcDbEntity
  8
0
  6
CONTINUOUS
 62
     8
100
AcDbVertex
100
AcDb2dVertex
 10
132.6705380673
 20
33.210932948
 30
0.0
  0
VERTEX
  5
32D
330
138
100
AcDbEntity
  8
0
  6
CONTINUOUS
 62
     8
100
AcDbVertex
100
AcDb2dVertex
 10
132.6489174005
 20
33.2037639987
 30
0.0
  0
SEQEND
  5
3E2
330
138
100
AcDbEntity
  8
0
  6
CONTINUOUS
 62
     8
  0
POLYLINE
  5
139
330
1F
100
AcDbEntity
  8
0
  6
CONTINUOUS
 62
     8
100
AcDb2dPolyline
 66
     1
 10
0.0
 20
0.0
 30
0.0
 70
   128
  0
VERTEX
  5
32E
330
139
100
AcDbEntity
  8
0
  6
CONTINUOUS
 62
     8
100
AcDbVertex
100
AcDb2dVertex
 10
183.0870936834
 20
33.2037655192
 30
0.0
  0
VERTEX
  5
32F
330
139
100
AcDbEntity
  8
0
  6
CONTINUOUS
 62
     8
100
AcDbVertex
100
AcDb2dVertex
 10
183.0654733467
 20
33.2109348835
 30
0.0
  0
VERTEX
  5
330
330
139
100
AcDbEntity
  8
0
  6
CONTINUOUS
 62
     8
100
AcDbVertex
100
AcDb2dVertex
 10
183.0585501665
 20
33.2132289308
 30
0.0
  0
SEQEND
  5
3E3
330
139
100
AcDbEntity
  8
0
  6
CONTINUOUS
 62
     8
  0
SPLINE
  5
13A
330
1F
100
AcDbEntity
  8
0
  6
CONTINUOUS
 62
     8
100
AcDbSpline
210
0.0
220
0.0
230
1.0
 70
     8
 71
     3
 72
    15
 73
    11
 74
     0
 42
0.00000001
 43
0.00000001
 40
0.0
 40
0.0
 40
0.0
 40
0.0
 40
0.1002569912821886
 40
0.2013161623170927
 40
0.3718362425181616
 40
0.5460323718900947
 40
0.6579771101755281
 40
0.7699350261862169
 40
0.884961205849832
 40
1.0
 40
1.0
 40
1.0
 40
1.0
 10
132.6774613355026
 20
33.21322685432698
 30
0.0
 10
132.6289479228309
 20
33.27775972577555
 30
0.0
 10
132.5315329302694
 20
33.40734181134567
 30
0.0
 10
132.3745358605641
 20
33.6615468928521
 30
0.0
 10
132.2162397369829
 20
33.98045193424165
 30
0.0
 10
132.0976396910271
 20
34.31932272386666
 30
0.0
 10
132.0250113804134
 20
34.61778627408
 30
0.0
 10
131.9834803031887
 20
34.87220277714316
 30
0.0
 10
131.9601432253204
 20
35.12787022954775
 30
0.0
 10
131.9606045349765
 20
35.29721301068374
 30
0.0
 10
131.9608352024514
 20
35.38188904379292
 30
0.0
  0
SPLINE
  5
13B
330
1F
100
AcDbEntity
  8
0
  6
CONTINUOUS
 62
     8
100
AcDbSpline
210
0.0
220
0.0
230
1.0
 70
     8
 71
     3
 72
    13
 73
     9
 74
     0
 42
0.00000001
 43
0.00000001
 40
0.0
 40
0.0
 40
0.0
 40
0.0
 40
0.1633044801409315
 40
0.3286858037322375
 40
0.4925208058881452
 40
0.6591943534237353
 40
0.8277019056552244
 40
1.0
 40
1.0
 40
1.0
 40
1.0
 10
183.7751750777282
 20
35.3818895500869
 30
0.0
 10
183.7744570369781
 20
35.26144889372807
 30
0.0
 10
183.7730118237125
 20
35.01903586315365
 30
0.0
 10
183.7205150069864
 20
34.64888069941187
 30
0.0
 10
183.6275432804429
 20
34.27683978058128
 30
0.0
 10
183.4875822633547
 20
33.90923148618731
 30
0.0
 10
183.3020741583988
 20
33.54743421945417
 30
0.0
 10
183.1403245064537
 20
33.325453671684
 30
0.0
 10
183.05855016653
 20
33.21322893084816
 30
0.0
  0
SPLINE
  5
13C
330
1F
100
AcDbEntity
  8
0
  6
CONTINUOUS
 62
     8
100
AcDbSpline
210
0.0
220
0.0
230
1.0
 70
     8
 71
     3
 72
    18
 73
    14
 74
     0
 42
0.00000001
 43
0.00000001
 40
0.0
 40
0.0
 40
0.0
 40
0.0
 40
0.2500000000000011
 40
0.2500000000000011
 40
0.5000000000000022
 40
0.5000000000000022
 40
0.6250000000000017
 40
0.6250000000000017
 40
0.7500000000000011
 40
0.7500000000000011
 40
0.8750000000000006
 40
0.8750000000000006
 40
1.0
 40
1.0
 40
1.0
 40
1.0
 10
184.6647276879893
 20
138.444661146877
 30
0.0
 10
184.6647276879893
 20
140.2145411121351
 30
0.0
 10
184.6694090726232
 20
141.9615768135878
 30
0.0
 10
184.6877456721185
 20
145.4118576371898
 30
0.0
 10
184.7014017273806
 20
147.1150986583435
 30
0.0
 10
184.7287962215006
 20
149.6362387017941
 30
0.0
 10
184.7391147158665
 20
150.4726658795739
 30
0.0
 10
184.7618449547798
 20
152.1132291980849
 30
0.0
 10
184.7742770117151
 20
152.919712997502
 30
0.0
 10
184.8012710868797
 20
154.5051354889759
 30
0.0
 10
184.8158590637855
 20
155.2853013703927
 30
0.0
 10
184.8470628658335
 20
156.8112126618699
 30
0.0
 10
184.8636607664841
 20
157.5563403448137
 30
0.0
 10
184.8812568870752
 20
158.2836003222968
 30
0.0
  0
LINE
  5
13D
330
1F
100
AcDbEntity
  8
0
  6
CONTINUOUS
 62
     8
100
AcDbLine
 10
161.4841787577
 20
138.4446611469
 30
0.0
 11
184.664727688
 21
138.4446611469
 31
0.0
  0
LINE
  5
13E
330
1F
100
AcDbEntity
  8
0
  6
CONTINUOUS
 62
     8
100
AcDbLine
 10
131.0712826092
 20
138.4446611469
 30
0.0
 11
154.2518315395
 21
138.4446611469
 31
0.0
  0
SPLINE
  5
13F
330
1F
100
AcDbEntity
  8
0
  6
CONTINUOUS
 62
     8
100
AcDbSpline
210
0.0
220
0.0
230
1.0
 70
     8
 71
     3
 72
    18
 73
    14
 74
     0
 42
0.00000001
 43
0.00000001
 40
0.0
 40
0.0
 40
0.0
 40
0.0
 40
0.2500000000000016
 40
0.2500000000000016
 40
0.3750000000000015
 40
0.3750000000000015
 40
0.5000000000000014
 40
0.5000000000000014
 40
0.7499999999999997
 40
0.7499999999999997
 40
0.8749999999999999
 40
0.8749999999999999
 40
1.0
 40
1.0
 40
1.0
 40
1.0
 10
130.8547534155225
 20
158.2836001003916
 30
0.0
 10
130.8898812315664
 20
156.8317428574294
 30
0.0
 10
130.920815916113
 20
155.3185840864103
 30
0.0
 10
130.9610943280702
 20
152.9593216808614
 30
0.0
 10
130.9734953876265
 20
152.1579147443578
 30
0.0
 10
130.9962217867905
 20
150.5247548627061
 30
0.0
 10
131.0065684842478
 20
149.6906441264229
 30
0.0
 10
131.0341199895166
 20
147.1696096749456
 30
0.0
 10
131.0479599303941
 20
145.4586586779717
 30
0.0
 10
131.0619238777516
 20
142.846810931317
 30
0.0
 10
131.0654378865673
 20
141.9678013541271
 30
0.0
 10
131.0701112688132
 20
140.2092689904565
 30
0.0
 10
131.0712826092394
 20
139.3279811123908
 30
0.0
 10
131.0712826092394
 20
138.444661146877
 30
0.0
  0
SPLINE
  5
140
330
1F
100
AcDbEntity
  8
0
  6
CONTINUOUS
 62
     8
100
AcDbSpline
210
0.0
220
0.0
230
1.0
 70
     8
 71
     3
 72
    14
 73
    10
 74
     0
 42
0.00000001
 43
0.00000001
 40
0.0000670191731657
 40
0.0000670191731657
 40
0.0000670191731657
 40
0.0000670191731657
 40
0.0005955101399782
 40
0.0005955101399782
 40
0.0005955101399782
 40
0.0020774503864774
 40
0.0020774503864774
 40
0.0020774503864774
 40
0.002435601467752
 40
0.002435601467752
 40
0.002435601467752
 40
0.002435601467752
 10
184.0317972009212
 20
53.64887052786823
 30
0.0
 10
184.1758792508875
 20
53.65783573890404
 30
0.0
 10
184.3199586456665
 20
53.66684777593613
 30
0.0
 10
184.4640352462346
 20
53.67590801160799
 30
0.0
 10
184.8680400636571
 20
53.70131379467047
 30
0.0
 10
185.2723211832353
 20
53.72674201792837
 30
0.0
 10
185.6764693522571
 20
53.75215909888758
 30
0.0
 10
185.7741427261217
 20
53.75830182633599
 30
0.0
 10
185.8718160999862
 20
53.76444455378439
 30
0.0
 10
185.9694894738507
 20
53.77058728123281
 30
0.0
  0
SPLINE
  5
141
330
1F
100
AcDbEntity
  8
0
  6
CONTINUOUS
 62
     8
100
AcDbSpline
210
0.0
220
0.0
230
1.0
 70
     8
 71
     3
 72
    14
 73
    10
 74
     0
 42
0.00000001
 43
0.00000001
 40
-0.000358151053965
 40
-0.000358151053965
 40
-0.000358151053965
 40
-0.000358151053965
 40
0.0
 40
0.0
 40
0.0
 40
0.0014819397392548
 40
0.0014819397392548
 40
0.0014819397392548
 40
0.0020104310600262
 40
0.0020104310600262
 40
0.0020104310600262
 40
0.0020104310600262
 10
129.7665208233694
 20
53.77058728123423
 30
0.0
 10
129.8641941972341
 20
53.76444455378575
 30
0.0
 10
129.961867571099
 20
53.75830182633727
 30
0.0
 10
130.0595409449637
 20
53.75215909888878
 30
0.0
 10
130.4636890064683
 20
53.72674202469114
 30
0.0
 10
130.8679700186172
 20
53.70131380839049
 30
0.0
 10
131.271974728549
 20
53.6759080318849
 30
0.0
 10
131.4160514365946
 20
53.66684778938207
 30
0.0
 10
131.5601309388554
 20
53.65783574559197
 30
0.0
 10
131.7042130963074
 20
53.64887052786801
 30
0.0
  0
LINE
  5
142
330
1F
100
AcDbEntity
  8
0
  6
CONTINUOUS
 62
     8
100
AcDbLine
 10
160.5680051486
 20
138.4446617034
 30
0.0
 11
160.5680051486
 21
138.5682482122
 31
0.0
  0
LINE
  5
143
330
1F
100
AcDbEntity
  8
0
  6
CONTINUOUS
 62
     8
100
AcDbLine
 10
155.1680051486
 20
138.5682482122
 30
0.0
 11
155.1680051486
 21
138.4446617034
 31
0.0
  0
LINE
  5
144
330
1F
100
AcDbEntity
  8
0
  6
CONTINUOUS
 62
     8
100
AcDbLine
 10
151.6680051486
 20
134.9446611469
 30
0.0
 11
151.576197308
 21
134.9446611469
 31
0.0
  0
LINE
  5
145
330
1F
100
AcDbEntity
  8
0
  6
CONTINUOUS
 62
     8
100
AcDbLine
 10
164.1598129893
 20
134.9446611469
 30
0.0
 11
164.0680051486
 21
134.9446611469
 31
0.0
  0
LINE
  5
146
330
1F
100
AcDbEntity
  8
0
  6
CONTINUOUS
 62
     8
100
AcDbLine
 10
155.1680051486
 20
83.4448171612
 30
0.0
 11
155.1680051486
 21
83.3212156778
 31
0.0
  0
LINE
  5
147
330
1F
100
AcDbEntity
  8
0
  6
CONTINUOUS
 62
     8
100
AcDbLine
 10
151.576197308
 20
86.9448171612
 30
0.0
 11
151.6680051486
 21
86.9448171612
 31
0.0
  0
LINE
  5
148
330
1F
100
AcDbEntity
  8
0
  6
CONTINUOUS
 62
     8
100
AcDbLine
 10
164.0680051486
 20
86.9448171612
 30
0.0
 11
164.1598129893
 21
86.9448171612
 31
0.0
  0
LINE
  5
149
330
1F
100
AcDbEntity
  8
0
  6
CONTINUOUS
 62
     8
100
AcDbLine
 10
160.5680051486
 20
83.3212156778
 30
0.0
 11
160.5680051486
 21
83.4448171612
 31
0.0
  0
LINE
  5
14A
330
1F
100
AcDbEntity
  8
0
  6
CONTINUOUS
 62
     8
100
AcDbLine
 10
184.664727688
 20
54.0144813614
 30
0.0
 11
184.664727688
 21
138.4446611469
 31
0.0
  0
LINE
  5
14B
330
1F
100
AcDbEntity
  8
0
  6
CONTINUOUS
 62
     8
100
AcDbLine
 10
131.0712826092
 20
138.4446611469
 30
0.0
 11
131.0712826092
 21
54.0144813614
 31
0.0
  0
SPLINE
  5
14C
330
1F
100
AcDbEntity
  8
0
  6
CONTINUOUS
 62
     8
100
AcDbSpline
210
0.0
220
0.0
230
1.0
 70
     8
 71
     3
 72
    14
 73
    10
 74
     0
 42
0.00000001
 43
0.00000001
 40
0.0
 40
0.0
 40
0.0
 40
0.0
 40
0.2499999999999981
 40
0.2499999999999981
 40
0.3749999999999984
 40
0.3749999999999984
 40
0.4999999999999987
 40
0.4999999999999987
 40
1.0
 40
1.0
 40
1.0
 40
1.0
 10
185.997803793514
 20
153.729399343699
 30
0.0
 10
185.9758694374791
 20
152.5507999971859
 30
0.0
 10
185.9565654845859
 20
151.33911591315
 30
0.0
 10
185.9315337419065
 20
149.4722320732265
 30
0.0
 10
185.9238365453185
 20
148.8405715930037
 30
0.0
 10
185.909896555802
 20
147.5728904727406
 30
0.0
 10
185.9036340844985
 20
146.9355973331448
 30
0.0
 10
185.8757909476563
 20
143.732202505079
 30
0.0
 10
185.8644624147261
 20
141.1160723655858
 30
0.0
 10
185.8644624147261
 20
138.444661146877
 30
0.0
  0
LINE
  5
14D
330
1F
100
AcDbEntity
  8
0
  6
CONTINUOUS
 62
     8
100
AcDbLine
 10
184.664727688
 20
138.4446611469
 30
0.0
 11
185.8644624147
 21
138.4446611469
 31
0.0
  0
LINE
  5
14E
330
1F
100
AcDbEntity
  8
0
  6
CONTINUOUS
 62
     8
100
AcDbLine
 10
129.8715478825
 20
138.4446611469
 30
0.0
 11
131.0712826092
 21
138.4446611469
 31
0.0
  0
SPLINE
  5
14F
330
1F
100
AcDbEntity
  8
0
  6
CONTINUOUS
 62
     8
100
AcDbSpline
210
0.0
220
0.0
230
1.0
 70
     8
 71
     3
 72
    14
 73
    10
 74
     0
 42
0.00000001
 43
0.00000001
 40
0.0
 40
0.0
 40
0.0
 40
0.0
 40
0.5000000000000001
 40
0.5000000000000001
 40
0.625
 40
0.625
 40
0.7499999999999999
 40
0.7499999999999999
 40
1.0
 40
1.0
 40
1.0
 40
1.0
 10
129.8715478825025
 20
138.444661146877
 30
0.0
 10
129.8715478825025
 20
141.1160723655858
 30
0.0
 10
129.8602193495724
 20
143.732202505079
 30
0.0
 10
129.8323762127302
 20
146.9355973331448
 30
0.0
 10
129.8261137414268
 20
147.5728904727406
 30
0.0
 10
129.8121737519102
 20
148.8405715930038
 30
0.0
 10
129.8044765553222
 20
149.4722320732265
 30
0.0
 10
129.7794448126428
 20
151.33911591315
 30
0.0
 10
129.7601408597496
 20
152.5507999971859
 30
0.0
 10
129.7382065037147
 20
153.729399343699
 30
0.0
  0
LINE
  5
150
330
1F
100
AcDbEntity
  8
0
  6
CONTINUOUS
 62
     8
100
AcDbLine
 10
129.8715478825
 20
53.9255110866
 30
0.0
 11
129.8715478825
 21
138.4446611469
 31
0.0
  0
LINE
  5
151
330
1F
100
AcDbEntity
  8
0
  6
CONTINUOUS
 62
     8
100
AcDbLine
 10
185.8644624147
 20
138.4446611469
 30
0.0
 11
185.8644624147
 21
53.9255110866
 31
0.0
  0
POLYLINE
  5
152
330
1F
100
AcDbEntity
  8
0
  6
CONTINUOUS
 62
     8
100
AcDb2dPolyline
 66
     1
 10
0.0
 20
0.0
 30
0.0
 70
   128
  0
VERTEX
  5
331
330
152
100
AcDbEntity
  8
0
  6
CONTINUOUS
 62
     8
100
AcDbVertex
100
AcDb2dVertex
 10
185.7539737528
 20
159.4899388795
 30
0.0
  0
VERTEX
  5
332
330
152
100
AcDbEntity
  8
0
  6
CONTINUOUS
 62
     8
100
AcDbVertex
100
AcDb2dVertex
 10
185.7333061419
 20
159.4737479941
 30
0.0
  0
VERTEX
  5
333
330
152
100
AcDbEntity
  8
0
  6
CONTINUOUS
 62
     8
100
AcDbVertex
100
AcDb2dVertex
 10
185.7110179495
 20
159.4562875869
 30
0.0
  0
VERTEX
  5
334
330
152
100
AcDbEntity
  8
0
  6
CONTINUOUS
 62
     8
100
AcDbVertex
100
AcDb2dVertex
 10
185.6876278593
 20
159.4379639909
 30
0.0
  0
VERTEX
  5
335
330
152
100
AcDbEntity
  8
0
  6
CONTINUOUS
 62
     8
100
AcDbVertex
100
AcDb2dVertex
 10
185.6636801982
 20
159.4192036269
 30
0.0
  0
VERTEX
  5
336
330
152
100
AcDbEntity
  8
0
  6
CONTINUOUS
 62
     8
100
AcDbVertex
100
AcDb2dVertex
 10
185.6397322684
 20
159.4004430803
 30
0.0
  0
VERTEX
  5
337
330
152
100
AcDbEntity
  8
0
  6
CONTINUOUS
 62
     8
100
AcDbVertex
100
AcDb2dVertex
 10
185.6163413786
 20
159.3821189404
 30
0.0
  0
VERTEX
  5
338
330
152
100
AcDbEntity
  8
0
  6
CONTINUOUS
 62
     8
100
AcDbVertex
100
AcDb2dVertex
 10
185.5940518742
 20
159.364657641
 30
0.0
  0
VERTEX
  5
339
330
152
100
AcDbEntity
  8
0
  6
CONTINUOUS
 62
     8
100
AcDbVertex
100
AcDb2dVertex
 10
185.5733824695
 20
159.3484655357
 30
0.0
  0
SEQEND
  5
3E4
330
152
100
AcDbEntity
  8
0
  6
CONTINUOUS
 62
     8
  0
SPLINE
  5
153
330
1F
100
AcDbEntity
  8
0
  6
CONTINUOUS
 62
     8
100
AcDbSpline
210
0.0
220
0.0
230
1.0
 70
     8
 71
     3
 72
    38
 73
    34
 74
     0
 42
0.00000001
 43
0.00000001
 40
0.0
 40
0.0
 40
0.0
 40
0.0
 40
0.1250000000000006
 40
0.1250000000000006
 40
0.1875000000000007
 40
0.1875000000000007
 40
0.2500000000000008
 40
0.2500000000000008
 40
0.3125000000000009
 40
0.3125000000000009
 40
0.3750000000000011
 40
0.3750000000000011
 40
0.5000000000000012
 40
0.5000000000000012
 40
0.5312500000000013
 40
0.5312500000000013
 40
0.5625000000000014
 40
0.5625000000000014
 40
0.6250000000000014
 40
0.6250000000000014
 40
0.6875000000000016
 40
0.6875000000000016
 40
0.7187500000000014
 40
0.7187500000000014
 40
0.7500000000000013
 40
0.7500000000000013
 40
0.8750000000000008
 40
0.8750000000000008
 40
0.9062500000000007
 40
0.9062500000000007
 40
0.9375000000000006
 40
0.9375000000000006
 40
1.0
 40
1.0
 40
1.0
 40
1.0
 10
185.5733824694965
 20
159.348465535716
 30
0.0
 10
183.9194731574527
 20
161.4597166616815
 30
0.0
 10
182.0591091262611
 20
163.34376527167
 30
0.0
 10
178.9703856912211
 20
165.8416952738576
 30
0.0
 10
177.889756374065
 20
166.6196864108866
 30
0.0
 10
175.627766267666
 20
168.0585821327588
 30
0.0
 10
174.4666186784382
 20
168.706770749821
 30
0.0
 10
172.0862452466825
 20
169.8658921188484
 30
0.0
 10
170.8670126194713
 20
170.3768088366265
 30
0.0
 10
168.370386602349
 20
171.2611914132934
 30
0.0
 10
167.0910298244347
 20
171.6351255954072
 30
0.0
 10
163.174390188649
 20
172.5395835020445
 30
0.0
 10
160.5440413904647
 20
172.8369448704881
 30
0.0
 10
157.2328478642768
 20
172.8395224626137
 30
0.0
 10
156.5694320870004
 20
172.8213564740393
 30
0.0
 10
155.2402101254982
 20
172.7470859481988
 30
0.0
 10
154.5731147689378
 20
172.6908319477208
 30
0.0
 10
152.5767514934036
 20
172.4647252827907
 30
0.0
 10
151.2667701233117
 20
172.2396680564558
 30
0.0
 10
148.6871832843661
 20
171.6461672655322
 30
0.0
 10
147.4175824562477
 20
171.2777072203764
 30
0.0
 10
145.5435547807992
 20
170.6171519563897
 30
0.0
 10
144.9239530559164
 20
170.3789470547533
 30
0.0
 10
143.6950598255769
 20
169.8659227224252
 30
0.0
 10
143.0843263977613
 20
169.5903928023908
 30
0.0
 10
140.0738615956409
 20
168.1270779683798
 30
0.0
 10
137.8410043989974
 20
166.7062771258529
 30
0.0
 10
135.2624727676626
 20
164.6273575938089
 30
0.0
 10
134.7575227221388
 20
164.1962434988294
 30
0.0
 10
133.7694855697504
 20
163.3028555631972
 30
0.0
 10
133.2855161592106
 20
162.8396743888318
 30
0.0
 10
131.8737278975843
 20
161.4087896058309
 30
0.0
 10
130.9895826319256
 20
160.4040790522364
 30
0.0
 10
130.1626220085753
 20
159.3484585129453
 30
0.0
  0
POLYLINE
  5
154
330
1F
100
AcDbEntity
  8
0
  6
CONTINUOUS
 62
     8
100
AcDb2dPolyline
 66
     1
 10
0.0
 20
0.0
 30
0.0
 70
   128
  0
VERTEX
  5
33A
330
154
100
AcDbEntity
  8
0
  6
CONTINUOUS
 62
     8
100
AcDbVertex
100
AcDb2dVertex
 10
129.9820305906
 20
159.4899316796
 30
0.0
  0
VERTEX
  5
33B
330
154
100
AcDbEntity
  8
0
  6
CONTINUOUS
 62
     8
100
AcDbVertex
100
AcDb2dVertex
 10
130.002698305
 20
159.473740927
 30
0.0
  0
VERTEX
  5
33C
330
154
100
AcDbEntity
  8
0
  6
CONTINUOUS
 62
     8
100
AcDbVertex
100
AcDb2dVertex
 10
130.0249865783
 20
159.456280624
 30
0.0
  0
VERTEX
  5
33D
330
154
100
AcDbEntity
  8
0
  6
CONTINUOUS
 62
     8
100
AcDbVertex
100
AcDb2dVertex
 10
130.0483767251
 20
159.437957101
 30
0.0
  0
VERTEX
  5
33E
330
154
100
AcDbEntity
  8
0
  6
CONTINUOUS
 62
     8
100
AcDbVertex
100
AcDb2dVertex
 10
130.0723244172
 20
159.4191967774
 30
0.0
  0
VERTEX
  5
33F
330
154
100
AcDbEntity
  8
0
  6
CONTINUOUS
 62
     8
100
AcDbVertex
100
AcDb2dVertex
 10
130.0962723516
 20
159.4004362375
 30
0.0
  0
VERTEX
  5
340
330
154
100
AcDbEntity
  8
0
  6
CONTINUOUS
 62
     8
100
AcDbVertex
100
AcDb2dVertex
 10
130.1196632196
 20
159.3821120704
 30
0.0
  0
VERTEX
  5
341
330
154
100
AcDbEntity
  8
0
  6
CONTINUOUS
 62
     8
100
AcDbVertex
100
AcDb2dVertex
 10
130.1419526763
 20
159.3646507105
 30
0.0
  0
VERTEX
  5
342
330
154
100
AcDbEntity
  8
0
  6
CONTINUOUS
 62
     8
100
AcDbVertex
100
AcDb2dVertex
 10
130.1626220086
 20
159.348458513
 30
0.0
  0
SEQEND
  5
3E5
330
154
100
AcDbEntity
  8
0
  6
CONTINUOUS
 62
     8
  0
SPLINE
  5
155
330
1F
100
AcDbEntity
  8
0
  6
CONTINUOUS
 62
     8
100
AcDbSpline
210
0.0
220
0.0
230
1.0
 70
     8
 71
     3
 72
    38
 73
    34
 74
     0
 42
0.00000001
 43
0.00000001
 40
0.0
 40
0.0
 40
0.0
 40
0.0
 40
0.0625000000000001
 40
0.0625000000000001
 40
0.0937500000000003
 40
0.0937500000000003
 40
0.1250000000000004
 40
0.1250000000000004
 40
0.2500000000000012
 40
0.2500000000000012
 40
0.2812500000000012
 40
0.2812500000000012
 40
0.3125000000000012
 40
0.3125000000000012
 40
0.3750000000000012
 40
0.3750000000000012
 40
0.4375000000000012
 40
0.4375000000000012
 40
0.4687500000000011
 40
0.4687500000000011
 40
0.500000000000001
 40
0.500000000000001
 40
0.6250000000000009
 40
0.6250000000000009
 40
0.6875000000000009
 40
0.6875000000000009
 40
0.7500000000000008
 40
0.7500000000000008
 40
0.8125000000000007
 40
0.8125000000000007
 40
0.8750000000000006
 40
0.8750000000000006
 40
1.0
 40
1.0
 40
1.0
 40
1.0
 10
129.9820305906219
 20
159.4899316795976
 30
0.0
 10
130.8143815921195
 20
160.5524331931859
 30
0.0
 10
131.704288344591
 20
161.5636944050862
 30
0.0
 10
133.1252785528285
 20
163.003906982993
 30
0.0
 10
133.6124026781283
 20
163.4701073764705
 30
0.0
 10
134.6068805816203
 20
164.3693181963761
 30
0.0
 10
135.1151224316104
 20
164.8032419002399
 30
0.0
 10
137.71046414928
 20
166.8957089791088
 30
0.0
 10
139.9578788760136
 20
168.3257661456896
 30
0.0
 10
142.9879661251177
 20
169.798619055923
 30
0.0
 10
143.6026802139521
 20
170.0759451706897
 30
0.0
 10
144.8395831444176
 20
170.5923144453384
 30
0.0
 10
145.4632232743205
 20
170.8320727072433
 30
0.0
 10
147.3494653550914
 20
171.4969359536541
 30
0.0
 10
148.6273410704074
 20
171.8677995994425
 30
0.0
 10
151.223741499724
 20
172.4651711158209
 30
0.0
 10
152.5422615844054
 20
172.6916954263894
 30
0.0
 10
154.5516379811218
 20
172.9192748477824
 30
0.0
 10
155.2230817354331
 20
172.9758950000901
 30
0.0
 10
156.5609681784097
 20
173.0506490160046
 30
0.0
 10
157.2287084465602
 20
173.0689334488363
 30
0.0
 10
160.5614863007546
 20
173.066341484094
 30
0.0
 10
163.2089819089331
 20
172.7670490311315
 30
0.0
 10
167.1511536223377
 20
171.8567012512814
 30
0.0
 10
168.4388502838829
 20
171.4803307730632
 30
0.0
 10
170.9517503760811
 20
170.5901841159166
 30
0.0
 10
172.1789301085284
 20
170.0759365520532
 30
0.0
 10
174.5748185448157
 20
168.9092574356368
 30
0.0
 10
175.7435340819808
 20
168.2568420322121
 30
0.0
 10
178.0202668405124
 20
166.8085635115044
 30
0.0
 10
179.1079389778545
 20
166.0254994149893
 30
0.0
 10
182.2167933104021
 20
163.5112826920818
 30
0.0
 10
184.0892834346517
 20
161.6149520026246
 30
0.0
 10
185.7539737528041
 20
159.4899388794534
 30
0.0
  0
LINE
  5
156
330
1F
100
AcDbEntity
  8
0
  6
CONTINUOUS
 62
     8
100
AcDbLine
 10
186.3765136996
 20
159.9776235007
 30
0.0
 11
185.7539737528
 21
159.4899388795
 31
0.0
  0
LINE
  5
157
330
1F
100
AcDbEntity
  8
0
  6
CONTINUOUS
 62
     8
100
AcDbLine
 10
129.3594967667
 20
159.9776237166
 30
0.0
 11
129.9820305906
 21
159.4899316796
 31
0.0
  0
LINE
  5
158
330
1F
100
AcDbEntity
  8
0
  6
CONTINUOUS
 62
     8
100
AcDbLine
 10
186.3765135305
 20
30.5116985772
 30
0.0
 11
185.7539797065
 21
30.9993906142
 31
0.0
  0
LINE
  5
159
330
1F
100
AcDbEntity
  8
0
  6
CONTINUOUS
 62
     8
100
AcDbLine
 10
129.3594965976
 20
30.511698793
 30
0.0
 11
129.9820365443
 21
30.9993834142
 31
0.0
  0
SPLINE
  5
15A
330
1F
100
AcDbEntity
  8
0
  6
CONTINUOUS
 62
     8
100
AcDbSpline
210
0.0
220
0.0
230
1.0
 70
     8
 71
     3
 72
    42
 73
    38
 74
     0
 42
0.00000001
 43
0.00000001
 40
0.0
 40
0.0
 40
0.0
 40
0.0
 40
0.0624999999999998
 40
0.0624999999999998
 40
0.0937499999999996
 40
0.0937499999999996
 40
0.1249999999999995
 40
0.1249999999999995
 40
0.2499999999999992
 40
0.2499999999999992
 40
0.2812499999999992
 40
0.2812499999999992
 40
0.3124999999999992
 40
0.3124999999999992
 40
0.3749999999999992
 40
0.3749999999999992
 40
0.4374999999999991
 40
0.4374999999999991
 40
0.4687499999999991
 40
0.4687499999999991
 40
0.4999999999999991
 40
0.4999999999999991
 40
0.624999999999999
 40
0.624999999999999
 40
0.656249999999999
 40
0.656249999999999
 40
0.687499999999999
 40
0.687499999999999
 40
0.7499999999999991
 40
0.7499999999999991
 40
0.8124999999999992
 40
0.8124999999999992
 40
0.8437499999999993
 40
0.8437499999999993
 40
0.8749999999999993
 40
0.8749999999999993
 40
1.0
 40
1.0
 40
1.0
 40
1.0
 10
185.7539797065301
 20
30.99939061424614
 30
0.0
 10
184.9221116220654
 20
29.93750554739905
 30
0.0
 10
184.0341581025945
 20
28.92859225362236
 30
0.0
 10
182.619142656283
 20
27.49369488963416
 30
0.0
 10
182.13358889847
 20
27.02850703504341
 30
0.0
 10
181.1344796035891
 20
26.12457854678475
 30
0.0
 10
180.6216418716892
 20
25.6866283525355
 30
0.0
 10
178.0129087429225
 20
23.58366489493852
 30
0.0
 10
175.7669030097005
 20
22.15895446794923
 30
0.0
 10
172.7623009587485
 20
20.69742111026133
 30
0.0
 10
172.1514080186344
 20
20.42127302179665
 30
0.0
 10
170.9092330002817
 20
19.90201355518002
 30
0.0
 10
170.2797563852692
 20
19.65978844922997
 30
0.0
 10
168.3841822971902
 20
18.9913897067035
 30
0.0
 10
167.1041299589682
 20
18.62038513737897
 30
0.0
 10
164.5120890096807
 20
18.0242031594172
 30
0.0
 10
163.2000998554998
 20
17.79902823076082
 30
0.0
 10
161.2077853270367
 20
17.57236493458621
 30
0.0
 10
160.5396158063486
 20
17.51537060297274
 30
0.0
 10
159.194961831573
 20
17.43934952384732
 30
0.0
 10
158.5211869136414
 20
17.42058072635117
 30
0.0
 10
155.1721414701589
 20
17.422179921177
 30
0.0
 10
152.5296562836836
 20
17.72364606847278
 30
0.0
 10
149.2722070413539
 20
18.47341114768242
 30
0.0
 10
148.6230273158395
 20
18.64223345288407
 30
0.0
 10
147.3293940742587
 20
19.01848216208057
 30
0.0
 10
146.6882721480164
 20
19.22502817172533
 30
0.0
 10
144.794299255886
 20
19.89489565315958
 30
0.0
 10
143.5654350852786
 20
20.40980726147804
 30
0.0
 10
141.173850658161
 20
21.57341494249837
 30
0.0
 10
140.011131403363
 20
22.22211304129275
 30
0.0
 10
138.3175186397674
 20
23.29723432211504
 30
0.0
 10
137.7614118491897
 20
23.67266044037597
 30
0.0
 10
136.6664564504048
 20
24.45841954209219
 30
0.0
 10
136.1308028757752
 20
24.86653137840367
 30
0.0
 10
133.5227142336578
 20
26.97304183731048
 30
0.0
 10
131.6457587275718
 20
28.87560613615953
 30
0.0
 10
129.9820365443271
 20
30.9993834142243
 30
0.0
  0
LINE
  5
15B
330
1F
100
AcDbEntity
  8
0
  6
CONTINUOUS
 62
     8
100
AcDbLine
 10
185.5733891644
 20
31.1408648989
 30
0.0
 11
185.7539797065
 21
30.9993906142
 31
0.0
  0
POLYLINE
  5
15C
330
1F
100
AcDbEntity
  8
0
  6
CONTINUOUS
 62
     8
100
AcDb2dPolyline
 66
     1
 10
0.0
 20
0.0
 30
0.0
 70
   128
  0
VERTEX
  5
343
330
15C
100
AcDbEntity
  8
0
  6
CONTINUOUS
 62
     8
100
AcDbVertex
100
AcDb2dVertex
 10
130.1626278276
 20
31.1408567579
 30
0.0
  0
VERTEX
  5
344
330
15C
100
AcDbEntity
  8
0
  6
CONTINUOUS
 62
     8
100
AcDbVertex
100
AcDb2dVertex
 10
130.1419585131
 20
31.1246645375
 30
0.0
  0
VERTEX
  5
345
330
15C
100
AcDbEntity
  8
0
  6
CONTINUOUS
 62
     8
100
AcDbVertex
100
AcDb2dVertex
 10
130.1196690747
 20
31.1072031538
 30
0.0
  0
VERTEX
  5
346
330
15C
100
AcDbEntity
  8
0
  6
CONTINUOUS
 62
     8
100
AcDbVertex
100
AcDb2dVertex
 10
130.0962782252
 20
31.0888789626
 30
0.0
  0
VERTEX
  5
347
330
15C
100
AcDbEntity
  8
0
  6
CONTINUOUS
 62
     8
100
AcDbVertex
100
AcDb2dVertex
 10
130.072330309
 20
31.0701183987
 30
0.0
  0
VERTEX
  5
348
330
15C
100
AcDbEntity
  8
0
  6
CONTINUOUS
 62
     8
100
AcDbVertex
100
AcDb2dVertex
 10
130.0483826343
 20
31.051358052
 30
0.0
  0
VERTEX
  5
349
330
15C
100
AcDbEntity
  8
0
  6
CONTINUOUS
 62
     8
100
AcDbVertex
100
AcDb2dVertex
 10
130.0249925039
 20
31.0330345073
 30
0.0
  0
VERTEX
  5
34A
330
15C
100
AcDbEntity
  8
0
  6
CONTINUOUS
 62
     8
100
AcDbVertex
100
AcDb2dVertex
 10
130.0027042455
 20
31.0155741844
 30
0.0
  0
VERTEX
  5
34B
330
15C
100
AcDbEntity
  8
0
  6
CONTINUOUS
 62
     8
100
AcDbVertex
100
AcDb2dVertex
 10
129.9820365443
 20
30.9993834142
 30
0.0
  0
SEQEND
  5
3E6
330
15C
100
AcDbEntity
  8
0
  6
CONTINUOUS
 62
     8
  0
SPLINE
  5
15D
330
1F
100
AcDbEntity
  8
0
  6
CONTINUOUS
 62
     8
100
AcDbSpline
210
0.0
220
0.0
230
1.0
 70
     8
 71
     3
 72
    42
 73
    38
 74
     0
 42
0.00000001
 43
0.00000001
 40
0.0
 40
0.0
 40
0.0
 40
0.0
 40
0.1249999999999998
 40
0.1249999999999998
 40
0.1562499999999997
 40
0.1562499999999997
 40
0.1874999999999997
 40
0.1874999999999997
 40
0.2499999999999996
 40
0.2499999999999996
 40
0.3124999999999997
 40
0.3124999999999997
 40
0.3437499999999997
 40
0.3437499999999997
 40
0.3749999999999997
 40
0.3749999999999997
 40
0.4999999999999996
 40
0.4999999999999996
 40
0.5312499999999994
 40
0.5312499999999994
 40
0.5624999999999994
 40
0.5624999999999994
 40
0.6249999999999994
 40
0.6249999999999994
 40
0.6874999999999994
 40
0.6874999999999994
 40
0.7187499999999994
 40
0.7187499999999994
 40
0.7499999999999996
 40
0.7499999999999996
 40
0.8749999999999998
 40
0.8749999999999998
 40
0.9062499999999998
 40
0.9062499999999998
 40
0.9374999999999999
 40
0.9374999999999999
 40
1.0
 40
1.0
 40
1.0
 40
1.0
 10
130.1626278276088
 20
31.14085675793893
 30
0.0
 10
131.8155753014896
 20
29.03083343927866
 30
0.0
 10
133.680375878752
 20
27.14059149490311
 30
0.0
 10
136.2715765121813
 20
25.04772655112838
 30
0.0
 10
136.8037616712801
 20
24.64225845831913
 30
0.0
 10
137.8916270215459
 20
23.86158971087827
 30
0.0
 10
138.4441329090799
 20
23.48859578030965
 30
0.0
 10
140.1267790925438
 20
22.42043970789628
 30
0.0
 10
141.2819693082986
 20
21.77594430446145
 30
0.0
 10
143.6580666400488
 20
20.6198745213317
 30
0.0
 10
144.8789727553971
 20
20.10829811769462
 30
0.0
 10
146.7606796751083
 20
19.44276841329151
 30
0.0
 10
147.3976493331799
 20
19.23755970894514
 30
0.0
 10
148.6829042630928
 20
18.86374654293138
 30
0.0
 10
149.3278795265482
 20
18.69601677990074
 30
0.0
 10
152.5642316753689
 20
17.9511025647722
 30
0.0
 10
155.1896026191517
 20
17.6515816046891
 30
0.0
 10
158.5169590594527
 20
17.64999048871954
 30
0.0
 10
159.1863706143582
 20
17.66863775126279
 30
0.0
 10
160.5223165582098
 20
17.74416723441796
 30
0.0
 10
161.1861589528638
 20
17.80079303229429
 30
0.0
 10
163.1655712088947
 20
18.02598965207292
 30
0.0
 10
164.4690641029659
 20
18.24970636419786
 30
0.0
 10
167.0443198588818
 20
18.84202557240203
 30
0.0
 10
168.3160832298706
 20
19.21062574361524
 30
0.0
 10
170.1993825073555
 20
19.87469378142909
 30
0.0
 10
170.8247829664602
 20
20.11534962563843
 30
0.0
 10
172.0589140525431
 20
20.63124552132735
 30
0.0
 10
172.6658509117835
 20
20.90560504164082
 30
0.0
 10
175.6509946748468
 20
22.3576734923867
 30
0.0
 10
177.8824517382903
 20
23.77316214696998
 30
0.0
 10
180.4742876198831
 20
25.8625099250405
 30
0.0
 10
180.9838036688578
 20
26.29762437231467
 30
0.0
 10
181.97644209029
 20
27.19569935769938
 30
0.0
 10
182.458851335031
 20
27.65787459562606
 30
0.0
 10
183.8647036247248
 20
29.08347876943376
 30
0.0
 10
184.7469083058633
 20
30.08585669473245
 30
0.0
 10
185.5733891643686
 20
31.14086489886628
 30
0.0
  0
POLYLINE
  5
15E
330
1F
100
AcDbEntity
  8
0
  6
CONTINUOUS
 62
     8
100
AcDb2dPolyline
 66
     1
 10
0.0
 20
0.0
 30
0.0
 70
   128
  0
VERTEX
  5
34C
330
15E
100
AcDbEntity
  8
0
  6
CONTINUOUS
 62
     8
100
AcDbVertex
100
AcDb2dVertex
 10
128.4442362327
 20
155.0332441519
 30
0.0
  0
VERTEX
  5
34D
330
15E
100
AcDbEntity
  8
0
  6
CONTINUOUS
 62
     8
100
AcDbVertex
100
AcDb2dVertex
 10
128.4442362334
 20
155.0335153394
 30
0.0
  0
VERTEX
  5
34E
330
15E
100
AcDbEntity
  8
0
  6
CONTINUOUS
 62
     8
100
AcDbVertex
100
AcDb2dVertex
 10
128.4442362393
 20
155.0337865269
 30
0.0
  0
VERTEX
  5
34F
330
15E
100
AcDbEntity
  8
0
  6
CONTINUOUS
 62
     8
100
AcDbVertex
100
AcDb2dVertex
 10
128.4442362504
 20
155.0340577144
 30
0.0
  0
VERTEX
  5
350
330
15E
100
AcDbEntity
  8
0
  6
CONTINUOUS
 62
     8
100
AcDbVertex
100
AcDb2dVertex
 10
128.4442362666
 20
155.0343289018
 30
0.0
  0
SEQEND
  5
3E7
330
15E
100
AcDbEntity
  8
0
  6
CONTINUOUS
 62
     8
  0
LINE
  5
15F
330
1F
100
AcDbEntity
  8
0
  6
CONTINUOUS
 62
     8
100
AcDbLine
 10
127.65341876
 20
155.0332441519
 30
0.0
 11
128.4442362327
 21
155.0332441519
 31
0.0
  0
SPLINE
  5
160
330
1F
100
AcDbEntity
  8
0
  6
CONTINUOUS
 62
     8
100
AcDbSpline
210
0.0
220
0.0
230
1.0
 70
     8
 71
     3
 72
     8
 73
     4
 74
     0
 42
0.00000001
 43
0.00000001
 40
0.0
 40
0.0
 40
0.0
 40
0.0
 40
0.0000065181797712
 40
0.0000065181797712
 40
0.0000065181797712
 40
0.0000065181797712
 10
129.9780121307074
 20
159.4847995604868
 30
0.0
 10
129.9793512221531
 20
159.4865105761261
 30
0.0
 10
129.9806906840852
 20
159.4882213020633
 30
0.0
 10
129.9820305905945
 20
159.489931679619
 30
0.0
  0
SPLINE
  5
161
330
1F
100
AcDbEntity
  8
0
  6
CONTINUOUS
 62
     8
100
AcDbSpline
210
0.0
220
0.0
230
1.0
 70
     8
 71
     3
 72
    14
 73
    10
 74
     0
 42
0.00000001
 43
0.00000001
 40
0.0
 40
0.0
 40
0.0
 40
0.0
 40
0.25
 40
0.25
 40
0.5
 40
0.5
 40
0.75
 40
0.75
 40
1.0
 40
1.0
 40
1.0
 40
1.0
 10
128.4442367495982
 20
155.0343289018179
 30
0.0
 10
128.4442646709861
 20
155.4369456120281
 30
0.0
 10
128.4781375525302
 20
155.8380363974218
 30
0.0
 10
128.6097218353877
 20
156.621870349466
 30
0.0
 10
128.7073498948576
 20
157.0067848050879
 30
0.0
 10
128.967349916711
 20
157.7623728677448
 30
0.0
 10
129.1303540423993
 20
158.1326282661562
 30
0.0
 10
129.5111792885493
 20
158.8335906811735
 30
0.0
 10
129.7299842605272
 20
159.1676474651624
 30
0.0
 10
129.9780130735496
 20
159.4847988230854
 30
0.0
  0
SPLINE
  5
162
330
1F
100
AcDbEntity
  8
0
  6
CONTINUOUS
 62
     8
100
AcDbSpline
210
0.0
220
0.0
230
1.0
 70
     8
 71
     3
 72
    16
 73
    12
 74
     0
 42
0.00000001
 43
0.00000001
 40
0.0
 40
0.0
 40
0.0
 40
0.0
 40
0.25
 40
0.25
 40
0.5
 40
0.5
 40
0.75
 40
0.75
 40
0.875
 40
0.875
 40
1.0
 40
1.0
 40
1.0
 40
1.0
 10
130.1587183340518
 20
159.3434710933559
 30
0.0
 10
129.9185650575298
 20
159.0363895974895
 30
0.0
 10
129.7067095421107
 20
158.7129384724626
 30
0.0
 10
129.3379784658993
 20
158.0342315350747
 30
0.0
 10
129.1801484482662
 20
157.6757333262249
 30
0.0
 10
128.9284017421606
 20
156.9441380087327
 30
0.0
 10
128.8338742654626
 20
156.5714456071084
 30
0.0
 10
128.7383191777664
 20
156.0022370475507
 30
0.0
 10
128.7142198840572
 20
155.8107956664201
 30
0.0
 10
128.6818715000912
 20
155.4244265419158
 30
0.0
 10
128.6736583406071
 20
155.2273450443978
 30
0.0
 10
128.6736445279485
 20
155.0343135984621
 30
0.0
  0
POLYLINE
  5
163
330
1F
100
AcDbEntity
  8
0
  6
CONTINUOUS
 62
     8
100
AcDb2dPolyline
 66
     1
 10
0.0
 20
0.0
 30
0.0
 70
   128
  0
VERTEX
  5
351
330
163
100
AcDbEntity
  8
0
  6
CONTINUOUS
 62
     8
100
AcDbVertex
100
AcDb2dVertex
 10
128.6736440217
 20
155.0343132423
 30
0.0
  0
VERTEX
  5
352
330
163
100
AcDbEntity
  8
0
  6
CONTINUOUS
 62
     8
100
AcDbVertex
100
AcDb2dVertex
 10
128.6473874445
 20
155.0343157788
 30
0.0
  0
VERTEX
  5
353
330
163
100
AcDbEntity
  8
0
  6
CONTINUOUS
 62
     8
100
AcDbVertex
100
AcDb2dVertex
 10
128.6190728201
 20
155.0343182559
 30
0.0
  0
VERTEX
  5
354
330
163
100
AcDbEntity
  8
0
  6
CONTINUOUS
 62
     8
100
AcDbVertex
100
AcDb2dVertex
 10
128.5893590794
 20
155.0343206159
 30
0.0
  0
VERTEX
  5
355
330
163
100
AcDbEntity
  8
0
  6
CONTINUOUS
 62
     8
100
AcDbVertex
100
AcDb2dVertex
 10
128.5589377135
 20
155.0343228039
 30
0.0
  0
VERTEX
  5
356
330
163
100
AcDbEntity
  8
0
  6
CONTINUOUS
 62
     8
100
AcDbVertex
100
AcDb2dVertex
 10
128.5285166808
 20
155.0343247691
 30
0.0
  0
VERTEX
  5
357
330
163
100
AcDbEntity
  8
0
  6
CONTINUOUS
 62
     8
100
AcDbVertex
100
AcDb2dVertex
 10
128.4988039323
 20
155.0343264655
 30
0.0
  0
VERTEX
  5
358
330
163
100
AcDbEntity
  8
0
  6
CONTINUOUS
 62
     8
100
AcDbVertex
100
AcDb2dVertex
 10
128.4704909357
 20
155.0343278539
 30
0.0
  0
VERTEX
  5
359
330
163
100
AcDbEntity
  8
0
  6
CONTINUOUS
 62
     8
100
AcDbVertex
100
AcDb2dVertex
 10
128.4442362666
 20
155.0343289018
 30
0.0
  0
SEQEND
  5
3E8
330
163
100
AcDbEntity
  8
0
  6
CONTINUOUS
 62
     8
  0
SPLINE
  5
164
330
1F
100
AcDbEntity
  8
0
  6
CONTINUOUS
 62
     8
100
AcDbSpline
210
0.0
220
0.0
230
1.0
 70
     8
 71
     3
 72
    10
 73
     6
 74
     0
 42
0.00000001
 43
0.00000001
 40
0.0
 40
0.0
 40
0.0
 40
0.0
 40
0.5
 40
0.5
 40
1.0
 40
1.0
 40
1.0
 40
1.0
 10
130.1587215013745
 20
159.3434751433753
 30
0.0
 10
130.1324434506489
 20
159.3640245755012
 30
0.0
 10
130.1004398544543
 20
159.3890523290029
 30
0.0
 10
130.0362886305186
 20
159.4392220257551
 30
0.0
 10
130.0042871913211
 20
159.4642496417262
 30
0.0
 10
129.9780130735499
 20
159.4847988230858
 30
0.0
  0
POLYLINE
  5
165
330
1F
100
AcDbEntity
  8
0
  6
CONTINUOUS
 62
     8
100
AcDb2dPolyline
 66
     1
 10
0.0
 20
0.0
 30
0.0
 70
   128
  0
VERTEX
  5
35A
330
165
100
AcDbEntity
  8
0
  6
CONTINUOUS
 62
     8
100
AcDbVertex
100
AcDb2dVertex
 10
187.2917740306
 20
35.4549929012
 30
0.0
  0
VERTEX
  5
35B
330
165
100
AcDbEntity
  8
0
  6
CONTINUOUS
 62
     8
100
AcDbVertex
100
AcDb2dVertex
 10
187.2655196042
 20
35.4549939499
 30
0.0
  0
VERTEX
  5
35C
330
165
100
AcDbEntity
  8
0
  6
CONTINUOUS
 62
     8
100
AcDbVertex
100
AcDb2dVertex
 10
187.2372065447
 20
35.4549953393
 30
0.0
  0
VERTEX
  5
35D
330
165
100
AcDbEntity
  8
0
  6
CONTINUOUS
 62
     8
100
AcDbVertex
100
AcDb2dVertex
 10
187.2074937447
 20
35.4549970369
 30
0.0
  0
VERTEX
  5
35E
330
165
100
AcDbEntity
  8
0
  6
CONTINUOUS
 62
     8
100
AcDbVertex
100
AcDb2dVertex
 10
187.1770726711
 20
35.4549990033
 30
0.0
  0
VERTEX
  5
35F
330
165
100
AcDbEntity
  8
0
  6
CONTINUOUS
 62
     8
100
AcDbVertex
100
AcDb2dVertex
 10
187.1466512734
 20
35.4550011927
 30
0.0
  0
VERTEX
  5
360
330
165
100
AcDbEntity
  8
0
  6
CONTINUOUS
 62
     8
100
AcDbVertex
100
AcDb2dVertex
 10
187.1169375086
 20
35.4550035541
 30
0.0
  0
VERTEX
  5
361
330
165
100
AcDbEntity
  8
0
  6
CONTINUOUS
 62
     8
100
AcDbVertex
100
AcDb2dVertex
 10
187.0886228662
 20
35.4550060326
 30
0.0
  0
VERTEX
  5
362
330
165
100
AcDbEntity
  8
0
  6
CONTINUOUS
 62
     8
100
AcDbVertex
100
AcDb2dVertex
 10
187.0623662755
 20
35.4550085706
 30
0.0
  0
SEQEND
  5
3E9
330
165
100
AcDbEntity
  8
0
  6
CONTINUOUS
 62
     8
  0
SPLINE
  5
166
330
1F
100
AcDbEntity
  8
0
  6
CONTINUOUS
 62
     8
100
AcDbSpline
210
0.0
220
0.0
230
1.0
 70
     8
 71
     3
 72
    14
 73
    10
 74
     0
 42
0.00000001
 43
0.00000001
 40
0.0
 40
0.0
 40
0.0
 40
0.0
 40
0.25
 40
0.25
 40
0.5
 40
0.5
 40
0.75
 40
0.75
 40
1.0
 40
1.0
 40
1.0
 40
1.0
 10
187.2917735476125
 20
35.45499290117438
 30
0.0
 10
187.2917455786296
 20
35.0519420259569
 30
0.0
 10
187.2577951246977
 20
34.65037498800238
 30
0.0
 10
187.1259187121937
 20
33.8656994429419
 30
0.0
 10
187.0280788853154
 20
33.48040274704826
 30
0.0
 10
186.7675346854363
 20
32.72412575106709
 30
0.0
 10
186.6041819374725
 20
32.35352932445171
 30
0.0
 10
186.2225640334819
 20
31.65201438670821
 30
0.0
 10
186.0033126593376
 20
31.31773768437872
 30
0.0
 10
185.7547881423678
 20
31.00042310441664
 30
0.0
  0
POLYLINE
  5
167
330
1F
100
AcDbEntity
  8
0
  6
CONTINUOUS
 62
     8
100
AcDb2dPolyline
 66
     1
 10
0.0
 20
0.0
 30
0.0
 70
   128
  0
VERTEX
  5
363
330
167
100
AcDbEntity
  8
0
  6
CONTINUOUS
 62
     8
100
AcDbVertex
100
AcDb2dVertex
 10
185.7547883427
 20
31.0004229475
 30
0.0
  0
VERTEX
  5
364
330
167
100
AcDbEntity
  8
0
  6
CONTINUOUS
 62
     8
100
AcDbVertex
100
AcDb2dVertex
 10
185.7341194872
 20
31.0166122513
 30
0.0
  0
VERTEX
  5
365
330
167
100
AcDbEntity
  8
0
  6
CONTINUOUS
 62
     8
100
AcDbVertex
100
AcDb2dVertex
 10
185.7118297925
 20
31.0340707642
 30
0.0
  0
VERTEX
  5
366
330
167
100
AcDbEntity
  8
0
  6
CONTINUOUS
 62
     8
100
AcDbVertex
100
AcDb2dVertex
 10
185.6884379783
 20
31.0523921965
 30
0.0
  0
VERTEX
  5
367
330
167
100
AcDbEntity
  8
0
  6
CONTINUOUS
 62
     8
100
AcDbVertex
100
AcDb2dVertex
 10
185.6644884126
 20
31.0711501767
 30
0.0
  0
VERTEX
  5
368
330
167
100
AcDbEntity
  8
0
  6
CONTINUOUS
 62
     8
100
AcDbVertex
100
AcDb2dVertex
 10
185.6405384433
 20
31.0899081741
 30
0.0
  0
VERTEX
  5
369
330
167
100
AcDbEntity
  8
0
  6
CONTINUOUS
 62
     8
100
AcDbVertex
100
AcDb2dVertex
 10
185.6171454276
 20
31.1082296576
 30
0.0
  0
VERTEX
  5
36A
330
167
100
AcDbEntity
  8
0
  6
CONTINUOUS
 62
     8
100
AcDbVertex
100
AcDb2dVertex
 10
185.5948537616
 20
31.1256882547
 30
0.0
  0
VERTEX
  5
36B
330
167
100
AcDbEntity
  8
0
  6
CONTINUOUS
 62
     8
100
AcDbVertex
100
AcDb2dVertex
 10
185.5741822108
 20
31.1418776735
 30
0.0
  0
SEQEND
  5
3EA
330
167
100
AcDbEntity
  8
0
  6
CONTINUOUS
 62
     8
  0
SPLINE
  5
168
330
1F
100
AcDbEntity
  8
0
  6
CONTINUOUS
 62
     8
100
AcDbSpline
210
0.0
220
0.0
230
1.0
 70
     8
 71
     3
 72
    14
 73
    10
 74
     0
 42
0.00000001
 43
0.00000001
 40
0.0
 40
0.0
 40
0.0
 40
0.0
 40
0.25
 40
0.25
 40
0.5
 40
0.5
 40
0.75
 40
0.75
 40
1.0
 40
1.0
 40
1.0
 40
1.0
 10
187.0623657693008
 20
35.45500869529381
 30
0.0
 10
187.0623375656641
 20
35.06487182009182
 30
0.0
 10
187.0294678941509
 20
34.67594220019208
 30
0.0
 10
186.9017791656381
 20
33.91618528850791
 30
0.0
 10
186.807047335628
 20
33.54312408395699
 30
0.0
 10
186.5547755655353
 20
32.81086421253617
 30
0.0
 10
186.3966091326252
 20
32.4520368201984
 30
0.0
 10
186.0271129222658
 20
31.77279629085954
 30
0.0
 10
185.814752547438
 20
31.44903927890556
 30
0.0
 10
185.5741944683121
 20
31.14189339702504
 30
0.0
  0
LINE
  5
169
330
1F
100
AcDbEntity
  8
0
  6
CONTINUOUS
 62
     8
100
AcDbLine
 10
187.2917740646
 20
35.4560781419
 30
0.0
 11
187.2917740306
 21
35.4549929012
 31
0.0
  0
LINE
  5
16A
330
1F
100
AcDbEntity
  8
0
  6
CONTINUOUS
 62
     8
100
AcDbLine
 10
188.0825915372
 20
35.4560781419
 30
0.0
 11
187.2917740646
 21
35.4560781419
 31
0.0
  0
LINE
  5
16B
330
1F
100
AcDbEntity
  8
0
  6
CONTINUOUS
 62
     8
100
AcDbLine
 10
185.7547881424
 20
31.0004231044
 30
0.0
 11
185.7539797065
 21
30.9993906142
 31
0.0
  0
SPLINE
  5
16C
330
1F
100
AcDbEntity
  8
0
  6
CONTINUOUS
 62
     8
100
AcDbSpline
210
0.0
220
0.0
230
1.0
 70
     8
 71
     3
 72
    14
 73
    10
 74
     0
 42
0.00000001
 43
0.00000001
 40
0.0
 40
0.0
 40
0.0
 40
0.0
 40
0.25
 40
0.25
 40
0.5
 40
0.5
 40
0.75
 40
0.75
 40
1.0
 40
1.0
 40
1.0
 40
1.0
 10
185.7548113580062
 20
159.4888687643053
 30
0.0
 10
186.0033308102722
 20
159.1715582105828
 30
0.0
 10
186.224223392871
 20
158.8344916508593
 30
0.0
 10
186.6042848929634
 20
158.1354500942228
 30
0.0
 10
186.7648546603474
 20
157.7717978892366
 30
0.0
 10
187.0261238380634
 20
157.0157757147238
 30
0.0
 10
187.1260681299223
 20
156.6233046564745
 30
0.0
 10
187.2582250216242
 20
155.8357304246731
 30
0.0
 10
187.2917460493455
 20
155.4373779502486
 30
0.0
 10
187.291774030645
 20
155.0343289191364
 30
0.0
  0
POLYLINE
  5
16D
330
1F
100
AcDbEntity
  8
0
  6
CONTINUOUS
 62
     8
100
AcDb2dPolyline
 66
     1
 10
0.0
 20
0.0
 30
0.0
 70
   128
  0
VERTEX
  5
36C
330
16D
100
AcDbEntity
  8
0
  6
CONTINUOUS
 62
     8
100
AcDbVertex
100
AcDb2dVertex
 10
187.2917740306
 20
155.0343289191
 30
0.0
  0
VERTEX
  5
36D
330
16D
100
AcDbEntity
  8
0
  6
CONTINUOUS
 62
     8
100
AcDbVertex
100
AcDb2dVertex
 10
187.2655196042
 20
155.0343278684
 30
0.0
  0
VERTEX
  5
36E
330
16D
100
AcDbEntity
  8
0
  6
CONTINUOUS
 62
     8
100
AcDbVertex
100
AcDb2dVertex
 10
187.2372065448
 20
155.0343264774
 30
0.0
  0
VERTEX
  5
36F
330
16D
100
AcDbEntity
  8
0
  6
CONTINUOUS
 62
     8
100
AcDbVertex
100
AcDb2dVertex
 10
187.2074937448
 20
155.0343247783
 30
0.0
  0
VERTEX
  5
370
330
16D
100
AcDbEntity
  8
0
  6
CONTINUOUS
 62
     8
100
AcDbVertex
100
AcDb2dVertex
 10
187.1770726712
 20
155.0343228108
 30
0.0
  0
VERTEX
  5
371
330
16D
100
AcDbEntity
  8
0
  6
CONTINUOUS
 62
     8
100
AcDbVertex
100
AcDb2dVertex
 10
187.1466512734
 20
155.0343206206
 30
0.0
  0
VERTEX
  5
372
330
16D
100
AcDbEntity
  8
0
  6
CONTINUOUS
 62
     8
100
AcDbVertex
100
AcDb2dVertex
 10
187.1169375087
 20
155.0343182586
 30
0.0
  0
VERTEX
  5
373
330
16D
100
AcDbEntity
  8
0
  6
CONTINUOUS
 62
     8
100
AcDbVertex
100
AcDb2dVertex
 10
187.0886228663
 20
155.03431578
 30
0.0
  0
VERTEX
  5
374
330
16D
100
AcDbEntity
  8
0
  6
CONTINUOUS
 62
     8
100
AcDbVertex
100
AcDb2dVertex
 10
187.0623662755
 20
155.0343132423
 30
0.0
  0
SEQEND
  5
3EB
330
16D
100
AcDbEntity
  8
0
  6
CONTINUOUS
 62
     8
  0
SPLINE
  5
16E
330
1F
100
AcDbEntity
  8
0
  6
CONTINUOUS
 62
     8
100
AcDbSpline
210
0.0
220
0.0
230
1.0
 70
     8
 71
     3
 72
    18
 73
    14
 74
     0
 42
0.00000001
 43
0.00000001
 40
0.0
 40
0.0
 40
0.0
 40
0.0
 40
0.125000000000001
 40
0.125000000000001
 40
0.2500000000000019
 40
0.2500000000000019
 40
0.5000000000000036
 40
0.5000000000000036
 40
0.7500000000000051
 40
0.7500000000000051
 40
0.8750000000000026
 40
0.8750000000000026
 40
1.0
 40
1.0
 40
1.0
 40
1.0
 10
187.062366275578
 20
155.034313242277
 30
0.0
 10
187.0623522969485
 20
155.2275505548095
 30
0.0
 10
187.0541890605135
 20
155.4234219668865
 30
0.0
 10
187.0219591216945
 20
155.8091583809696
 30
0.0
 10
186.9978920502932
 20
156.0009114701896
 30
0.0
 10
186.9019213933029
 20
156.5728375651354
 30
0.0
 10
186.8051505586089
 20
156.9528472003674
 30
0.0
 10
186.5521769902739
 20
157.6848646806713
 30
0.0
 10
186.3967054163315
 20
158.0369704040868
 30
0.0
 10
186.120709817779
 20
158.54460492861
 30
0.0
 10
186.0215437240173
 20
158.710378401882
 30
0.0
 10
185.808542889046
 20
159.0348892977335
 30
0.0
 10
185.6933538354776
 20
159.1952842817115
 30
0.0
 10
185.5742040879429
 20
159.3474157932935
 30
0.0
  0
POLYLINE
  5
16F
330
1F
100
AcDbEntity
  8
0
  6
CONTINUOUS
 62
     8
100
AcDb2dPolyline
 66
     1
 10
0.0
 20
0.0
 30
0.0
 70
   128
  0
VERTEX
  5
375
330
16F
100
AcDbEntity
  8
0
  6
CONTINUOUS
 62
     8
100
AcDbVertex
100
AcDb2dVertex
 10
185.7548117382
 20
159.4888690621
 30
0.0
  0
VERTEX
  5
376
330
16F
100
AcDbEntity
  8
0
  6
CONTINUOUS
 62
     8
100
AcDbVertex
100
AcDb2dVertex
 10
185.7341427139
 20
159.4726799813
 30
0.0
  0
VERTEX
  5
377
330
16F
100
AcDbEntity
  8
0
  6
CONTINUOUS
 62
     8
100
AcDbVertex
100
AcDb2dVertex
 10
185.7118528535
 20
159.4552217035
 30
0.0
  0
VERTEX
  5
378
330
16F
100
AcDbEntity
  8
0
  6
CONTINUOUS
 62
     8
100
AcDbVertex
100
AcDb2dVertex
 10
185.6884608797
 20
159.4369005123
 30
0.0
  0
VERTEX
  5
379
330
16F
100
AcDbEntity
  8
0
  6
CONTINUOUS
 62
     8
100
AcDbVertex
100
AcDb2dVertex
 10
185.664511163
 20
159.4181427727
 30
0.0
  0
VERTEX
  5
37A
330
16F
100
AcDbEntity
  8
0
  6
CONTINUOUS
 62
     8
100
AcDbVertex
100
AcDb2dVertex
 10
185.6405610537
 20
159.3993850087
 30
0.0
  0
VERTEX
  5
37B
330
16F
100
AcDbEntity
  8
0
  6
CONTINUOUS
 62
     8
100
AcDbVertex
100
AcDb2dVertex
 10
185.6171679111
 20
159.3810637451
 30
0.0
  0
VERTEX
  5
37C
330
16F
100
AcDbEntity
  8
0
  6
CONTINUOUS
 62
     8
100
AcDbVertex
100
AcDb2dVertex
 10
185.5948761329
 20
159.3636053486
 30
0.0
  0
VERTEX
  5
37D
330
16F
100
AcDbEntity
  8
0
  6
CONTINUOUS
 62
     8
100
AcDbVertex
100
AcDb2dVertex
 10
185.5742042363
 20
159.3474159095
 30
0.0
  0
SEQEND
  5
3EC
330
16F
100
AcDbEntity
  8
0
  6
CONTINUOUS
 62
     8
  0
LINE
  5
170
330
1F
100
AcDbEntity
  8
0
  6
CONTINUOUS
 62
     8
100
AcDbLine
 10
185.7539737528
 20
159.4899388795
 30
0.0
 11
185.7548117382
 21
159.4888690621
 31
0.0
  0
LINE
  5
171
330
1F
100
AcDbEntity
  8
0
  6
CONTINUOUS
 62
     8
100
AcDbLine
 10
188.0825915372
 20
155.0332438777
 30
0.0
 11
187.2917740646
 21
155.0332534913
 31
0.0
  0
POLYLINE
  5
172
330
1F
100
AcDbEntity
  8
0
  6
CONTINUOUS
 62
     8
100
AcDb2dPolyline
 66
     1
 10
0.0
 20
0.0
 30
0.0
 70
   128
  0
VERTEX
  5
37E
330
172
100
AcDbEntity
  8
0
  6
CONTINUOUS
 62
     8
100
AcDbVertex
100
AcDb2dVertex
 10
187.2917740306
 20
155.0343289191
 30
0.0
  0
VERTEX
  5
37F
330
172
100
AcDbEntity
  8
0
  6
CONTINUOUS
 62
     8
100
AcDbVertex
100
AcDb2dVertex
 10
187.2917740467
 20
155.0340600622
 30
0.0
  0
VERTEX
  5
380
330
172
100
AcDbEntity
  8
0
  6
CONTINUOUS
 62
     8
100
AcDbVertex
100
AcDb2dVertex
 10
187.2917740578
 20
155.0337912052
 30
0.0
  0
VERTEX
  5
381
330
172
100
AcDbEntity
  8
0
  6
CONTINUOUS
 62
     8
100
AcDbVertex
100
AcDb2dVertex
 10
187.2917740637
 20
155.0335223483
 30
0.0
  0
VERTEX
  5
382
330
172
100
AcDbEntity
  8
0
  6
CONTINUOUS
 62
     8
100
AcDbVertex
100
AcDb2dVertex
 10
187.2917740646
 20
155.0332534913
 30
0.0
  0
SEQEND
  5
3ED
330
172
100
AcDbEntity
  8
0
  6
CONTINUOUS
 62
     8
  0
SPLINE
  5
173
330
1F
100
AcDbEntity
  8
0
  6
CONTINUOUS
 62
     8
100
AcDbSpline
210
0.0
220
0.0
230
1.0
 70
     8
 71
     3
 72
    18
 73
    14
 74
     0
 42
0.00000001
 43
0.00000001
 40
0.0
 40
0.0
 40
0.0
 40
0.0
 40
0.1250000000000001
 40
0.1250000000000001
 40
0.2500000000000002
 40
0.2500000000000002
 40
0.5000000000000004
 40
0.5000000000000004
 40
0.7500000000000007
 40
0.7500000000000007
 40
0.8750000000000003
 40
0.8750000000000003
 40
1.0
 40
1.0
 40
1.0
 40
1.0
 10
128.6736440216716
 20
35.455009051477
 30
0.0
 10
128.6736580002745
 20
35.26177173893623
 30
0.0
 10
128.6818212367401
 20
35.06590032685025
 30
0.0
 10
128.7140511755644
 20
34.68016391275061
 30
0.0
 10
128.7381182469695
 20
34.48841082352272
 30
0.0
 10
128.8340889039773
 20
33.91648472855457
 30
0.0
 10
128.9308597386928
 20
33.53647509331017
 30
0.0
 10
129.18383330706
 20
32.80445761297835
 30
0.0
 10
129.3393048810242
 20
32.45235188955169
 30
0.0
 10
129.6153004795947
 20
31.94471736500518
 30
0.0
 10
129.7144665733531
 20
31.77894389172101
 30
0.0
 10
129.9274674083396
 20
31.45443299585574
 30
0.0
 10
130.0426564623066
 20
31.29403801215952
 30
0.0
 10
130.1618062093374
 20
31.14190650017233
 30
0.0
  0
POLYLINE
  5
174
330
1F
100
AcDbEntity
  8
0
  6
CONTINUOUS
 62
     8
100
AcDb2dPolyline
 66
     1
 10
0.0
 20
0.0
 30
0.0
 70
   128
  0
VERTEX
  5
383
330
174
100
AcDbEntity
  8
0
  6
CONTINUOUS
 62
     8
100
AcDbVertex
100
AcDb2dVertex
 10
130.1618058495
 20
31.1419061386
 30
0.0
  0
VERTEX
  5
384
330
174
100
AcDbEntity
  8
0
  6
CONTINUOUS
 62
     8
100
AcDbVertex
100
AcDb2dVertex
 10
130.1411342138
 20
31.1257169037
 30
0.0
  0
VERTEX
  5
385
330
174
100
AcDbEntity
  8
0
  6
CONTINUOUS
 62
     8
100
AcDbVertex
100
AcDb2dVertex
 10
130.1188424498
 20
31.1082585182
 30
0.0
  0
VERTEX
  5
386
330
174
100
AcDbEntity
  8
0
  6
CONTINUOUS
 62
     8
100
AcDbVertex
100
AcDb2dVertex
 10
130.0954493262
 20
31.0899372694
 30
0.0
  0
VERTEX
  5
387
330
174
100
AcDbEntity
  8
0
  6
CONTINUOUS
 62
     8
100
AcDbVertex
100
AcDb2dVertex
 10
130.0714992419
 20
31.071179525
 30
0.0
  0
VERTEX
  5
388
330
174
100
AcDbEntity
  8
0
  6
CONTINUOUS
 62
     8
100
AcDbVertex
100
AcDb2dVertex
 10
130.0475495575
 20
31.0524218106
 30
0.0
  0
VERTEX
  5
389
330
174
100
AcDbEntity
  8
0
  6
CONTINUOUS
 62
     8
100
AcDbVertex
100
AcDb2dVertex
 10
130.0241576242
 20
31.0341006512
 30
0.0
  0
VERTEX
  5
38A
330
174
100
AcDbEntity
  8
0
  6
CONTINUOUS
 62
     8
100
AcDbVertex
100
AcDb2dVertex
 10
130.0018678133
 20
31.0166424123
 30
0.0
  0
VERTEX
  5
38B
330
174
100
AcDbEntity
  8
0
  6
CONTINUOUS
 62
     8
100
AcDbVertex
100
AcDb2dVertex
 10
129.9811985978
 20
31.0004531819
 30
0.0
  0
SEQEND
  5
3EE
330
174
100
AcDbEntity
  8
0
  6
CONTINUOUS
 62
     8
  0
SPLINE
  5
175
330
1F
100
AcDbEntity
  8
0
  6
CONTINUOUS
 62
     8
100
AcDbSpline
210
0.0
220
0.0
230
1.0
 70
     8
 71
     3
 72
    14
 73
    10
 74
     0
 42
0.00000001
 43
0.00000001
 40
0.0
 40
0.0
 40
0.0
 40
0.0
 40
0.25
 40
0.25
 40
0.5
 40
0.5
 40
0.75
 40
0.75
 40
1.0
 40
1.0
 40
1.0
 40
1.0
 10
129.9811989780492
 20
31.00045347968473
 30
0.0
 10
129.7326795224075
 20
31.3177640373655
 30
0.0
 10
129.5117869315349
 20
31.65483059840106
 30
0.0
 10
129.1317254218444
 20
32.35387216193784
 30
0.0
 10
128.9711556504441
 20
32.71752437075
 30
0.0
 10
128.709886466163
 20
33.47354655361888
 30
0.0
 10
128.6099421716479
 20
33.86601761684807
 30
0.0
 10
128.4777852764981
 20
34.65359185868273
 30
0.0
 10
128.444264247905
 20
35.05194433824409
 30
0.0
 10
128.4442362666017
 20
35.4549933746157
 30
0.0
  0
POLYLINE
  5
176
330
1F
100
AcDbEntity
  8
0
  6
CONTINUOUS
 62
     8
100
AcDb2dPolyline
 66
     1
 10
0.0
 20
0.0
 30
0.0
 70
   128
  0
VERTEX
  5
38C
330
176
100
AcDbEntity
  8
0
  6
CONTINUOUS
 62
     8
100
AcDbVertex
100
AcDb2dVertex
 10
128.6736440217
 20
35.4550090515
 30
0.0
  0
VERTEX
  5
38D
330
176
100
AcDbEntity
  8
0
  6
CONTINUOUS
 62
     8
100
AcDbVertex
100
AcDb2dVertex
 10
128.6473874309
 20
35.4550065138
 30
0.0
  0
VERTEX
  5
38E
330
176
100
AcDbEntity
  8
0
  6
CONTINUOUS
 62
     8
100
AcDbVertex
100
AcDb2dVertex
 10
128.6190727885
 20
35.4550040351
 30
0.0
  0
VERTEX
  5
38F
330
176
100
AcDbEntity
  8
0
  6
CONTINUOUS
 62
     8
100
AcDbVertex
100
AcDb2dVertex
 10
128.5893590238
 20
35.4550016732
 30
0.0
  0
VERTEX
  5
390
330
176
100
AcDbEntity
  8
0
  6
CONTINUOUS
 62
     8
100
AcDbVertex
100
AcDb2dVertex
 10
128.5589376261
 20
35.454999483
 30
0.0
  0
VERTEX
  5
391
330
176
100
AcDbEntity
  8
0
  6
CONTINUOUS
 62
     8
100
AcDbVertex
100
AcDb2dVertex
 10
128.5285165524
 20
35.4549975155
 30
0.0
  0
VERTEX
  5
392
330
176
100
AcDbEntity
  8
0
  6
CONTINUOUS
 62
     8
100
AcDbVertex
100
AcDb2dVertex
 10
128.4988037525
 20
35.4549958164
 30
0.0
  0
VERTEX
  5
393
330
176
100
AcDbEntity
  8
0
  6
CONTINUOUS
 62
     8
100
AcDbVertex
100
AcDb2dVertex
 10
128.470490693
 20
35.4549944253
 30
0.0
  0
VERTEX
  5
394
330
176
100
AcDbEntity
  8
0
  6
CONTINUOUS
 62
     8
100
AcDbVertex
100
AcDb2dVertex
 10
128.4442362666
 20
35.4549933746
 30
0.0
  0
SEQEND
  5
3EF
330
176
100
AcDbEntity
  8
0
  6
CONTINUOUS
 62
     8
  0
LINE
  5
177
330
1F
100
AcDbEntity
  8
0
  6
CONTINUOUS
 62
     8
100
AcDbLine
 10
129.9820365443
 20
30.9993834142
 30
0.0
 11
129.9811985978
 21
31.0004531819
 31
0.0
  0
LINE
  5
178
330
1F
100
AcDbEntity
  8
0
  6
CONTINUOUS
 62
     8
100
AcDbLine
 10
127.65341876
 20
35.4560784161
 30
0.0
 11
128.4442362326
 21
35.4560688024
 31
0.0
  0
POLYLINE
  5
179
330
1F
100
AcDbEntity
  8
0
  6
CONTINUOUS
 62
     8
100
AcDb2dPolyline
 66
     1
 10
0.0
 20
0.0
 30
0.0
 70
   128
  0
VERTEX
  5
395
330
179
100
AcDbEntity
  8
0
  6
CONTINUOUS
 62
     8
100
AcDbVertex
100
AcDb2dVertex
 10
128.4442362666
 20
35.4549933746
 30
0.0
  0
VERTEX
  5
396
330
179
100
AcDbEntity
  8
0
  6
CONTINUOUS
 62
     8
100
AcDbVertex
100
AcDb2dVertex
 10
128.4442362505
 20
35.4552622316
 30
0.0
  0
VERTEX
  5
397
330
179
100
AcDbEntity
  8
0
  6
CONTINUOUS
 62
     8
100
AcDbVertex
100
AcDb2dVertex
 10
128.4442362395
 20
35.4555310885
 30
0.0
  0
VERTEX
  5
398
330
179
100
AcDbEntity
  8
0
  6
CONTINUOUS
 62
     8
100
AcDbVertex
100
AcDb2dVertex
 10
128.4442362335
 20
35.4557999455
 30
0.0
  0
VERTEX
  5
399
330
179
100
AcDbEntity
  8
0
  6
CONTINUOUS
 62
     8
100
AcDbVertex
100
AcDb2dVertex
 10
128.4442362326
 20
35.4560688024
 30
0.0
  0
SEQEND
  5
3F0
330
179
100
AcDbEntity
  8
0
  6
CONTINUOUS
 62
     8
  0
LINE
  5
17A
330
1F
100
AcDbEntity
  8
0
  6
CONTINUOUS
 62
     8
100
AcDbLine
 10
128.6736440217
 20
155.0343132423
 30
0.0
 11
129.7974056097
 21
155.0343132423
 31
0.0
  0
SPLINE
  5
17B
330
1F
100
AcDbEntity
  8
0
  6
CONTINUOUS
 62
     8
100
AcDbSpline
210
0.0
220
0.0
230
1.0
 70
     8
 71
     3
 72
    15
 73
    11
 74
     0
 42
0.00000001
 43
0.00000001
 40
0.0
 40
0.0
 40
0.0
 40
0.0
 40
0.0971588245028334
 40
0.2261334883116419
 40
0.3551119298333498
 40
0.4840899955399099
 40
0.6130677606599377
 40
0.7420453000519865
 40
0.8710226883328092
 40
1.0
 40
1.0
 40
1.0
 40
1.0
 10
130.158671289204
 20
159.3434085079382
 30
0.0
 10
130.1902576837468
 20
159.3213004658192
 30
0.0
 10
130.263773822067
 20
159.26984483418
 30
0.0
 10
130.3735744113978
 20
159.1815892847343
 30
0.0
 10
130.4949225599743
 20
159.0876876957792
 30
0.0
 10
130.6158247575509
 20
158.993193363959
 30
0.0
 10
130.7368547714748
 20
158.8988685586547
 30
0.0
 10
130.8578559221688
 20
158.8045058145914
 30
0.0
 10
130.978867795111
 20
158.7101574678888
 30
0.0
 10
131.0595405374954
 20
158.6472562313728
 30
0.0
 10
131.0998768967075
 20
158.6158056224558
 30
0.0
  0
LINE
  5
17C
330
1F
100
AcDbEntity
  8
0
  6
CONTINUOUS
 62
     8
100
AcDbLine
 10
184.6376621568
 20
158.6138061072
 30
0.0
 11
185.5742042363
 21
159.3474159095
 31
0.0
  0
LINE
  5
17D
330
1F
100
AcDbEntity
  8
0
  6
CONTINUOUS
 62
     8
100
AcDbLine
 10
185.9386046875
 20
155.0343132423
 30
0.0
 11
187.0623662755
 21
155.0343132423
 31
0.0
  0
LINE
  5
17E
330
1F
100
AcDbEntity
  8
0
  6
CONTINUOUS
 62
     8
100
AcDbLine
 10
130.1618058495
 20
31.1419061386
 30
0.0
 11
132.5904673242
 21
33.0443195449
 31
0.0
  0
LINE
  5
17F
330
1F
100
AcDbEntity
  8
0
  6
CONTINUOUS
 62
     8
100
AcDbLine
 10
128.6736440217
 20
35.4550090515
 30
0.0
 11
131.6652823725
 21
35.4550090515
 31
0.0
  0
LINE
  5
180
330
1F
100
AcDbEntity
  8
0
  6
CONTINUOUS
 62
     8
100
AcDbLine
 10
185.9978037935
 20
53.0471701328
 30
0.0
 11
184.073771088
 21
52.9267033243
 31
0.0
  0
LINE
  5
181
330
1F
100
AcDbEntity
  8
0
  6
CONTINUOUS
 62
     8
100
AcDbLine
 10
131.6622392093
 20
52.9267033243
 30
0.0
 11
129.7382065037
 21
53.0471701328
 31
0.0
  0
SPLINE
  5
182
330
1F
100
AcDbEntity
  8
0
  6
CONTINUOUS
 62
     8
100
AcDbSpline
210
0.0
220
0.0
230
1.0
 70
     8
 71
     3
 72
     8
 73
     4
 74
     0
 42
0.00000001
 43
0.00000001
 40
0.0
 40
0.0
 40
0.0
 40
0.0
 40
0.0000064118858488
 40
0.0000064118858488
 40
0.0000064118858488
 40
0.0000064118858488
 10
130.1626220085546
 20
159.3484585129616
 30
0.0
 10
130.1613039520126
 20
159.346776027277
 30
0.0
 10
130.1599863285111
 20
159.3450932022517
 30
0.0
 10
130.1586690624026
 20
159.3434100977667
 30
0.0
  0
LINE
  5
183
330
1F
100
AcDbEntity
  8
0
  6
CONTINUOUS
 62
     8
100
AcDbLine
 10
185.5733891644
 20
31.1408648988
 30
0.0
 11
185.5741885248
 21
31.1418853902
 31
0.0
  0
LINE
  5
184
330
1F
100
AcDbEntity
  8
0
  6
CONTINUOUS
 62
     8
100
AcDbLine
 10
128.6736440217
 20
155.0343132423
 30
0.0
 11
128.6736439888
 21
155.0332456947
 31
0.0
  0
POLYLINE
  5
185
330
1F
100
AcDbEntity
  8
0
  6
CONTINUOUS
 62
     8
100
AcDb2dPolyline
 66
     1
 10
0.0
 20
0.0
 30
0.0
 70
   128
  0
VERTEX
  5
39A
330
185
100
AcDbEntity
  8
0
  6
CONTINUOUS
 62
     8
100
AcDbVertex
100
AcDb2dVertex
 10
128.6736439888
 20
155.0332456947
 30
0.0
  0
VERTEX
  5
39B
330
185
100
AcDbEntity
  8
0
  6
CONTINUOUS
 62
     8
100
AcDbVertex
100
AcDb2dVertex
 10
128.6473873979
 20
155.033245445
 30
0.0
  0
VERTEX
  5
39C
330
185
100
AcDbEntity
  8
0
  6
CONTINUOUS
 62
     8
100
AcDbVertex
100
AcDb2dVertex
 10
128.6190727553
 20
155.033245201
 30
0.0
  0
VERTEX
  5
39D
330
185
100
AcDbEntity
  8
0
  6
CONTINUOUS
 62
     8
100
AcDbVertex
100
AcDb2dVertex
 10
128.5893589905
 20
155.0332449686
 30
0.0
  0
VERTEX
  5
39E
330
185
100
AcDbEntity
  8
0
  6
CONTINUOUS
 62
     8
100
AcDbVertex
100
AcDb2dVertex
 10
128.5589375926
 20
155.033244753
 30
0.0
  0
VERTEX
  5
39F
330
185
100
AcDbEntity
  8
0
  6
CONTINUOUS
 62
     8
100
AcDbVertex
100
AcDb2dVertex
 10
128.5285165188
 20
155.0332445594
 30
0.0
  0
VERTEX
  5
3A0
330
185
100
AcDbEntity
  8
0
  6
CONTINUOUS
 62
     8
100
AcDbVertex
100
AcDb2dVertex
 10
128.4988037187
 20
155.0332443922
 30
0.0
  0
VERTEX
  5
3A1
330
185
100
AcDbEntity
  8
0
  6
CONTINUOUS
 62
     8
100
AcDbVertex
100
AcDb2dVertex
 10
128.4704906591
 20
155.0332442553
 30
0.0
  0
VERTEX
  5
3A2
330
185
100
AcDbEntity
  8
0
  6
CONTINUOUS
 62
     8
100
AcDbVertex
100
AcDb2dVertex
 10
128.4442362327
 20
155.0332441519
 30
0.0
  0
SEQEND
  5
3F1
330
185
100
AcDbEntity
  8
0
  6
CONTINUOUS
 62
     8
  0
LINE
  5
186
330
1F
100
AcDbEntity
  8
0
  6
CONTINUOUS
 62
     8
100
AcDbLine
 10
130.1618058495
 20
31.1419061386
 30
0.0
 11
130.1626278276
 21
31.1408567579
 31
0.0
  0
POLYLINE
  5
187
330
1F
100
AcDbEntity
  8
0
  6
CONTINUOUS
 62
     8
100
AcDb2dPolyline
 66
     1
 10
0.0
 20
0.0
 30
0.0
 70
   128
  0
VERTEX
  5
3A3
330
187
100
AcDbEntity
  8
0
  6
CONTINUOUS
 62
     8
100
AcDbVertex
100
AcDb2dVertex
 10
185.5742042363
 20
159.3474159095
 30
0.0
  0
VERTEX
  5
3A4
330
187
100
AcDbEntity
  8
0
  6
CONTINUOUS
 62
     8
100
AcDbVertex
100
AcDb2dVertex
 10
185.5741674517
 20
159.3474633913
 30
0.0
  0
VERTEX
  5
3A5
330
187
100
AcDbEntity
  8
0
  6
CONTINUOUS
 62
     8
100
AcDbVertex
100
AcDb2dVertex
 10
185.5733824695
 20
159.3484655357
 30
0.0
  0
SEQEND
  5
3F2
330
187
100
AcDbEntity
  8
0
  6
CONTINUOUS
 62
     8
  0
POLYLINE
  5
188
330
1F
100
AcDbEntity
  8
0
  6
CONTINUOUS
 62
     8
100
AcDb2dPolyline
 66
     1
 10
0.0
 20
0.0
 30
0.0
 70
   128
  0
VERTEX
  5
3A6
330
188
100
AcDbEntity
  8
0
  6
CONTINUOUS
 62
     8
100
AcDbVertex
100
AcDb2dVertex
 10
187.2917740646
 20
155.0332534913
 30
0.0
  0
VERTEX
  5
3A7
330
188
100
AcDbEntity
  8
0
  6
CONTINUOUS
 62
     8
100
AcDbVertex
100
AcDb2dVertex
 10
187.2655196381
 20
155.0332533591
 30
0.0
  0
VERTEX
  5
3A8
330
188
100
AcDbEntity
  8
0
  6
CONTINUOUS
 62
     8
100
AcDbVertex
100
AcDb2dVertex
 10
187.2372065786
 20
155.0332532623
 30
0.0
  0
VERTEX
  5
3A9
330
188
100
AcDbEntity
  8
0
  6
CONTINUOUS
 62
     8
100
AcDbVertex
100
AcDb2dVertex
 10
187.2074937785
 20
155.0332532033
 30
0.0
  0
VERTEX
  5
3AA
330
188
100
AcDbEntity
  8
0
  6
CONTINUOUS
 62
     8
100
AcDbVertex
100
AcDb2dVertex
 10
187.1770727047
 20
155.0332531835
 30
0.0
  0
VERTEX
  5
3AB
330
188
100
AcDbEntity
  8
0
  6
CONTINUOUS
 62
     8
100
AcDbVertex
100
AcDb2dVertex
 10
187.1466513068
 20
155.0332532033
 30
0.0
  0
VERTEX
  5
3AC
330
188
100
AcDbEntity
  8
0
  6
CONTINUOUS
 62
     8
100
AcDbVertex
100
AcDb2dVertex
 10
187.1169375419
 20
155.0332532623
 30
0.0
  0
VERTEX
  5
3AD
330
188
100
AcDbEntity
  8
0
  6
CONTINUOUS
 62
     8
100
AcDbVertex
100
AcDb2dVertex
 10
187.0886228994
 20
155.0332533591
 30
0.0
  0
VERTEX
  5
3AE
330
188
100
AcDbEntity
  8
0
  6
CONTINUOUS
 62
     8
100
AcDbVertex
100
AcDb2dVertex
 10
187.0623663085
 20
155.0332534913
 30
0.0
  0
SEQEND
  5
3F3
330
188
100
AcDbEntity
  8
0
  6
CONTINUOUS
 62
     8
  0
LINE
  5
189
330
1F
100
AcDbEntity
  8
0
  6
CONTINUOUS
 62
     8
100
AcDbLine
 10
187.2917740646
 20
155.0332534913
 30
0.0
 11
187.2917740646
 21
35.4560781419
 31
0.0
  0
POLYLINE
  5
18A
330
1F
100
AcDbEntity
  8
0
  6
CONTINUOUS
 62
     8
100
AcDb2dPolyline
 66
     1
 10
0.0
 20
0.0
 30
0.0
 70
   128
  0
VERTEX
  5
3AF
330
18A
100
AcDbEntity
  8
0
  6
CONTINUOUS
 62
     8
100
AcDbVertex
100
AcDb2dVertex
 10
187.2917740646
 20
35.4560781419
 30
0.0
  0
VERTEX
  5
3B0
330
18A
100
AcDbEntity
  8
0
  6
CONTINUOUS
 62
     8
100
AcDbVertex
100
AcDb2dVertex
 10
187.2655196381
 20
35.4560778921
 30
0.0
  0
VERTEX
  5
3B1
330
18A
100
AcDbEntity
  8
0
  6
CONTINUOUS
 62
     8
100
AcDbVertex
100
AcDb2dVertex
 10
187.2372065785
 20
35.4560776482
 30
0.0
  0
VERTEX
  5
3B2
330
18A
100
AcDbEntity
  8
0
  6
CONTINUOUS
 62
     8
100
AcDbVertex
100
AcDb2dVertex
 10
187.2074937785
 20
35.4560774157
 30
0.0
  0
VERTEX
  5
3B3
330
18A
100
AcDbEntity
  8
0
  6
CONTINUOUS
 62
     8
100
AcDbVertex
100
AcDb2dVertex
 10
187.1770727047
 20
35.4560772002
 30
0.0
  0
VERTEX
  5
3B4
330
18A
100
AcDbEntity
  8
0
  6
CONTINUOUS
 62
     8
100
AcDbVertex
100
AcDb2dVertex
 10
187.1466513068
 20
35.4560770066
 30
0.0
  0
VERTEX
  5
3B5
330
18A
100
AcDbEntity
  8
0
  6
CONTINUOUS
 62
     8
100
AcDbVertex
100
AcDb2dVertex
 10
187.1169375419
 20
35.4560768394
 30
0.0
  0
VERTEX
  5
3B6
330
18A
100
AcDbEntity
  8
0
  6
CONTINUOUS
 62
     8
100
AcDbVertex
100
AcDb2dVertex
 10
187.0886228993
 20
35.4560767025
 30
0.0
  0
VERTEX
  5
3B7
330
18A
100
AcDbEntity
  8
0
  6
CONTINUOUS
 62
     8
100
AcDbVertex
100
AcDb2dVertex
 10
187.0623663084
 20
35.4560765991
 30
0.0
  0
SEQEND
  5
3F4
330
18A
100
AcDbEntity
  8
0
  6
CONTINUOUS
 62
     8
  0
LINE
  5
18B
330
1F
100
AcDbEntity
  8
0
  6
CONTINUOUS
 62
     8
100
AcDbLine
 10
187.0623663084
 20
35.4560765991
 30
0.0
 11
187.0623663085
 21
155.0332534913
 31
0.0
  0
LINE
  5
18C
330
1F
100
AcDbEntity
  8
0
  6
CONTINUOUS
 62
     8
100
AcDbLine
 10
187.0623663085
 20
155.0332534913
 30
0.0
 11
187.0623662755
 21
155.0343132423
 31
0.0
  0
LINE
  5
18D
330
1F
100
AcDbEntity
  8
0
  6
CONTINUOUS
 62
     8
100
AcDbLine
 10
128.6736439888
 20
155.0332456947
 30
0.0
 11
128.6736439888
 21
35.4560688024
 31
0.0
  0
LINE
  5
18E
330
1F
100
AcDbEntity
  8
0
  6
CONTINUOUS
 62
     8
100
AcDbLine
 10
128.6736439888
 20
35.4560688024
 30
0.0
 11
128.4442362326
 21
35.4560688024
 31
0.0
  0
LINE
  5
18F
330
1F
100
AcDbEntity
  8
0
  6
CONTINUOUS
 62
     8
100
AcDbLine
 10
128.4442362326
 20
35.4560688024
 30
0.0
 11
128.4442362327
 21
155.0332441519
 31
0.0
  0
LINE
  5
190
330
1F
100
AcDbEntity
  8
0
  6
CONTINUOUS
 62
     8
100
AcDbLine
 10
128.6736439888
 20
35.4560688024
 30
0.0
 11
128.6736440217
 21
35.4550090515
 31
0.0
  0
LINE
  5
191
330
1F
100
AcDbEntity
  8
0
  6
CONTINUOUS
 62
     8
100
AcDbLine
 10
187.0623662755
 20
35.4550085706
 30
0.0
 11
187.0623663084
 21
35.4560765991
 31
0.0
  0
LINE
  5
192
330
1F
100
AcDbEntity
  8
0
  6
CONTINUOUS
 62
     8
100
AcDbLine
 10
185.5741823065
 20
31.1418775986
 30
0.0
 11
183.1455422347
 21
33.0443184
 31
0.0
  0
LINE
  5
193
330
1F
100
AcDbEntity
  8
0
  6
CONTINUOUS
 62
     8
100
AcDbLine
 10
187.0623662755
 20
35.4550085706
 30
0.0
 11
184.0707279063
 21
35.4550085706
 31
0.0
  0
LINE
  5
194
330
1F
100
AcDbEntity
  8
0
  6
CONTINUOUS
 62
     8
100
AcDbLine
 10
129.346600454
 20
159.9714601243
 30
0.0
 11
129.2281385948
 21
160.0013839587
 31
0.0
  0
LINE
  5
195
330
1F
100
AcDbEntity
  8
0
  6
CONTINUOUS
 62
     8
100
AcDbLine
 10
129.346600454
 20
159.9714601243
 30
0.0
 11
129.3533363537
 21
159.9697577737
 31
0.0
  0
POLYLINE
  5
196
330
1F
100
AcDbEntity
  8
0
  6
CONTINUOUS
 62
     8
100
AcDb2dPolyline
 66
     1
 10
0.0
 20
0.0
 30
0.0
 70
   128
  0
VERTEX
  5
3B8
330
196
100
AcDbEntity
  8
0
  6
CONTINUOUS
 62
     8
100
AcDbVertex
100
AcDb2dVertex
 10
127.6534186677
 20
155.0410262378
 30
0.0
  0
VERTEX
  5
3B9
330
196
100
AcDbEntity
  8
0
  6
CONTINUOUS
 62
     8
100
AcDbVertex
100
AcDb2dVertex
 10
127.0995474984
 20
155.231018712
 30
0.0
  0
VERTEX
  5
3BA
330
196
100
AcDbEntity
  8
0
  6
CONTINUOUS
 62
     8
100
AcDbVertex
100
AcDb2dVertex
 10
126.7435924102
 20
155.352044733
 30
0.0
  0
SEQEND
  5
3F5
330
196
100
AcDbEntity
  8
0
  6
CONTINUOUS
 62
     8
  0
LINE
  5
197
330
1F
100
AcDbEntity
  8
0
  6
CONTINUOUS
 62
     8
100
AcDbLine
 10
128.3904147695
 20
160.2121972688
 30
0.0
 11
129.2281385948
 21
160.0013839587
 31
0.0
  0
LINE
  5
198
330
1F
100
AcDbEntity
  8
0
  6
CONTINUOUS
 62
     8
100
AcDbLine
 10
186.5078716904
 20
30.4879383196
 30
0.0
 11
186.3894097594
 21
30.5178621906
 31
0.0
  0
LINE
  5
199
330
1F
100
AcDbEntity
  8
0
  6
CONTINUOUS
 62
     8
100
AcDbLine
 10
186.3894097595
 20
30.5178621906
 30
0.0
 11
186.3826739435
 21
30.5195645201
 31
0.0
  0
ARC
  5
19A
330
1F
100
AcDbEntity
  8
0
  6
CONTINUOUS
 62
     8
100
AcDbCircle
 10
245.8471038244
 20
202.9412670085
 30
0.0
 40
177.174022327336
100
AcDbArc
 50
250.9718517932
 51
251.2827945267
  0
LINE
  5
19B
330
1F
100
AcDbEntity
  8
0
  6
CONTINUOUS
 62
     8
100
AcDbLine
 10
187.3455955278
 20
30.277125025
 30
0.0
 11
186.5078717024
 21
30.487938335
 31
0.0
  0
LINE
  5
19C
330
1F
100
AcDbEntity
  8
0
  6
CONTINUOUS
 62
     8
100
AcDbLine
 10
186.3894097595
 20
159.9714601031
 30
0.0
 11
186.3826739435
 21
159.9697577737
 31
0.0
  0
LINE
  5
19D
330
1F
100
AcDbEntity
  8
0
  6
CONTINUOUS
 62
     8
100
AcDbLine
 10
186.3894097596
 20
159.9714601029
 30
0.0
 11
186.5078716905
 21
160.0013839741
 31
0.0
  0
LINE
  5
19E
330
1F
100
AcDbEntity
  8
0
  6
CONTINUOUS
 62
     8
100
AcDbLine
 10
186.5078717024
 20
160.0013839587
 30
0.0
 11
187.3455955278
 21
160.2121972688
 31
0.0
  0
POLYLINE
  5
19F
330
1F
100
AcDbEntity
  8
0
  6
CONTINUOUS
 62
     8
100
AcDb2dPolyline
 66
     1
 10
0.0
 20
0.0
 30
0.0
 70
   128
  0
VERTEX
  5
3BB
330
19F
100
AcDbEntity
  8
0
  6
CONTINUOUS
 62
     8
100
AcDbVertex
100
AcDb2dVertex
 10
188.9924178871
 20
155.352044733
 30
0.0
  0
VERTEX
  5
3BC
330
19F
100
AcDbEntity
  8
0
  6
CONTINUOUS
 62
     8
100
AcDbVertex
100
AcDb2dVertex
 10
188.6364628024
 20
155.2310187132
 30
0.0
  0
VERTEX
  5
3BD
330
19F
100
AcDbEntity
  8
0
  6
CONTINUOUS
 62
     8
100
AcDbVertex
100
AcDb2dVertex
 10
188.0825916295
 20
155.0410262378
 30
0.0
  0
SEQEND
  5
3F6
330
19F
100
AcDbEntity
  8
0
  6
CONTINUOUS
 62
     8
  0
LINE
  5
1A0
330
1F
100
AcDbEntity
  8
0
  6
CONTINUOUS
 62
     8
100
AcDbLine
 10
129.3466025264
 20
30.5178637418
 30
0.0
 11
129.3533363537
 21
30.5195645201
 31
0.0
  0
LINE
  5
1A1
330
1F
100
AcDbEntity
  8
0
  6
CONTINUOUS
 62
     8
100
AcDbLine
 10
129.3466025264
 20
30.5178637418
 30
0.0
 11
129.2281386069
 21
30.4879383195
 31
0.0
  0
LINE
  5
1A2
330
1F
100
AcDbEntity
  8
0
  6
CONTINUOUS
 62
     8
100
AcDbLine
 10
129.2281386069
 20
30.4879383195
 30
0.0
 11
128.3904147695
 21
30.277125025
 31
0.0
  0
ARC
  5
1A3
330
1F
100
AcDbEntity
  8
0
  6
CONTINUOUS
 62
     8
100
AcDbCircle
 10
69.8890146251
 20
202.9409506292
 30
0.0
 40
177.1736879742098
100
AcDbArc
 50
288.7172051799
 51
289.0281485003
  0
LINE
  5
1A4
330
1F
100
AcDbEntity
  8
0
  6
CONTINUOUS
 62
     7
100
AcDbLine
 10
255.9487430268
 20
54.0694006546
 30
0.0
 11
255.9481515959
 21
53.8446611469
 31
0.0
  0
ARC
  5
1A5
330
1F
100
AcDbEntity
  8
0
  6
CONTINUOUS
 62
     7
100
AcDbCircle
 10
298.6481515959
 20
52.8446611469
 30
0.0
 40
42.7
100
AcDbArc
 50
180.0
 51
224.5164395675
  0
LINE
  5
1A6
330
1F
100
AcDbEntity
  8
0
  6
CONTINUOUS
 62
     7
100
AcDbLine
 10
255.9481515959
 20
52.9952791574
 30
0.0
 11
255.9481515959
 21
52.8446611469
 31
0.0
  0
LINE
  5
1A7
330
1F
100
AcDbEntity
  8
0
  6
CONTINUOUS
 62
     7
100
AcDbLine
 10
255.9481515959
 20
53.8446611469
 30
0.0
 11
255.9481515959
 21
53.6901722723
 31
0.0
  0
LINE
  5
1A8
330
1F
100
AcDbEntity
  8
0
  6
CONTINUOUS
 62
     7
100
AcDbLine
 10
255.8981818206
 20
52.9946611468
 30
0.0
 11
255.9481564098
 21
52.9946611468
 31
0.0
  0
LINE
  5
1A9
330
1F
100
AcDbEntity
  8
0
  6
CONTINUOUS
 62
     7
100
AcDbLine
 10
255.9481879525
 20
53.6946611468
 30
0.0
 11
255.8981818206
 21
53.6946611468
 31
0.0
  0
SPLINE
  5
1AA
330
1F
100
AcDbEntity
  8
0
  6
CONTINUOUS
 62
     7
100
AcDbSpline
210
0.0
220
0.0
230
1.0
 70
     8
 71
     3
 72
    50
 73
    46
 74
     0
 42
0.00000001
 43
0.00000001
 40
0.0
 40
0.0
 40
0.0
 40
0.0
 40
0.0063157241595382
 40
0.0299123347683289
 40
0.0535253629678792
 40
0.0771539676434821
 40
0.1007973627334814
 40
0.1244548131603152
 40
0.1481256311449126
 40
0.171809172859444
 40
0.1955048353796264
 40
0.2192120539030318
 40
0.2429302992051732
 40
0.2666590753084588
 40
0.2903979173428435
 40
0.3141463895793326
 40
0.3379040836202175
 40
0.3616706167314307
 40
0.3854456303049479
 40
0.409228788439633
 40
0.4330197766308084
 40
0.4568183005599768
 40
0.480624084976301
 40
0.504436872663578
 40
0.5282564234856976
 40
0.5520825135055215
 40
0.5759149341715961
 40
0.5997534915684614
 40
0.6235980057263575
 40
0.6474483099864454
 40
0.6713042504182111
 40
0.6951656852862732
 40
0.719032484563506
 40
0.7429045294882635
 40
0.7667817121633614
 40
0.7906639351949509
 40
0.8145511113695161
 40
0.8384431633674253
 40
0.8623400235117392
 40
0.8862416335512399
 40
0.9101479444763535
 40
0.934058916367584
 40
0.9579745182756598
 40
0.9818947281329243
 40
1.0
 40
1.0
 40
1.0
 40
1.0
 10
268.2039769359212
 20
171.1722679329393
 30
0.0
 10
268.1472453535828
 20
171.1201551243402
 30
0.0
 10
267.8785550118298
 20
170.8733400739742
 30
0.0
 10
267.4091282528242
 20
170.4194914298621
 30
0.0
 10
266.7962338089591
 20
169.8104667037064
 30
0.0
 10
266.19573152986
 20
169.1883530382599
 30
0.0
 10
265.6067679731948
 20
168.5545933669173
 30
0.0
 10
265.0299053097901
 20
167.9090989080634
 30
0.0
 10
264.4653177676428
 20
167.252198270965
 30
0.0
 10
263.9132753947022
 20
166.5841145055852
 30
0.0
 10
263.3740143484083
 20
165.9051051654803
 30
0.0
 10
262.8477717033612
 20
165.2154245606454
 30
0.0
 10
262.3347761315423
 20
164.5153336975089
 30
0.0
 10
261.8352504096707
 20
163.8050974331298
 30
0.0
 10
261.3494107496438
 20
163.0849850600148
 30
0.0
 10
260.8774669762747
 20
162.3552699728351
 30
0.0
 10
260.4196224739798
 20
161.6162295829199
 30
0.0
 10
259.9760741921937
 20
160.868145167719
 30
0.0
 10
259.5470126323783
 20
160.1113017389292
 30
0.0
 10
259.1326218378076
 20
159.3459879066822
 30
0.0
 10
258.7330793809003
 20
158.5724957457046
 30
0.0
 10
258.3485563499069
 20
157.7911206617361
 30
0.0
 10
257.9792173348328
 20
157.0021612585368
 30
0.0
 10
257.6252204129651
 20
156.2059192052944
 30
0.0
 10
257.2867171342065
 20
155.4026991043787
 30
0.0
 10
256.9638525064455
 20
154.5928083593764
 30
0.0
 10
256.6567649811578
 20
153.7765570433501
 30
0.0
 10
256.3655864394242
 20
152.9542577672704
 30
0.0
 10
256.0904421785506
 20
152.1262255485815
 30
0.0
 10
255.8314508993888
 20
151.292777679868
 30
0.0
 10
255.5887246947553
 20
150.4542335975917
 30
0.0
 10
255.3623690381534
 20
149.6109147508847
 30
0.0
 10
255.1524827764378
 20
148.7631444703645
 30
0.0
 10
254.9591581134443
 20
147.9112478370259
 30
0.0
 10
254.782480633633
 20
147.0555515509799
 30
0.0
 10
254.6225291831843
 20
146.1963838008768
 30
0.0
 10
254.4793762906182
 20
145.3340741309012
 30
0.0
 10
254.3530865811272
 20
144.4689533169883
 30
0.0
 10
254.2437226891159
 20
143.6013532088328
 30
0.0
 10
254.1513231874072
 20
142.7316066998806
 30
0.0
 10
254.0759849920922
 20
141.8600472199273
 30
0.0
 10
254.0175557535343
 20
140.9870100103847
 30
0.0
 10
253.976782235016
 20
140.1128267452214
 30
0.0
 10
253.9531122608026
 20
139.3088029258023
 30
0.0
 10
253.950881703693
 20
138.7962086352613
 30
0.0
 10
253.9499207428372
 20
138.5753745458717
 30
0.0
  0
SPLINE
  5
1AB
330
1F
100
AcDbEntity
  8
0
  6
CONTINUOUS
 62
     7
100
AcDbSpline
210
0.0
220
0.0
230
1.0
 70
     8
 71
     3
 72
    21
 73
    17
 74
     0
 42
0.00000001
 43
0.00000001
 40
0.0
 40
0.0
 40
0.0
 40
0.0
 40
0.0563854369168923
 40
0.1262458902289523
 40
0.2002360043525356
 40
0.2716641334274177
 40
0.3454151565088117
 40
0.4191699860236119
 40
0.4931356673223438
 40
0.5674192742242564
 40
0.6412745439726183
 40
0.7153092968812477
 40
0.789385163700766
 40
0.8631360401645896
 40
0.9345843529675578
 40
1.0
 40
1.0
 40
1.0
 40
1.0
 10
268.2046412220552
 20
35.45501034215449
 30
0.0
 10
268.2042571891725
 20
35.36622996314257
 30
0.0
 10
268.2033973470608
 20
35.16745243128194
 30
0.0
 10
268.2042813453663
 20
34.85261056511851
 30
0.0
 10
268.2042597852687
 20
34.51550413083292
 30
0.0
 10
268.2042801225812
 20
34.17453387724196
 30
0.0
 10
268.2042838520695
 20
33.83691099329403
 30
0.0
 10
268.2042864682954
 20
33.49929826387032
 30
0.0
 10
268.2042828463882
 20
33.16559377839464
 30
0.0
 10
268.2042764256146
 20
32.83727524118002
 30
0.0
 10
268.2042661334917
 20
32.51521713568037
 30
0.0
 10
268.2042677284919
 20
32.20052534550492
 30
0.0
 10
268.2042253447171
 20
31.89372893430525
 30
0.0
 10
268.2043507971521
 20
31.59927759559365
 30
0.0
 10
268.2034433148116
 20
31.32512970683823
 30
0.0
 10
268.2041708882589
 20
31.15330551921365
 30
0.0
 10
268.2045186400547
 20
31.07118024370063
 30
0.0
  0
SPLINE
  5
1AC
330
1F
100
AcDbEntity
  8
0
  6
CONTINUOUS
 62
     7
100
AcDbSpline
210
0.0
220
0.0
230
1.0
 70
     8
 71
     3
 72
    21
 73
    17
 74
     0
 42
0.00000001
 43
0.00000001
 40
0.0
 40
0.0
 40
0.0
 40
0.0
 40
0.0689038264436188
 40
0.1392209581027977
 40
0.2138228880434447
 40
0.2850113098747121
 40
0.3587515632460438
 40
0.4325434458287304
 40
0.5065766984415084
 40
0.5809017797493405
 40
0.6546840043289969
 40
0.7287416679387446
 40
0.8027716555764621
 40
0.8764597839803902
 40
0.9483584357006002
 40
0.9999999999999999
 40
0.9999999999999999
 40
0.9999999999999999
 40
0.9999999999999999
 10
268.2045041627235
 20
159.4181400867517
 30
0.0
 10
268.2041589940886
 20
159.3315781907968
 30
0.0
 10
268.2034615769704
 20
159.1566789041819
 30
0.0
 10
268.2043679042334
 20
158.8780458065291
 30
0.0
 10
268.2042345508717
 20
158.5875119850628
 30
0.0
 10
268.2042811166016
 20
158.2838832603043
 30
0.0
 10
268.2042774904888
 20
157.9737850305205
 30
0.0
 10
268.204284511371
 20
157.6525267512173
 30
0.0
 10
268.2042849889862
 20
157.3241274927792
 30
0.0
 10
268.2042831916489
 20
156.9901751439305
 30
0.0
 10
268.2042779250054
 20
156.6514609701384
 30
0.0
 10
268.2042718246691
 20
156.309321076391
 30
0.0
 10
268.2042583836222
 20
155.9642632533443
 30
0.0
 10
268.2042635939136
 20
155.6202916989162
 30
0.0
 10
268.2033719994622
 20
155.3101359632315
 30
0.0
 10
268.2042821967311
 20
155.1156204328165
 30
0.0
 10
268.2046626721124
 20
155.0343101794042
 30
0.0
  0
LINE
  5
1AD
330
1F
100
AcDbEntity
  8
0
  6
CONTINUOUS
 62
     7
100
AcDbLine
 10
294.8481515959
 20
174.7690738853
 30
0.0
 11
268.7941337989
 21
173.8592475355
 31
0.0
  0
LINE
  5
1AE
330
1F
100
AcDbEntity
  8
0
  6
CONTINUOUS
 62
     7
100
AcDbLine
 10
293.8604079983
 20
15.7547411749
 30
0.0
 11
294.8481515959
 21
15.7202484084
 31
0.0
  0
LINE
  5
1AF
330
1F
100
AcDbEntity
  8
0
  6
CONTINUOUS
 62
     7
100
AcDbLine
 10
268.7941337989
 20
16.6300747583
 30
0.0
 11
285.0240368154
 21
16.0633140561
 31
0.0
  0
LINE
  5
1B0
330
1F
100
AcDbEntity
  8
0
  6
CONTINUOUS
 62
     7
100
AcDbLine
 10
268.2042278521
 20
35.4560775406
 30
0.0
 11
268.2042278753
 21
35.4549990134
 31
0.0
  0
LINE
  5
1B1
330
1F
100
AcDbEntity
  8
0
  6
CONTINUOUS
 62
     7
100
AcDbLine
 10
268.2042278753
 20
155.0343228098
 30
0.0
 11
268.204227852
 21
155.0332540348
 31
0.0
  0
LINE
  5
1B2
330
1F
100
AcDbEntity
  8
0
  6
CONTINUOUS
 62
     7
100
AcDbLine
 10
268.2042278521
 20
155.0332531835
 30
0.0
 11
268.2042278521
 21
35.4560772001
 31
0.0
  0
LINE
  5
1B3
330
1F
100
AcDbEntity
  8
0
  6
CONTINUOUS
 62
     7
100
AcDbLine
 10
295.6481515959
 20
173.7690738853
 30
0.0
 11
294.8481515959
 21
174.5690738853
 31
0.0
  0
LINE
  5
1B4
330
1F
100
AcDbEntity
  8
0
  6
CONTINUOUS
 62
     7
100
AcDbLine
 10
294.8481515959
 20
15.9202484084
 30
0.0
 11
295.6481515959
 21
16.7202484084
 31
0.0
  0
LINE
  5
1B5
330
1F
100
AcDbEntity
  8
0
  6
CONTINUOUS
 62
     7
100
AcDbLine
 10
268.7941337989
 20
173.8592475355
 30
0.0
 11
268.2367454581
 21
173.0632144876
 31
0.0
  0
LINE
  5
1B6
330
1F
100
AcDbEntity
  8
0
  6
CONTINUOUS
 62
     7
100
AcDbLine
 10
268.2387131888
 20
17.4232975955
 30
0.0
 11
268.7941337989
 21
16.6300747583
 31
0.0
  0
LINE
  5
1B7
330
1F
100
AcDbEntity
  8
0
  6
CONTINUOUS
 62
     7
100
AcDbLine
 10
253.9499525685
 20
54.1675089322
 30
0.0
 11
255.7525207038
 21
54.0730403392
 31
0.0
  0
LINE
  5
1B8
330
1F
100
AcDbEntity
  8
0
  6
CONTINUOUS
 62
     7
100
AcDbLine
 10
268.2042281588
 20
31.0711649676
 30
0.0
 11
268.2042280669
 21
31.0701351052
 31
0.0
  0
LINE
  5
1B9
330
1F
100
AcDbEntity
  8
0
  6
CONTINUOUS
 62
     7
100
AcDbLine
 10
268.2042279476
 20
159.4191949536
 30
0.0
 11
268.2042279239
 21
159.41812908
 31
0.0
  0
SPLINE
  5
1BA
330
1F
100
AcDbEntity
  8
0
  6
CONTINUOUS
 62
     7
100
AcDbSpline
210
0.0
220
0.0
230
1.0
 70
     8
 71
     3
 72
    49
 73
    45
 74
     0
 42
0.00000001
 43
0.00000001
 40
0.0
 40
0.0
 40
0.0
 40
0.0
 40
0.0021614809388226
 40
0.0281038945460598
 40
0.0534568787328458
 40
0.0785253596200867
 40
0.1033280567157304
 40
0.1278830393375493
 40
0.1522086281566732
 40
0.1763233303645534
 40
0.2002416112144648
 40
0.2241611447958392
 40
0.2485615818633489
 40
0.272909680417897
 40
0.2972142824445759
 40
0.3214840915775079
 40
0.3457278187932402
 40
0.3699541789952972
 40
0.3941718876131319
 40
0.4183896571851204
 40
0.4426147421709788
 40
0.4668543876832656
 40
0.4911172750106839
 40
0.5154120668665628
 40
0.5397474040502587
 40
0.5641319020880103
 40
0.5885741478920851
 40
0.6130500785759686
 40
0.6373902977823873
 40
0.661668386526296
 40
0.6859171512837804
 40
0.7101545850049218
 40
0.7343984080029536
 40
0.758660889783699
 40
0.7829600216024037
 40
0.8073178373434913
 40
0.8316317966870684
 40
0.8559099856210571
 40
0.8802691304426477
 40
0.9046767446332178
 40
0.9291002247592706
 40
0.9534979782666501
 40
0.977832435276904
 40
1.0
 40
1.0
 40
1.0
 40
1.0
 10
268.2037790979438
 20
31.07127523763229
 30
0.0
 10
268.2036814398013
 20
31.05305930547203
 30
0.0
 10
268.2024116742018
 20
30.81621306394628
 30
0.0
 10
268.2017992727066
 20
30.37519148101106
 30
0.0
 10
268.2010274552673
 20
29.75251108488358
 30
0.0
 10
268.2012464310013
 20
29.15146953456245
 30
0.0
 10
268.201872678165
 20
28.56817544961604
 30
0.0
 10
268.2027335772636
 20
28.00268878637172
 30
0.0
 10
268.2035562802981
 20
27.45466698995695
 30
0.0
 10
268.2041570433191
 20
26.92386873382456
 30
0.0
 10
268.2041798703733
 20
26.40891410199001
 30
0.0
 10
268.2041695965669
 20
25.90414815482597
 30
0.0
 10
268.2041693902997
 20
25.40922510545307
 30
0.0
 10
268.204167501995
 20
24.92497901019977
 30
0.0
 10
268.2041670143113
 20
24.45514319943187
 30
0.0
 10
268.2041669749256
 20
23.99975286241915
 30
0.0
 10
268.2041675093914
 20
23.55884990511811
 30
0.0
 10
268.2041684553457
 20
23.13247862979484
 30
0.0
 10
268.2041697275634
 20
22.72068678388671
 30
0.0
 10
268.2041712202104
 20
22.32353335718954
 30
0.0
 10
268.2041728329013
 20
21.94108711949796
 30
0.0
 10
268.2041744637273
 20
21.57341765836036
 30
0.0
 10
268.204176011052
 20
21.2205888313696
 30
0.0
 10
268.2041773733278
 20
20.88266039206157
 30
0.0
 10
268.2041784477814
 20
20.55969600647744
 30
0.0
 10
268.2041791354085
 20
20.25176208720314
 30
0.0
 10
268.2041793217996
 20
19.95906259501524
 30
0.0
 10
268.2041789505278
 20
19.6824318161242
 30
0.0
 10
268.2041789507069
 20
19.42255534544163
 30
0.0
 10
268.2041792691251
 20
19.17968764500444
 30
0.0
 10
268.2041800547995
 20
18.95347895374881
 30
0.0
 10
268.2041814042227
 20
18.74380367425757
 30
0.0
 10
268.2041834298156
 20
18.55061972265486
 30
0.0
 10
268.2041862392759
 20
18.37388848758924
 30
0.0
 10
268.2041899509217
 20
18.21359616946267
 30
0.0
 10
268.2041946476039
 20
18.06988225247684
 30
0.0
 10
268.2042006724364
 20
17.94330533144908
 30
0.0
 10
268.2042073005682
 20
17.83369975361961
 30
0.0
 10
268.2042139355794
 20
17.74091223510385
 30
0.0
 10
268.2042199412015
 20
17.66499381528516
 30
0.0
 10
268.2042247034226
 20
17.60604319924109
 30
0.0
 10
268.2042275004196
 20
17.56459103043073
 30
0.0
 10
268.2042280197455
 20
17.53999326139141
 30
0.0
 10
268.2042258713155
 20
17.53699730267702
 30
0.0
 10
268.2042248471566
 20
17.53556912587452
 30
0.0
  0
ARC
  5
1BB
330
1F
100
AcDbEntity
  8
0
  6
CONTINUOUS
 62
     7
100
AcDbCircle
 10
268.4042248426
 20
17.5356118161
 30
0.0
 40
0.2000000000000291
100
AcDbArc
 50
180.0122340717
 51
214.1380114228
  0
ARC
  5
1BC
330
1F
100
AcDbEntity
  8
0
  6
CONTINUOUS
 62
     7
100
AcDbCircle
 10
268.4042248407
 20
172.9537104736
 30
0.0
 40
0.2000000000000389
100
AcDbArc
 50
146.8432208168
 51
179.9878054919
  0
SPLINE
  5
1BD
330
1F
100
AcDbEntity
  8
0
  6
CONTINUOUS
 62
     7
100
AcDbSpline
210
0.0
220
0.0
230
1.0
 70
     8
 71
     3
 72
    49
 73
    45
 74
     0
 42
0.00000001
 43
0.00000001
 40
0.0
 40
0.0
 40
0.0
 40
0.0
 40
0.0126559289578657
 40
0.0360441232447987
 40
0.060440393030609
 40
0.0847476502615534
 40
0.1090337525587423
 40
0.1333207509540808
 40
0.1576227623872251
 40
0.1819565148829977
 40
0.2063398479226453
 40
0.2307369467610115
 40
0.2549479027818884
 40
0.2792464616769454
 40
0.3036026178838743
 40
0.3279862263349873
 40
0.3523627153132279
 40
0.376694299176762
 40
0.4009498151664206
 40
0.4251135103096563
 40
0.4493852440279612
 40
0.4737330987550368
 40
0.4980503361569379
 40
0.5223550814553657
 40
0.5466655306087076
 40
0.5709938530305224
 40
0.5953581537494053
 40
0.6197697682232635
 40
0.6441156175741494
 40
0.6683934864221301
 40
0.6926747170963117
 40
0.7169591418768096
 40
0.7412464403659421
 40
0.7655359146743969
 40
0.78982677860692
 40
0.8141180986749134
 40
0.8384214875083814
 40
0.8619523216931533
 40
0.8857004712834184
 40
0.9098234406697764
 40
0.934336882373371
 40
0.9592566648544348
 40
0.9845971837230697
 40
1.0
 40
1.0
 40
1.0
 40
1.0
 10
268.20422484512
 20
172.9537530256623
 30
0.0
 10
268.2042240030042
 20
172.9533298652605
 30
0.0
 10
268.204221604656
 20
172.95212470318
 30
0.0
 10
268.2042146543852
 20
172.9372545349338
 30
0.0
 10
268.2042034658433
 20
172.9039578280295
 30
0.0
 10
268.2041891654438
 20
172.8527648407817
 30
0.0
 10
268.2041724640932
 20
172.7845899067744
 30
0.0
 10
268.2041537523254
 20
172.6992970619814
 30
0.0
 10
268.2041334520717
 20
172.596902199364
 30
0.0
 10
268.2041120166612
 20
172.4773526913715
 30
0.0
 10
268.2040897547651
 20
172.3407889651308
 30
0.0
 10
268.2040676549631
 20
172.1874452750154
 30
0.0
 10
268.2040463628828
 20
172.0174159547426
 30
0.0
 10
268.2040261843341
 20
171.830897250008
 30
0.0
 10
268.2040074809142
 20
171.6274091588772
 30
0.0
 10
268.203990682405
 20
171.4072577408618
 30
0.0
 10
268.2039762232975
 20
171.1708220073754
 30
0.0
 10
268.2039645364082
 20
170.9185474177534
 30
0.0
 10
268.2039560208971
 20
170.6508597888812
 30
0.0
 10
268.2039511330423
 20
170.3673303829448
 30
0.0
 10
268.2039498363108
 20
170.0677897533982
 30
0.0
 10
268.2039519203095
 20
169.7518694156937
 30
0.0
 10
268.2039571999092
 20
169.4201644204996
 30
0.0
 10
268.2039654561183
 20
169.0731427831604
 30
0.0
 10
268.2039764783516
 20
168.7107520190271
 30
0.0
 10
268.2039900692783
 20
168.332931009731
 30
0.0
 10
268.2040059938233
 20
167.939634648831
 30
0.0
 10
268.204024136796
 20
167.5315541044748
 30
0.0
 10
268.2040436604536
 20
167.1094018774135
 30
0.0
 10
268.2040640872983
 20
166.6737030854064
 30
0.0
 10
268.2040848049733
 20
166.2243182255691
 30
0.0
 10
268.2041060693777
 20
165.7610354136008
 30
0.0
 10
268.2041248041856
 20
165.2840810510424
 30
0.0
 10
268.2041502925866
 20
164.7936962462265
 30
0.0
 10
268.2041456629538
 20
164.2901191034147
 30
0.0
 10
268.2042463084797
 20
163.7735621707205
 30
0.0
 10
268.2039477050728
 20
163.2497251829321
 30
0.0
 10
268.2028543711372
 20
162.7168624161506
 30
0.0
 10
268.2015357540116
 20
162.1735098009999
 30
0.0
 10
268.2002815865339
 20
161.6110484754477
 30
0.0
 10
268.1994587666005
 20
161.0282868779099
 30
0.0
 10
268.1995889297017
 20
160.4244124000971
 30
0.0
 10
268.2005588698827
 20
159.8862517107634
 30
0.0
 10
268.2024446738683
 20
159.5452931467883
 30
0.0
 10
268.2031575927352
 20
159.4163954485466
 30
0.0
  0
LINE
  5
1BE
330
1F
100
AcDbEntity
  8
0
  6
CONTINUOUS
 62
     7
100
AcDbLine
 10
253.9481515959
 20
83.314075016
 30
0.0
 11
253.9481515959
 21
54.1675742362
 31
0.0
  0
LINE
  5
1BF
330
1F
100
AcDbEntity
  8
0
  6
CONTINUOUS
 62
     7
100
AcDbLine
 10
298.882870162
 20
172.6820514932
 30
0.0
 11
295.6481515959
 21
172.7950103546
 31
0.0
  0
LINE
  5
1C0
330
1F
100
AcDbEntity
  8
0
  6
CONTINUOUS
 62
     7
100
AcDbLine
 10
295.6481515959
 20
17.6943119392
 30
0.0
 11
298.882870162
 21
17.8072708006
 31
0.0
  0
ARC
  5
1C1
330
1F
100
AcDbEntity
  8
0
  6
CONTINUOUS
 62
     7
100
AcDbCircle
 10
298.8476737607
 20
18.8066512595
 30
0.0
 40
1.000000000000003
100
AcDbArc
 50
272.0
 51
315.0
  0
ARC
  5
1C2
330
1F
100
AcDbEntity
  8
0
  6
CONTINUOUS
 62
     7
100
AcDbCircle
 10
298.8476737607
 20
171.6826710343
 30
0.0
 40
1.000000000000048
100
AcDbArc
 50
45.0
 51
88.0
  0
LINE
  5
1C3
330
1F
100
AcDbEntity
  8
0
  6
CONTINUOUS
 62
     7
100
AcDbLine
 10
301.4474253495
 20
170.4971330078
 30
0.0
 11
299.5547555419
 21
172.3898028155
 31
0.0
  0
LINE
  5
1C4
330
1F
100
AcDbEntity
  8
0
  6
CONTINUOUS
 62
     7
100
AcDbLine
 10
308.9735869621
 20
162.9709713953
 30
0.0
 11
305.5683411227
 21
166.3762172346
 31
0.0
  0
LINE
  5
1C5
330
1F
100
AcDbEntity
  8
0
  6
CONTINUOUS
 62
     7
100
AcDbLine
 10
299.5547555419
 20
18.0995194783
 30
0.0
 11
308.9735869621
 21
27.5183508985
 31
0.0
  0
ARC
  5
1C6
330
1F
100
AcDbEntity
  8
0
  6
CONTINUOUS
 62
     7
100
AcDbCircle
 10
307.3063382594
 20
161.3122537813
 30
0.0
 40
2.351813336526689
100
AcDbArc
 50
0.0
 51
44.9999999772
  0
ARC
  5
1C7
330
1F
100
AcDbEntity
  8
0
  6
CONTINUOUS
 62
     7
100
AcDbCircle
 10
307.3063382594
 20
29.1770685125
 30
0.0
 40
2.351813336526694
100
AcDbArc
 50
315.0000000228
 51
0.0
  0
LINE
  5
1C8
330
1F
100
AcDbEntity
  8
0
  6
CONTINUOUS
 62
     7
100
AcDbLine
 10
254.348153283
 20
134.9446611469
 30
0.0
 11
254.348153283
 21
86.9448171612
 31
0.0
  0
LINE
  5
1C9
330
1F
100
AcDbEntity
  8
0
  6
CONTINUOUS
 62
     7
100
AcDbLine
 10
254.348153283
 20
134.9446611469
 30
0.0
 11
254.348153283
 21
136.4419043498
 31
0.0
  0
LINE
  5
1CA
330
1F
100
AcDbEntity
  8
0
  6
CONTINUOUS
 62
     7
100
AcDbLine
 10
254.348153283
 20
85.4478315483
 30
0.0
 11
254.348153283
 21
86.9448171612
 31
0.0
  0
SPLINE
  5
1CB
330
1F
100
AcDbEntity
  8
0
  6
CONTINUOUS
 62
     7
100
AcDbSpline
210
0.0
220
0.0
230
1.0
 70
     8
 71
     3
 72
    12
 73
     8
 74
     0
 42
0.00000001
 43
0.00000001
 40
0.0
 40
0.0
 40
0.0
 40
0.0
 40
0.2148327160542061
 40
0.4296652573001316
 40
0.6445023350556487
 40
0.859342364383095
 40
1.0
 40
1.0
 40
1.0
 40
1.0
 10
255.9495860462285
 20
53.34466114684552
 30
0.0
 10
255.9495535938399
 20
53.3839953951676
 30
0.0
 10
255.9494886890892
 20
53.46266385980567
 30
0.0
 10
255.949032503154
 20
53.56774933812635
 30
0.0
 10
255.9485389554502
 20
53.64614030352375
 30
0.0
 10
255.9481856067938
 20
53.69055843891274
 30
0.0
 10
255.9481873593577
 20
53.69028174863859
 30
0.0
 10
255.9481880527842
 20
53.69017227225211
 30
0.0
  0
SPLINE
  5
1CC
330
1F
100
AcDbEntity
  8
0
  6
CONTINUOUS
 62
     7
100
AcDbSpline
210
0.0
220
0.0
230
1.0
 70
     8
 71
     3
 72
    13
 73
     9
 74
     0
 42
0.00000001
 43
0.00000001
 40
0.0
 40
0.0
 40
0.0
 40
0.0
 40
0.0069426874418911
 40
0.2216027435753787
 40
0.4362628574122826
 40
0.6509292552301077
 40
0.8655983549309718
 40
1.0
 40
1.0
 40
1.0
 40
1.0
 10
255.9481565318638
 20
52.99527915735872
 30
0.0
 10
255.9481548919433
 20
52.9950737774591
 30
0.0
 10
255.9481025475312
 20
52.9885182829748
 30
0.0
 10
255.9482979007687
 20
53.01222996003271
 30
0.0
 10
255.948709794754
 20
53.06776036744986
 30
0.0
 10
255.9492212703089
 20
53.15900806625216
 30
0.0
 10
255.9495400552243
 20
53.25628916943447
 30
0.0
 10
255.9495732610793
 20
53.32009440965086
 30
0.0
 10
255.9495860462285
 20
53.34466114684552
 30
0.0
  0
LINE
  5
1CD
330
1F
100
AcDbEntity
  8
0
  6
CONTINUOUS
 62
     7
100
AcDbLine
 10
255.8981818206
 20
53.3446611468
 30
0.0
 11
255.8981818206
 21
53.6946611468
 31
0.0
  0
LINE
  5
1CE
330
1F
100
AcDbEntity
  8
0
  6
CONTINUOUS
 62
     7
100
AcDbLine
 10
255.8981818206
 20
52.9946611468
 30
0.0
 11
255.8981818206
 21
53.3446611468
 31
0.0
  0
SPLINE
  5
1CF
330
1F
100
AcDbEntity
  8
0
  6
CONTINUOUS
 62
     7
100
AcDbSpline
210
0.0
220
0.0
230
1.0
 70
     8
 71
     3
 72
     8
 73
     4
 74
     0
 42
0.00000001
 43
0.00000001
 40
0.0
 40
0.0
 40
0.0
 40
0.0
 40
1.0
 40
1.0
 40
1.0
 40
1.0
 10
254.0299408940519
 20
138.5682482122261
 30
0.0
 10
254.0487512581214
 20
138.5666025186132
 30
0.0
 10
254.0703249638918
 20
138.5253567522169
 30
0.0
 10
254.0946636468515
 20
138.4446611468779
 30
0.0
  0
SPLINE
  5
1D0
330
1F
100
AcDbEntity
  8
0
  6
CONTINUOUS
 62
     7
100
AcDbSpline
210
0.0
220
0.0
230
1.0
 70
    24
 71
     3
 72
     8
 73
     4
 74
     0
 42
0.00000001
 43
0.00000001
 40
0.0
 40
0.0
 40
0.0
 40
0.0
 40
1.0
 40
1.0
 40
1.0
 40
1.0
 10
253.9483427516176
 20
138.5753871246538
 30
0.0
 10
253.9483422676317
 20
138.5753871669971
 30
0.0
 10
253.975766421793
 20
138.5729878644012
 30
0.0
 10
254.0299408940519
 20
138.5682482122261
 30
0.0
  0
SPLINE
  5
1D1
330
1F
100
AcDbEntity
  8
0
  6
CONTINUOUS
 62
     7
100
AcDbSpline
210
0.0
220
0.0
230
1.0
 70
     8
 71
     3
 72
    10
 73
     6
 74
     0
 42
0.00000001
 43
0.00000001
 40
0.0
 40
0.0
 40
0.0
 40
0.0
 40
0.5
 40
0.5
 40
1.0
 40
1.0
 40
1.0
 40
1.0
 10
268.7941371909093
 20
159.9697577736829
 30
0.0
 10
268.7947515721671
 20
159.2663559005031
 30
0.0
 10
268.7950713659554
 20
158.4926988489286
 30
0.0
 10
268.7950716687251
 20
156.8052173331415
 30
0.0
 10
268.7947510653666
 20
155.934387158765
 30
0.0
 10
268.7941364420472
 20
155.041026237816
 30
0.0
  0
SPLINE
  5
1D2
330
1F
100
AcDbEntity
  8
0
  6
CONTINUOUS
 62
     7
100
AcDbSpline
210
0.0
220
0.0
230
1.0
 70
    24
 71
     3
 72
    12
 73
     8
 74
     0
 42
0.00000001
 43
0.00000001
 40
0.0
 40
0.0
 40
0.0
 40
0.0
 40
0.5000000000000003
 40
0.5000000000000003
 40
0.7500000000000001
 40
0.7500000000000001
 40
1.0
 40
1.0
 40
1.0
 40
1.0
 10
294.8481515959311
 20
155.3520447330407
 30
0.0
 10
294.8481515959311
 20
156.2306013197234
 30
0.0
 10
294.848151595931
 20
157.0847391153059
 30
0.0
 10
294.848151595931
 20
158.3296115793287
 30
0.0
 10
294.848151595931
 20
158.7312983876362
 30
0.0
 10
294.848151595931
 20
159.4972155073148
 30
0.0
 10
294.848151595931
 20
159.8634006244092
 30
0.0
 10
294.848151595931
 20
160.2121972688013
 30
0.0
  0
SPLINE
  5
1D3
330
1F
100
AcDbEntity
  8
0
  6
CONTINUOUS
 62
     7
100
AcDbSpline
210
0.0
220
0.0
230
1.0
 70
     8
 71
     3
 72
    14
 73
    10
 74
     0
 42
0.00000001
 43
0.00000001
 40
0.0
 40
0.0
 40
0.0
 40
0.0
 40
0.25
 40
0.25
 40
0.5
 40
0.5
 40
0.75
 40
0.75
 40
1.0
 40
1.0
 40
1.0
 40
1.0
 10
268.7941364420471
 20
35.44829605593797
 30
0.0
 10
268.7944432473582
 20
35.00235157537901
 30
0.0
 10
268.7946765994025
 20
34.56161236606904
 30
0.0
 10
268.7949911326434
 20
33.6902560667828
 30
0.0
 10
268.7950719238328
 20
33.25604073435133
 30
0.0
 10
268.7950711078093
 20
32.4194449053863
 30
0.0
 10
268.7949912847404
 20
32.01706028852269
 30
0.0
 10
268.7946785855578
 20
31.2436028046207
 30
0.0
 10
268.7944438753923
 20
30.87068597515374
 30
0.0
 10
268.7941371909092
 20
30.51956452007114
 30
0.0
  0
SPLINE
  5
1D4
330
1F
100
AcDbEntity
  8
0
  6
CONTINUOUS
 62
     7
100
AcDbSpline
210
0.0
220
0.0
230
1.0
 70
    24
 71
     3
 72
    12
 73
     8
 74
     0
 42
0.00000001
 43
0.00000001
 40
0.0
 40
0.0
 40
0.0
 40
0.0
 40
0.5
 40
0.5
 40
0.75
 40
0.75
 40
1.0
 40
1.0
 40
1.0
 40
1.0
 10
294.848151595931
 20
30.27712502495267
 30
0.0
 10
294.848151595931
 20
30.97471748581797
 30
0.0
 10
294.848151595931
 20
31.73862413710829
 30
0.0
 10
294.848151595931
 20
32.98316188034791
 30
0.0
 10
294.848151595931
 20
33.40789545820011
 30
0.0
 10
294.848151595931
 20
34.26434705239577
 30
0.0
 10
294.848151595931
 20
34.69799945086298
 30
0.0
 10
294.848151595931
 20
35.13727756071331
 30
0.0
  0
SPLINE
  5
1D5
330
1F
100
AcDbEntity
  8
0
  6
CONTINUOUS
 62
     7
100
AcDbSpline
210
0.0
220
0.0
230
1.0
 70
     8
 71
     3
 72
     8
 73
     4
 74
     0
 42
0.00000001
 43
0.00000001
 40
0.0000002234835478
 40
0.0000002234835478
 40
0.0000002234835478
 40
0.0000002234835478
 40
0.0000080050427674
 40
0.0000080050427674
 40
0.0000080050427674
 40
0.0000080050427674
 10
268.7941337989064
 20
155.0332438776622
 30
0.0
 10
268.7941337762713
 20
155.0358379978632
 30
0.0
 10
268.7941346573189
 20
155.0384321182297
 30
0.0
 10
268.794136442047
 20
155.0410262378161
 30
0.0
  0
SPLINE
  5
1D6
330
1F
100
AcDbEntity
  8
0
  6
CONTINUOUS
 62
     7
100
AcDbSpline
210
0.0
220
0.0
230
1.0
 70
     8
 71
     3
 72
     8
 73
     4
 74
     0
 42
0.00000001
 43
0.00000001
 40
0.0003208366294901
 40
0.0003208366294901
 40
0.0003208366294901
 40
0.0003208366294901
 40
0.0003286179143881
 40
0.0003286179143881
 40
0.0003286179143881
 40
0.0003286179143881
 10
268.794136442047
 20
35.44829605593758
 30
0.0
 10
268.7941346573818
 20
35.45089008411323
 30
0.0
 10
268.7941337763334
 20
35.45348411306889
 30
0.0
 10
268.794133798904
 20
35.4560781418591
 30
0.0
  0
LINE
  5
1D7
330
1F
100
AcDbEntity
  8
0
  6
CONTINUOUS
 62
     7
100
AcDbLine
 10
268.7941337989
 20
35.4560781419
 30
0.0
 11
268.7941337989
 21
155.0332438777
 31
0.0
  0
LINE
  5
1D8
330
1F
100
AcDbEntity
  8
0
  6
CONTINUOUS
 62
     7
100
AcDbLine
 10
294.8481515959
 20
155.352044733
 30
0.0
 11
294.8481515959
 21
35.1372775607
 31
0.0
  0
LINE
  5
1D9
330
1F
100
AcDbEntity
  8
0
  6
CONTINUOUS
 62
     7
100
AcDbLine
 10
295.6481515959
 20
30.8850219091
 30
0.0
 11
295.6481515959
 21
35.1372752561
 31
0.0
  0
LINE
  5
1DA
330
1F
100
AcDbEntity
  8
0
  6
CONTINUOUS
 62
     7
100
AcDbLine
 10
295.6481515959
 20
155.352054188
 30
0.0
 11
295.6481515959
 21
159.6043061018
 31
0.0
  0
LINE
  5
1DB
330
1F
100
AcDbEntity
  8
0
  6
CONTINUOUS
 62
     7
100
AcDbLine
 10
295.6481515959
 20
35.1372752561
 30
0.0
 11
295.6481515959
 21
155.352054188
 31
0.0
  0
SPLINE
  5
1DC
330
1F
100
AcDbEntity
  8
0
  6
CONTINUOUS
 62
     7
100
AcDbSpline
210
0.0
220
0.0
230
1.0
 70
     8
 71
     3
 72
     8
 73
     4
 74
     0
 42
0.00000001
 43
0.00000001
 40
0.0
 40
0.0
 40
0.0
 40
0.0
 40
1.0
 40
1.0
 40
1.0
 40
1.0
 10
268.7941371909092
 20
30.51956452007114
 30
0.0
 10
268.794134900499
 20
30.51694224141033
 30
0.0
 10
268.7941337698655
 20
30.51432026044984
 30
0.0
 10
268.7941337989064
 20
30.51169857716284
 30
0.0
  0
SPLINE
  5
1DD
330
1F
100
AcDbEntity
  8
0
  6
CONTINUOUS
 62
     7
100
AcDbSpline
210
0.0
220
0.0
230
1.0
 70
     8
 71
     3
 72
     8
 73
     4
 74
     0
 42
0.00000001
 43
0.00000001
 40
0.0
 40
0.0
 40
0.0
 40
0.0
 40
1.0
 40
1.0
 40
1.0
 40
1.0
 10
268.794133798904
 20
159.9776235007131
 30
0.0
 10
268.7941337699276
 20
159.9750018893695
 30
0.0
 10
268.7941349005619
 20
159.9723799803683
 30
0.0
 10
268.7941371909092
 20
159.9697577736829
 30
0.0
  0
LINE
  5
1DE
330
1F
100
AcDbEntity
  8
0
  6
CONTINUOUS
 62
     7
100
AcDbLine
 10
268.1747591993
 20
53.7705872812
 30
0.0
 11
268.211752941
 21
53.7653082404
 31
0.0
  0
LINE
  5
1DF
330
1F
100
AcDbEntity
  8
0
  6
CONTINUOUS
 62
     7
100
AcDbLine
 10
268.1747591993
 20
53.7705872812
 30
0.0
 11
265.1671777324
 21
53.9255110866
 31
0.0
  0
LINE
  5
1E0
330
1F
100
AcDbEntity
  8
0
  6
CONTINUOUS
 62
     7
100
AcDbLine
 10
268.7941337989
 20
173.8592475355
 30
0.0
 11
268.7941337989
 21
159.9776235007
 31
0.0
  0
LINE
  5
1E1
330
1F
100
AcDbEntity
  8
0
  6
CONTINUOUS
 62
     7
100
AcDbLine
 10
294.8481515959
 20
160.2121972688
 30
0.0
 11
294.8481515959
 21
174.7690738853
 31
0.0
  0
SPLINE
  5
1E2
330
1F
100
AcDbEntity
  8
0
  6
CONTINUOUS
 62
     7
100
AcDbSpline
210
0.0
220
0.0
230
1.0
 70
     8
 71
     3
 72
    40
 73
    36
 74
     0
 42
0.00000001
 43
0.00000001
 40
0.0
 40
0.0
 40
0.0
 40
0.0
 40
0.0059589571857832
 40
0.0374086018849182
 40
0.0686263944746238
 40
0.0999129196279153
 40
0.13141594456488
 40
0.1626572733438144
 40
0.1938322355298363
 40
0.2252339255649038
 40
0.256633254471354
 40
0.2880025211043292
 40
0.3193590069575969
 40
0.3504395851685898
 40
0.3815337388576509
 40
0.4128694546982544
 40
0.4439848011332634
 40
0.4749962014417536
 40
0.5062106637487307
 40
0.5374510684371988
 40
0.5684738485610935
 40
0.5995835331155349
 40
0.6309286399972355
 40
0.6620440210402391
 40
0.693129133592922
 40
0.7244750623698822
 40
0.7557561564925802
 40
0.7868776539142766
 40
0.8181362115620939
 40
0.8496006937140735
 40
0.8808161152523902
 40
0.9120273425257978
 40
0.9435143852644104
 40
0.9748710186762555
 40
1.0
 40
1.0
 40
1.0
 40
1.0
 10
285.0240507851544
 20
16.06371409683077
 30
0.0
 10
285.0230159517483
 20
16.06362459037697
 30
0.0
 10
285.0165195682874
 20
16.06306269486535
 30
0.0
 10
285.0463081597443
 20
16.06564610692171
 30
0.0
 10
285.1152861742888
 20
16.07153518969534
 30
0.0
 10
285.2297683686109
 20
16.08102671430744
 30
0.0
 10
285.3840516373538
 20
16.09324462603132
 30
0.0
 10
285.5776763642992
 20
16.10765198076874
 30
0.0
 10
285.8082228074021
 20
16.12346354004265
 30
0.0
 10
286.0743955158458
 20
16.13989995914328
 30
0.0
 10
286.3740189764346
 20
16.15606065827961
 30
0.0
 10
286.703544083144
 20
16.17097061747347
 30
0.0
 10
287.0587556136854
 20
16.18367482301045
 30
0.0
 10
287.4361376355475
 20
16.19334383455256
 30
0.0
 10
287.8329488799006
 20
16.19926680846784
 30
0.0
 10
288.2456631348601
 20
16.20079161342053
 30
0.0
 10
288.6696756027281
 20
16.19743007901323
 30
0.0
 10
289.1005642272625
 20
16.18892058838232
 30
0.0
 10
289.5352346331564
 20
16.17512999795368
 30
0.0
 10
289.9688526902634
 20
16.15615287864478
 30
0.0
 10
290.3966125820211
 20
16.13234557291396
 30
0.0
 10
290.8153525811613
 20
16.104166543822
 30
0.0
 10
291.2209210276978
 20
16.07226819598761
 30
0.0
 10
291.60891471512
 20
16.03752471699721
 30
0.0
 10
291.9759021679546
 20
16.00088384719005
 30
0.0
 10
292.3190145455409
 20
15.96330299508908
 30
0.0
 10
292.6344449250523
 20
15.92592496229903
 30
0.0
 10
292.9189759776324
 20
15.88989891609766
 30
0.0
 10
293.1707657511826
 20
15.85619688594697
 30
0.0
 10
293.3869433061667
 20
15.8258942708886
 30
0.0
 10
293.5649899380682
 20
15.7999941140101
 30
0.0
 10
293.7039143604912
 20
15.77919426699292
 30
0.0
 10
293.8006679850546
 20
15.76440460637921
 30
0.0
 10
293.8561495479805
 20
15.75580682794184
 30
0.0
 10
293.8591064820936
 20
15.75534570318475
 30
0.0
 10
293.8604219451978
 20
15.75514056076995
 30
0.0
  0
LINE
  5
1E3
330
1F
100
AcDbEntity
  8
0
  6
CONTINUOUS
 62
     7
100
AcDbLine
 10
268.7941337989
 20
30.5116985772
 30
0.0
 11
268.7941337989
 21
16.6300747583
 31
0.0
  0
LINE
  5
1E4
330
1F
100
AcDbEntity
  8
0
  6
CONTINUOUS
 62
     7
100
AcDbLine
 10
294.8481515959
 20
15.7202484084
 30
0.0
 11
294.8481515959
 21
30.277125025
 31
0.0
  0
LINE
  5
1E5
330
1F
100
AcDbEntity
  8
0
  6
CONTINUOUS
 62
     7
100
AcDbLine
 10
295.6481515959
 20
159.6043061018
 30
0.0
 11
295.6481515959
 21
173.7690738853
 31
0.0
  0
LINE
  5
1E6
330
1F
100
AcDbEntity
  8
0
  6
CONTINUOUS
 62
     7
100
AcDbLine
 10
295.6481515959
 20
16.7202484084
 30
0.0
 11
295.6481515959
 21
30.8850219091
 31
0.0
  0
SPLINE
  5
1E7
330
1F
100
AcDbEntity
  8
0
  6
CONTINUOUS
 62
     7
100
AcDbSpline
210
0.0
220
0.0
230
1.0
 70
     8
 71
     3
 72
    26
 73
    22
 74
     0
 42
0.00000001
 43
0.00000001
 40
0.0
 40
0.0
 40
0.0
 40
0.0
 40
0.0095475566760996
 40
0.0658741640213813
 40
0.1221445401046277
 40
0.1804039467782408
 40
0.2387257688391298
 40
0.2970685141416664
 40
0.3553903358879762
 40
0.4136497422974661
 40
0.4699201167975516
 40
0.5262467236519078
 40
0.5825921734573501
 40
0.6389187791726982
 40
0.6951891527165319
 40
0.7534486166533975
 40
0.8117704991195973
 40
0.8701133052387207
 40
0.9284351861585378
 40
0.9866946487970472
 40
1.0
 40
1.0
 40
1.0
 40
1.0
 10
255.7525285558435
 20
54.07319818191029
 30
0.0
 10
255.7512528150607
 20
54.07322176342372
 30
0.0
 10
255.7424507350704
 20
54.07338446604343
 30
0.0
 10
255.7811325775961
 20
54.07266570344269
 30
0.0
 10
255.8731649637119
 20
54.07096112949765
 30
0.0
 10
256.0314110798741
 20
54.068023966979
 30
0.0
 10
256.2509099962224
 20
54.06393361431968
 30
0.0
 10
256.5312102510101
 20
54.05869857724969
 30
0.0
 10
256.8712109577691
 20
54.05233698940017
 30
0.0
 10
257.2661495368771
 20
54.04493276407099
 30
0.0
 10
257.7136634521562
 20
54.03653927447547
 30
0.0
 10
258.210664091967
 20
54.02721657675884
 30
0.0
 10
258.7615114189053
 20
54.0168709147917
 30
0.0
 10
259.3651114475734
 20
54.00551409039311
 30
0.0
 10
260.0284500149039
 20
53.99300649310258
 30
0.0
 10
260.7535021401027
 20
53.9792942285383
 30
0.0
 10
261.5413594227894
 20
53.96433811460975
 30
0.0
 10
262.3821975509873
 20
53.94831470300259
 30
0.0
 10
263.2746687537713
 20
53.93123708024373
 30
0.0
 10
263.9738894895769
 20
53.91780185773055
 30
0.0
 10
264.3728125803864
 20
53.91011329323089
 30
0.0
 10
264.4469804785653
 20
53.90868383306152
 30
0.0
  0
POLYLINE
  5
1E8
330
1F
100
AcDbEntity
  8
0
  6
CONTINUOUS
 62
     7
100
AcDb2dPolyline
 66
     1
 10
0.0
 20
0.0
 30
0.0
 70
   128
  0
VERTEX
  5
3BE
330
1E8
100
AcDbEntity
  8
0
  6
CONTINUOUS
 62
     7
100
AcDbVertex
100
AcDb2dVertex
 10
264.4469804786
 20
53.9086838331
 30
0.0
  0
VERTEX
  5
3BF
330
1E8
100
AcDbEntity
  8
0
  6
CONTINUOUS
 62
     7
100
AcDbVertex
100
AcDb2dVertex
 10
265.7181070415
 20
53.8437211082
 30
0.0
  0
VERTEX
  5
3C0
330
1E8
100
AcDbEntity
  8
0
  6
CONTINUOUS
 62
     7
100
AcDbVertex
100
AcDb2dVertex
 10
266.9892339229
 20
53.7787646328
 30
0.0
  0
VERTEX
  5
3C1
330
1E8
100
AcDbEntity
  8
0
  6
CONTINUOUS
 62
     7
100
AcDbVertex
100
AcDb2dVertex
 10
268.2042278521
 20
53.7166826472
 30
0.0
  0
SEQEND
  5
3F7
330
1E8
100
AcDbEntity
  8
0
  6
CONTINUOUS
 62
     7
  0
SPLINE
  5
1E9
330
1F
100
AcDbEntity
  8
0
  6
CONTINUOUS
 62
     7
100
AcDbSpline
210
0.0
220
0.0
230
1.0
 70
     8
 71
     3
 72
    27
 73
    23
 74
     0
 42
0.00000001
 43
0.00000001
 40
0.0
 40
0.0
 40
0.0
 40
0.0
 40
0.0516945399132018
 40
0.1034319538381512
 40
0.1551837233398901
 40
0.2069211395687392
 40
0.258615681415847
 40
0.3118109845888619
 40
0.3650530132637433
 40
0.4183106881946854
 40
0.4715527138810341
 40
0.5247480145453363
 40
0.5764425882753974
 40
0.6281800438771901
 40
0.6799318552166779
 40
0.7316693085194056
 40
0.7833638803196191
 40
0.8365594794556801
 40
0.8898018106448482
 40
0.9430597918564493
 40
0.9963021230221962
 40
1.0
 40
1.0
 40
1.0
 40
1.0
 10
262.8707053322896
 20
54.01448136137535
 30
0.0
 10
262.5777093626028
 20
54.01957479528891
 30
0.0
 10
261.9914744205317
 20
54.02976588746828
 30
0.0
 10
261.1630990213103
 20
54.04395815299814
 30
0.0
 10
260.3729655319671
 20
54.05742347335207
 30
0.0
 10
259.6260033955144
 20
54.07012030316191
 30
0.0
 10
258.9154132903763
 20
54.08226162739795
 30
0.0
 10
258.2437349361065
 20
54.09379354676346
 30
0.0
 10
257.6127038524236
 20
54.10460974776938
 30
0.0
 10
257.0294006546772
 20
54.11461502137017
 30
0.0
 10
256.4948405330839
 20
54.12378980023405
 30
0.0
 10
256.0143726518305
 20
54.13204912571781
 30
0.0
 10
255.5870482764967
 20
54.13940798286494
 30
0.0
 10
255.2112640627128
 20
54.14588477217397
 30
0.0
 10
254.8832669672406
 20
54.15154097589378
 30
0.0
 10
254.603634656072
 20
54.1563621753002
 30
0.0
 10
254.3704316731297
 20
54.16037696064173
 30
0.0
 10
254.1863190849992
 20
54.16353678671737
 30
0.0
 10
254.0508963454936
 20
54.16585440096053
 30
0.0
 10
253.9732633519096
 20
54.16717911100687
 30
0.0
 10
253.9408697466011
 20
54.16772910747805
 30
0.0
 10
253.9494018864758
 20
54.1675836744846
 30
0.0
 10
253.9499559905902
 20
54.16757422960662
 30
0.0
  0
SPLINE
  5
1EA
330
1F
100
AcDbEntity
  8
0
  6
CONTINUOUS
 62
     7
100
AcDbSpline
210
0.0
220
0.0
230
1.0
 70
     8
 71
     3
 72
    12
 73
     8
 74
     0
 42
0.00000001
 43
0.00000001
 40
0.0
 40
0.0
 40
0.0
 40
0.0
 40
0.2499999999999983
 40
0.2499999999999983
 40
0.4999999999999966
 40
0.4999999999999966
 40
1.0
 40
1.0
 40
1.0
 40
1.0
 10
265.1671777323593
 20
53.92551108662853
 30
0.0
 10
264.9423786959763
 20
53.9370907304548
 30
0.0
 10
264.722660203789
 20
53.94775395190925
 30
0.0
 10
264.2930113277843
 20
53.9673148277563
 30
0.0
 10
264.0811820203793
 20
53.97627362035288
 30
0.0
 10
263.4899145618166
 20
53.99919058268494
 30
0.0
 10
263.1407456881547
 20
54.00976778943046
 30
0.0
 10
262.8707053322896
 20
54.01448136137535
 30
0.0
  0
LINE
  5
1EB
330
1F
100
AcDbEntity
  8
0
  6
CONTINUOUS
 62
     7
100
AcDbLine
 10
268.2042278525
 20
159.4191869249
 30
0.0
 11
268.2042800339
 21
159.4163777713
 31
0.0
  0
LINE
  5
1EC
330
1F
100
AcDbEntity
  8
0
  6
CONTINUOUS
 62
     7
100
AcDbLine
 10
254.0297697337
 20
83.3212156778
 30
0.0
 11
253.9481515959
 21
83.314075016
 31
0.0
  0
SPLINE
  5
1ED
330
1F
100
AcDbEntity
  8
0
  6
CONTINUOUS
 62
     7
100
AcDbSpline
210
0.0
220
0.0
230
1.0
 70
     8
 71
     3
 72
    22
 73
    18
 74
     0
 42
0.00000001
 43
0.00000001
 40
0.0
 40
0.0
 40
0.0
 40
0.0
 40
0.1249999999999999
 40
0.1249999999999999
 40
0.2499999999999999
 40
0.2499999999999999
 40
0.3749999999999998
 40
0.3749999999999998
 40
0.4999999999999998
 40
0.4999999999999998
 40
0.6249999999999998
 40
0.6249999999999998
 40
0.7499999999999997
 40
0.7499999999999997
 40
0.8749999999999998
 40
0.8749999999999998
 40
1.0
 40
1.0
 40
1.0
 40
1.0
 10
254.3931727337001
 20
86.94481716117595
 30
0.0
 10
254.3931727337001
 20
86.70599561618275
 30
0.0
 10
254.3898429810445
 20
86.47118876443879
 30
0.0
 10
254.3770158639661
 20
86.00926471820216
 30
0.0
 10
254.3673658841421
 20
85.7797556084156
 30
0.0
 10
254.3428847869496
 20
85.34216814318765
 30
0.0
 10
254.3281737666127
 20
85.13461480056917
 30
0.0
 10
254.2947718472996
 20
84.74170920349297
 30
0.0
 10
254.2759364151813
 20
84.55568848982684
 30
0.0
 10
254.2368687593639
 20
84.22193985910172
 30
0.0
 10
254.2164761486892
 20
84.07200416146176
 30
0.0
 10
254.1750101073758
 20
83.80679547823858
 30
0.0
 10
254.1542576543168
 20
83.69385038841106
 30
0.0
 10
254.1146538677009
 20
83.51194675674027
 30
0.0
 10
254.0955178956388
 20
83.4416097507966
 30
0.0
 10
254.0600315433828
 20
83.3465608036441
 30
0.0
 10
254.0440088779993
 20
83.32246144145317
 30
0.0
 10
254.0297697337433
 20
83.32121567775245
 30
0.0
  0
LINE
  5
1EE
330
1F
100
AcDbEntity
  8
0
  6
CONTINUOUS
 62
     7
100
AcDbLine
 10
254.3931727337
 20
134.9446611469
 30
0.0
 11
254.3931727337
 21
86.9448171612
 31
0.0
  0
SPLINE
  5
1EF
330
1F
100
AcDbEntity
  8
0
  6
CONTINUOUS
 62
     7
100
AcDbSpline
210
0.0
220
0.0
230
1.0
 70
     8
 71
     3
 72
    22
 73
    18
 74
     0
 42
0.00000001
 43
0.00000001
 40
0.0
 40
0.0
 40
0.0
 40
0.0
 40
0.125
 40
0.125
 40
0.25
 40
0.25
 40
0.375
 40
0.375
 40
0.5
 40
0.5
 40
0.625
 40
0.625
 40
0.75
 40
0.75
 40
0.875
 40
0.875
 40
1.0
 40
1.0
 40
1.0
 40
1.0
 10
254.0946636468515
 20
138.4446611468779
 30
0.0
 10
254.1100892944983
 20
138.3935169671924
 30
0.0
 10
254.1266286931226
 20
138.3257835918975
 30
0.0
 10
254.1601880845712
 20
138.1627590561535
 30
0.0
 10
254.1773160634641
 20
138.0672721192801
 30
0.0
 10
254.2117354150755
 20
137.8484119442474
 30
0.0
 10
254.2291591322215
 20
137.7238078805414
 30
0.0
 10
254.2624132592563
 20
137.4542173239447
 30
0.0
 10
254.2783496743934
 20
137.3087848219831
 30
0.0
 10
254.308219665997
 20
136.9967268265498
 30
0.0
 10
254.322257044761
 20
136.8284275831751
 30
0.0
 10
254.3468292020297
 20
136.4802258922374
 30
0.0
 10
254.3574379803321
 20
136.3000092625034
 30
0.0
 10
254.3748656030848
 20
135.9274436943846
 30
0.0
 10
254.3817124335835
 20
135.7335386332827
 30
0.0
 10
254.3908462822627
 20
135.3417847370129
 30
0.0
 10
254.3931727337001
 20
135.1441263859968
 30
0.0
 10
254.3931727337001
 20
134.9446611468768
 30
0.0
  0
SPLINE
  5
1F0
330
1F
100
AcDbEntity
  8
0
  6
CONTINUOUS
 62
     7
100
AcDbSpline
210
0.0
220
0.0
230
1.0
 70
    24
 71
     3
 72
    12
 73
     8
 74
     0
 42
0.00000001
 43
0.00000001
 40
0.0
 40
0.0
 40
0.0
 40
0.0
 40
0.2469003832532119
 40
0.4939773709564521
 40
0.741042552903992
 40
0.9879268257434913
 40
1.0
 40
1.0
 40
1.0
 40
1.0
 10
301.031308456737
 20
170.4819823062651
 30
0.0
 10
301.0942308729433
 20
170.4841796054573
 30
0.0
 10
301.2201207128953
 20
170.4885757755396
 30
0.0
 10
301.348540436594
 20
170.4930602911091
 30
0.0
 10
301.4243661254272
 20
170.4957081825103
 30
0.0
 10
301.4560131885681
 20
170.4968133223075
 30
0.0
 10
301.4471944980421
 20
170.4965053668483
 30
0.0
 10
301.4467833510037
 20
170.4964910092773
 30
0.0
  0
SPLINE
  5
1F1
330
1F
100
AcDbEntity
  8
0
  6
CONTINUOUS
 62
     7
100
AcDbSpline
210
0.0
220
0.0
230
1.0
 70
     8
 71
     3
 72
     8
 73
     4
 74
     0
 42
0.00000001
 43
0.00000001
 40
0.000000280327229
 40
0.000000280327229
 40
0.000000280327229
 40
0.000000280327229
 40
0.0057229504518291
 40
0.0057229504518291
 40
0.0057229504518291
 40
0.0057229504518291
 10
301.031308456737
 20
170.4819823062651
 30
0.0
 10
302.3671283460108
 20
169.1210334476658
 30
0.0
 10
303.7013846323032
 20
167.758544224337
 30
0.0
 10
305.0333107200065
 20
166.3937797257691
 30
0.0
  0
SPLINE
  5
1F2
330
1F
100
AcDbEntity
  8
0
  6
CONTINUOUS
 62
     7
100
AcDbSpline
210
0.0
220
0.0
230
1.0
 70
    24
 71
     3
 72
    12
 73
     8
 74
     0
 42
0.00000001
 43
0.00000001
 40
0.0
 40
0.0
 40
0.0
 40
0.0
 40
0.2599795881086223
 40
0.5201044841894721
 40
0.7800577637242063
 40
0.9796309553537653
 40
0.9999999999999999
 40
0.9999999999999999
 40
0.9999999999999999
 40
0.9999999999999999
 10
305.0333107200065
 20
166.3937797257691
 30
0.0
 10
305.1178125956244
 20
166.390828855249
 30
0.0
 10
305.2868635767073
 20
166.3849254649063
 30
0.0
 10
305.4558319352441
 20
166.3790249598064
 30
0.0
 10
305.5442202922309
 20
166.3759383703663
 30
0.0
 10
305.5750201260611
 20
166.3748628164687
 30
0.0
 10
305.5679157175019
 20
166.3751109078824
 30
0.0
 10
305.5672577719541
 20
166.3751338838472
 30
0.0
  0
LINE
  5
1F3
330
1F
100
AcDbEntity
  8
0
  6
CONTINUOUS
 62
     7
100
AcDbLine
 10
309.6581515959
 20
152.1340226168
 30
0.0
 11
309.6581515959
 21
38.355299677
 31
0.0
  0
SPLINE
  5
1F4
330
1F
100
AcDbEntity
  8
0
  6
CONTINUOUS
 62
     7
100
AcDbSpline
210
0.0
220
0.0
230
1.0
 70
    24
 71
     3
 72
    19
 73
    15
 74
     0
 42
0.00000001
 43
0.00000001
 40
0.0
 40
0.0
 40
0.0
 40
0.0
 40
0.0856169367317916
 40
0.1699694208006824
 40
0.2532998293102717
 40
0.3358595416201019
 40
0.4179070212371827
 40
0.4997055874035491
 40
0.5815209627480216
 40
0.6636187066827051
 40
0.7462616566306632
 40
0.8297074983099139
 40
0.9142065723376519
 40
1.0
 40
1.0
 40
1.0
 40
1.0
 10
309.6581515958891
 20
154.3768487488634
 30
0.0
 10
309.6581515958891
 20
154.3232136863964
 30
0.0
 10
309.6581515958891
 20
154.216735682743
 30
0.0
 10
309.6581515958891
 20
154.0492952111953
 30
0.0
 10
309.6581515958891
 20
153.8778690567214
 30
0.0
 10
309.6581515958891
 20
153.7018289421451
 30
0.0
 10
309.6581515958891
 20
153.5213446275449
 30
0.0
 10
309.6581515958891
 20
153.3363768132187
 30
0.0
 10
309.6581515958891
 20
153.1469431191673
 30
0.0
 10
309.6581515958891
 20
152.9530455045625
 30
0.0
 10
309.6581515958891
 20
152.7546952427712
 30
0.0
 10
309.6581515958891
 20
152.5518825766246
 30
0.0
 10
309.6581515958891
 20
152.3446721820751
 30
0.0
 10
309.6581515958891
 20
152.2046433467626
 30
0.0
 10
309.6581515958891
 20
152.134096765828
 30
0.0
  0
SPLINE
  5
1F5
330
1F
100
AcDbEntity
  8
0
  6
CONTINUOUS
 62
     7
100
AcDbSpline
210
0.0
220
0.0
230
1.0
 70
    24
 71
     3
 72
    19
 73
    15
 74
     0
 42
0.00000001
 43
0.00000001
 40
0.0
 40
0.0
 40
0.0
 40
0.0
 40
0.0857934258895772
 40
0.1702924984760743
 40
0.2537383390494849
 40
0.3363812882281366
 40
0.4184790317282147
 40
0.5002944069677475
 40
0.5820929733505484
 40
0.6641404534940467
 40
0.7467001666259964
 40
0.8300305762366685
 40
0.9143830616668698
 40
1.0
 40
1.0
 40
1.0
 40
1.0
 10
309.6581515958891
 20
38.35522552794156
 30
0.0
 10
309.6581515958891
 20
38.28467894850795
 30
0.0
 10
309.6581515958891
 20
38.14465011592409
 30
0.0
 10
309.6581515958891
 20
37.93743972505583
 30
0.0
 10
309.6581515958891
 20
37.73462706177708
 30
0.0
 10
309.6581515958891
 20
37.53627680204038
 30
0.0
 10
309.6581515958891
 20
37.3423791886769
 30
0.0
 10
309.6581515958891
 20
37.15294549505307
 30
0.0
 10
309.6581515958891
 20
36.96797768034016
 30
0.0
 10
309.6581515958891
 20
36.78749336453708
 30
0.0
 10
309.6581515958891
 20
36.61145324794344
 30
0.0
 10
309.6581515958891
 20
36.44002709062542
 30
0.0
 10
309.6581515958891
 20
36.27258661544408
 30
0.0
 10
309.6581515958891
 20
36.16610860890042
 30
0.0
 10
309.6581515958891
 20
36.11247354490928
 30
0.0
  0
LINE
  5
1F6
330
1F
100
AcDbEntity
  8
0
  6
CONTINUOUS
 62
     7
100
AcDbLine
 10
309.6581515959
 20
161.3122537813
 30
0.0
 11
309.6581515959
 21
154.3769350483
 31
0.0
  0
LINE
  5
1F7
330
1F
100
AcDbEntity
  8
0
  6
CONTINUOUS
 62
     7
100
AcDbLine
 10
309.6581515959
 20
36.1123872463
 30
0.0
 11
309.6581515959
 21
29.1770685125
 31
0.0
  0
LINE
  5
1F8
330
1F
100
AcDbEntity
  8
0
  6
CONTINUOUS
 62
     8
100
AcDbLine
 10
254.348153283
 20
86.9448171612
 30
0.0
 11
254.3931727337
 21
86.9448171612
 31
0.0
  0
LINE
  5
1F9
330
1F
100
AcDbEntity
  8
0
  6
CONTINUOUS
 62
     8
100
AcDbLine
 10
254.3931727337
 20
134.9446611469
 30
0.0
 11
254.348153283
 21
134.9446611469
 31
0.0
  0
LINE
  5
1FA
330
1F
100
AcDbEntity
  8
0
  6
CONTINUOUS
 62
     8
100
AcDbLine
 10
264.9543684456
 20
53.8827266926
 30
0.0
 11
264.9543460502
 21
53.8446611469
 31
0.0
  0
ARC
  5
1FB
330
1F
100
AcDbEntity
  8
0
  6
CONTINUOUS
 62
     8
100
AcDbCircle
 10
297.2961436901
 20
52.8437714277
 30
0.0
 40
32.3417976521864
100
AcDbArc
 50
179.9984237997
 51
205.9056768003
  0
LINE
  5
1FC
330
1F
100
AcDbEntity
  8
0
  6
CONTINUOUS
 62
     8
100
AcDbLine
 10
264.9543460502
 20
53.8446611469
 30
0.0
 11
264.9543460502
 21
52.8446611469
 31
0.0
  0
LINE
  5
1FD
330
1F
100
AcDbEntity
  8
0
  6
CONTINUOUS
 62
     8
100
AcDbLine
 10
264.1999321362
 20
53.8446611469
 30
0.0
 11
264.2000035339
 21
53.9134377746
 31
0.0
  0
LINE
  5
1FE
330
1F
100
AcDbEntity
  8
0
  6
CONTINUOUS
 62
     8
100
AcDbLine
 10
264.1999321362
 20
53.8446611469
 30
0.0
 11
264.9543460502
 21
53.8446611469
 31
0.0
  0
ARC
  5
1FF
330
1F
100
AcDbEntity
  8
0
  6
CONTINUOUS
 62
     8
100
AcDbCircle
 10
297.3159637712
 20
52.8435498876
 30
0.0
 40
33.11603165362598
100
AcDbArc
 50
179.9980773521
 51
208.4680731125
  0
LINE
  5
200
330
1F
100
AcDbEntity
  8
0
  6
CONTINUOUS
 62
     8
100
AcDbLine
 10
264.1999321362
 20
52.8446611469
 30
0.0
 11
264.9543460502
 21
52.8446611469
 31
0.0
  0
LINE
  5
201
330
1F
100
AcDbEntity
  8
0
  6
CONTINUOUS
 62
     8
100
AcDbLine
 10
255.9481515959
 20
53.8446611469
 30
0.0
 11
264.1999321362
 21
53.8446611469
 31
0.0
  0
LINE
  5
202
330
1F
100
AcDbEntity
  8
0
  6
CONTINUOUS
 62
     8
100
AcDbLine
 10
264.1999321362
 20
52.8446611469
 30
0.0
 11
264.1999321362
 21
53.8446611469
 31
0.0
  0
LINE
  5
203
330
1F
100
AcDbEntity
  8
0
  6
CONTINUOUS
 62
     8
100
AcDbLine
 10
255.9481515959
 20
52.8446611469
 30
0.0
 11
264.1999321362
 21
52.8446611469
 31
0.0
  0
SPLINE
  5
204
330
1F
100
AcDbEntity
  8
0
  6
CONTINUOUS
 62
     8
100
AcDbSpline
210
0.0
220
0.0
230
1.0
 70
     8
 71
     3
 72
    22
 73
    18
 74
     0
 42
0.00000001
 43
0.00000001
 40
0.0
 40
0.0
 40
0.0
 40
0.0
 40
0.0738460324960916
 40
0.1476920649921837
 40
0.222051045332747
 40
0.2964100256733112
 40
0.3723868454758373
 40
0.4483636652783636
 40
0.524899529381478
 40
0.6014353934845923
 40
0.678326799851524
 40
0.7552182062184558
 40
0.8326161141727865
 40
0.9101603717314635
 40
0.9527453951661592
 40
0.9953304186008551
 40
1.0
 40
1.0
 40
1.0
 40
1.0
 10
262.8707053322896
 20
138.444661146877
 30
0.0
 10
262.8764594531963
 20
138.9254509013518
 30
0.0
 10
262.8879676950096
 20
139.8870304103014
 30
0.0
 10
262.9810550654025
 20
141.3302614912621
 30
0.0
 10
263.1301207307128
 20
142.7718379756158
 30
0.0
 10
263.3422226779426
 20
144.2196411355216
 30
0.0
 10
263.61686173825
 20
145.6675793602734
 30
0.0
 10
263.9561382639351
 20
147.1163108537204
 30
0.0
 10
264.3580628865042
 20
148.5526905581506
 30
0.0
 10
264.8229940110543
 20
149.9761765644056
 30
0.0
 10
265.3496075066244
 20
151.3804609510505
 30
0.0
 10
265.9382933605447
 20
152.7659663885844
 30
0.0
 10
266.5884835346417
 20
154.128319595152
 30
0.0
 10
267.1914312356985
 20
155.2645327969156
 30
0.0
 10
267.7213821222286
 20
156.1815680662522
 30
0.0
 10
268.0215915814035
 20
156.6835968248656
 30
0.0
 10
268.1878527950055
 20
156.9423760600792
 30
0.0
 10
268.2042823106721
 20
156.9679479743399
 30
0.0
  0
LINE
  5
205
330
1F
100
AcDbEntity
  8
0
  6
CONTINUOUS
 62
     8
100
AcDbLine
 10
254.0946636469
 20
138.4446611469
 30
0.0
 11
262.8707053323
 21
138.4446611469
 31
0.0
  0
LINE
  5
206
330
1F
100
AcDbEntity
  8
0
  6
CONTINUOUS
 62
     8
100
AcDbLine
 10
268.976068776
 20
159.9714601031
 30
0.0
 11
268.7941371909
 21
159.9697577737
 31
0.0
  0
LINE
  5
207
330
1F
100
AcDbEntity
  8
0
  6
CONTINUOUS
 62
     8
100
AcDbLine
 10
268.976068776
 20
159.9714601029
 30
0.0
 11
272.1764342801
 21
160.0013839741
 31
0.0
  0
LINE
  5
208
330
1F
100
AcDbEntity
  8
0
  6
CONTINUOUS
 62
     8
100
AcDbLine
 10
272.1764342798
 20
160.0013839587
 30
0.0
 11
294.8481515959
 21
160.2121972688
 31
0.0
  0
POLYLINE
  5
209
330
1F
100
AcDbEntity
  8
0
  6
CONTINUOUS
 62
     8
100
AcDb2dPolyline
 66
     1
 10
0.0
 20
0.0
 30
0.0
 70
   128
  0
VERTEX
  5
3C2
330
209
100
AcDbEntity
  8
0
  6
CONTINUOUS
 62
     8
100
AcDbVertex
100
AcDb2dVertex
 10
294.8481515959
 20
155.352044733
 30
0.0
  0
VERTEX
  5
3C3
330
209
100
AcDbEntity
  8
0
  6
CONTINUOUS
 62
     8
100
AcDbVertex
100
AcDb2dVertex
 10
284.6549316342
 20
155.2310187132
 30
0.0
  0
VERTEX
  5
3C4
330
209
100
AcDbEntity
  8
0
  6
CONTINUOUS
 62
     8
100
AcDbVertex
100
AcDb2dVertex
 10
268.794136442
 20
155.0410262378
 30
0.0
  0
SEQEND
  5
3F8
330
209
100
AcDbEntity
  8
0
  6
CONTINUOUS
 62
     8
  0
LINE
  5
20A
330
1F
100
AcDbEntity
  8
0
  6
CONTINUOUS
 62
     8
100
AcDbLine
 10
272.1764342801
 20
30.4879383196
 30
0.0
 11
268.976068776
 21
30.5178621906
 31
0.0
  0
LINE
  5
20B
330
1F
100
AcDbEntity
  8
0
  6
CONTINUOUS
 62
     8
100
AcDbLine
 10
268.976068776
 20
30.5178621906
 30
0.0
 11
268.7941371909
 21
30.5195645201
 31
0.0
  0
POLYLINE
  5
20C
330
1F
100
AcDbEntity
  8
0
  6
CONTINUOUS
 62
     8
100
AcDb2dPolyline
 66
     1
 10
0.0
 20
0.0
 30
0.0
 70
   128
  0
VERTEX
  5
3C5
330
20C
100
AcDbEntity
  8
0
  6
CONTINUOUS
 62
     8
100
AcDbVertex
100
AcDb2dVertex
 10
268.794136442
 20
35.4482960559
 30
0.0
  0
VERTEX
  5
3C6
330
20C
100
AcDbEntity
  8
0
  6
CONTINUOUS
 62
     8
100
AcDbVertex
100
AcDb2dVertex
 10
276.9238562493
 20
35.3506544236
 30
0.0
  0
VERTEX
  5
3C7
330
20C
100
AcDbEntity
  8
0
  6
CONTINUOUS
 62
     8
100
AcDbVertex
100
AcDb2dVertex
 10
284.6549315306
 20
35.2583035818
 30
0.0
  0
VERTEX
  5
3C8
330
20C
100
AcDbEntity
  8
0
  6
CONTINUOUS
 62
     8
100
AcDbVertex
100
AcDb2dVertex
 10
294.8481515959
 20
35.1372775607
 30
0.0
  0
SEQEND
  5
3F9
330
20C
100
AcDbEntity
  8
0
  6
CONTINUOUS
 62
     8
  0
LINE
  5
20D
330
1F
100
AcDbEntity
  8
0
  6
CONTINUOUS
 62
     8
100
AcDbLine
 10
294.8481515959
 20
30.277125025
 30
0.0
 11
272.1764342798
 21
30.487938335
 31
0.0
  0
LINE
  5
20E
330
1F
100
AcDbEntity
  8
0
  6
CONTINUOUS
 62
     8
100
AcDbLine
 10
295.6481515959
 20
30.8850219091
 30
0.0
 11
294.8481515959
 21
30.3987029003
 31
0.0
  0
LINE
  5
20F
330
1F
100
AcDbEntity
  8
0
  6
CONTINUOUS
 62
     8
100
AcDbLine
 10
295.6481515959
 20
35.1372752561
 30
0.0
 11
294.8481515959
 21
35.1372752561
 31
0.0
  0
LINE
  5
210
330
1F
100
AcDbEntity
  8
0
  6
CONTINUOUS
 62
     8
100
AcDbLine
 10
295.6481515959
 20
155.352054188
 30
0.0
 11
294.8481515959
 21
155.352044733
 31
0.0
  0
LINE
  5
211
330
1F
100
AcDbEntity
  8
0
  6
CONTINUOUS
 62
     8
100
AcDbLine
 10
295.6481515959
 20
159.6043061018
 30
0.0
 11
294.8481515959
 21
160.0906175635
 31
0.0
  0
LINE
  5
212
330
1F
100
AcDbEntity
  8
0
  6
CONTINUOUS
 62
     8
100
AcDbLine
 10
268.2403974432
 20
35.4560781419
 30
0.0
 11
268.2403974663
 21
35.4549929012
 31
0.0
  0
LINE
  5
213
330
1F
100
AcDbEntity
  8
0
  6
CONTINUOUS
 62
     8
100
AcDbLine
 10
268.7941337989
 20
35.4560781419
 30
0.0
 11
268.2403974432
 21
35.4560781419
 31
0.0
  0
LINE
  5
214
330
1F
100
AcDbEntity
  8
0
  6
CONTINUOUS
 62
     8
100
AcDbLine
 10
268.7941337989
 20
30.5116985772
 30
0.0
 11
268.2403976159
 21
30.9993906142
 31
0.0
  0
LINE
  5
215
330
1F
100
AcDbEntity
  8
0
  6
CONTINUOUS
 62
     8
100
AcDbLine
 10
268.2403974702
 20
31.0004231044
 30
0.0
 11
268.2403976159
 21
30.9993906142
 31
0.0
  0
SPLINE
  5
216
330
1F
100
AcDbEntity
  8
0
  6
CONTINUOUS
 62
     8
100
AcDbSpline
210
0.0
220
0.0
230
1.0
 70
     8
 71
     3
 72
    14
 73
    10
 74
     0
 42
0.00000001
 43
0.00000001
 40
0.0
 40
0.0
 40
0.0
 40
0.0
 40
0.25
 40
0.25
 40
0.5
 40
0.5
 40
0.75
 40
0.75
 40
1.0
 40
1.0
 40
1.0
 40
1.0
 10
268.2403971281005
 20
35.45499290117438
 30
0.0
 10
268.2404161302581
 20
35.0519420259569
 30
0.0
 10
268.2404350043858
 20
34.65037498800238
 30
0.0
 10
268.2404502819651
 20
33.8656994429419
 30
0.0
 10
268.2404581575575
 20
33.48040274704826
 30
0.0
 10
268.2404448547265
 20
32.72412575106709
 30
0.0
 10
268.240429579542
 20
32.35352932445171
 30
0.0
 10
268.2404195865531
 20
31.65201438670821
 30
0.0
 10
268.2404160313941
 20
31.31773768437872
 30
0.0
 10
268.2403974702465
 20
31.00042310441664
 30
0.0
  0
LINE
  5
217
330
1F
100
AcDbEntity
  8
0
  6
CONTINUOUS
 62
     8
100
AcDbLine
 10
268.2403974432
 20
159.4899388795
 30
0.0
 11
268.240397472
 21
159.4888690621
 31
0.0
  0
LINE
  5
218
330
1F
100
AcDbEntity
  8
0
  6
CONTINUOUS
 62
     8
100
AcDbLine
 10
268.7941337989
 20
159.9776235007
 30
0.0
 11
268.2403974432
 21
159.4899388795
 31
0.0
  0
LINE
  5
219
330
1F
100
AcDbEntity
  8
0
  6
CONTINUOUS
 62
     8
100
AcDbLine
 10
268.7941337989
 20
155.0332438777
 30
0.0
 11
268.2403974432
 21
155.0332534913
 31
0.0
  0
LINE
  5
21A
330
1F
100
AcDbEntity
  8
0
  6
CONTINUOUS
 62
     8
100
AcDbLine
 10
268.2403974663
 20
155.0343289191
 30
0.0
 11
268.2403974432
 21
155.0332534913
 31
0.0
  0
SPLINE
  5
21B
330
1F
100
AcDbEntity
  8
0
  6
CONTINUOUS
 62
     8
100
AcDbSpline
210
0.0
220
0.0
230
1.0
 70
     8
 71
     3
 72
    14
 73
    10
 74
     0
 42
0.00000001
 43
0.00000001
 40
0.0
 40
0.0
 40
0.0
 40
0.0
 40
0.25
 40
0.25
 40
0.5
 40
0.5
 40
0.75
 40
0.75
 40
1.0
 40
1.0
 40
1.0
 40
1.0
 10
268.2403971338265
 20
159.4888687643053
 30
0.0
 10
268.2404161355245
 20
159.1715582105828
 30
0.0
 10
268.2404283937227
 20
158.8344916508593
 30
0.0
 10
268.2404480603288
 20
158.1354500942228
 30
0.0
 10
268.2404543239837
 20
157.7717978892366
 30
0.0
 10
268.2404541281725
 20
157.0157757147238
 30
0.0
 10
268.2404473850953
 20
156.6233046564745
 30
0.0
 10
268.2404279184497
 20
155.8357304246731
 30
0.0
 10
268.240416441145
 20
155.4373779502486
 30
0.0
 10
268.2403974662782
 20
155.0343289191364
 30
0.0
  0
LINE
  5
21C
330
1F
100
AcDbEntity
  8
0
  6
CONTINUOUS
 62
     8
100
AcDbLine
 10
268.2403974432
 20
155.0332534913
 30
0.0
 11
268.2403974432
 21
35.4560781419
 31
0.0
  0
LINE
  5
21D
330
1F
100
AcDbEntity
  8
0
  6
CONTINUOUS
 62
     8
100
AcDbLine
 10
265.1671777324
 20
138.4446611469
 30
0.0
 11
265.1671777324
 21
53.9255110866
 31
0.0
  0
SPLINE
  5
21E
330
1F
100
AcDbEntity
  8
0
  6
CONTINUOUS
 62
     8
100
AcDbSpline
210
0.0
220
0.0
230
1.0
 70
     8
 71
     3
 72
    18
 73
    14
 74
     0
 42
0.00000001
 43
0.00000001
 40
0.0
 40
0.0
 40
0.0
 40
0.0
 40
0.0499588155849403
 40
0.1376878408477065
 40
0.2255453039589554
 40
0.3209241892822671
 40
0.4163855678022515
 40
0.5118469463222359
 40
0.6072258316455478
 40
0.7053744227475
 40
0.8036129158227728
 40
0.9018514088980436
 40
1.0
 40
1.0
 40
1.0
 40
1.0
 10
268.2042278520508
 20
152.1493875050145
 30
0.0
 10
268.1041633044255
 20
151.9360677355585
 30
0.0
 10
267.8283827170232
 20
151.348152707497
 30
0.0
 10
267.4244436376874
 20
150.3636186523795
 30
0.0
 10
266.976954233743
 20
149.1664406369855
 30
0.0
 10
266.5684423704133
 20
147.9166728171421
 30
0.0
 10
266.2018374631351
 20
146.6167436989692
 30
0.0
 10
265.8894775573855
 20
145.302670023596
 30
0.0
 10
265.6295068883979
 20
143.9643291001271
 30
0.0
 10
265.4242597152243
 20
142.6031673488127
 30
0.0
 10
265.2770036648193
 20
141.2210826444898
 30
0.0
 10
265.1844356025672
 20
139.833935433589
 30
0.0
 10
265.1729285998721
 20
138.9076112250491
 30
0.0
 10
265.1671777323594
 20
138.444661146877
 30
0.0
  0
LINE
  5
21F
330
1F
100
AcDbEntity
  8
0
  6
CONTINUOUS
 62
     8
100
AcDbLine
 10
262.8707053323
 20
138.4446611469
 30
0.0
 11
265.1671777324
 21
138.4446611469
 31
0.0
  0
POLYLINE
  5
220
330
1F
100
AcDbEntity
  8
0
  6
CONTINUOUS
 62
     8
100
AcDb2dPolyline
 66
     1
 10
0.0
 20
0.0
 30
0.0
 70
   128
  0
VERTEX
  5
3C9
330
220
100
AcDbEntity
  8
0
  6
CONTINUOUS
 62
     8
100
AcDbVertex
100
AcDb2dVertex
 10
268.2403974663
 20
35.4549929012
 30
0.0
  0
VERTEX
  5
3CA
330
220
100
AcDbEntity
  8
0
  6
CONTINUOUS
 62
     8
100
AcDbVertex
100
AcDb2dVertex
 10
268.2248548669
 20
35.4549939499
 30
0.0
  0
VERTEX
  5
3CB
330
220
100
AcDbEntity
  8
0
  6
CONTINUOUS
 62
     8
100
AcDbVertex
100
AcDb2dVertex
 10
268.2134865793
 20
35.4549953393
 30
0.0
  0
VERTEX
  5
3CC
330
220
100
AcDbEntity
  8
0
  6
CONTINUOUS
 62
     8
100
AcDbVertex
100
AcDb2dVertex
 10
268.2065571625
 20
35.4549970369
 30
0.0
  0
VERTEX
  5
3CD
330
220
100
AcDbEntity
  8
0
  6
CONTINUOUS
 62
     8
100
AcDbVertex
100
AcDb2dVertex
 10
268.2042278758
 20
35.4549990033
 30
0.0
  0
VERTEX
  5
3CE
330
220
100
AcDbEntity
  8
0
  6
CONTINUOUS
 62
     8
100
AcDbVertex
100
AcDb2dVertex
 10
268.20423324
 20
35.4549991046
 30
0.0
  0
SEQEND
  5
3FA
330
220
100
AcDbEntity
  8
0
  6
CONTINUOUS
 62
     8
  0
ARC
  5
221
330
1F
100
AcDbEntity
  8
0
  6
CONTINUOUS
 62
     8
100
AcDbCircle
 10
268.2971550885
 20
31.0740590141
 30
0.0
 40
0.0929713789214116
100
AcDbArc
 50
181.7663676831
 51
232.3755696689
  0
POLYLINE
  5
222
330
1F
100
AcDbEntity
  8
0
  6
CONTINUOUS
 62
     8
100
AcDb2dPolyline
 66
     1
 10
0.0
 20
0.0
 30
0.0
 70
   128
  0
VERTEX
  5
3CF
330
222
100
AcDbEntity
  8
0
  6
CONTINUOUS
 62
     8
100
AcDbVertex
100
AcDb2dVertex
 10
268.2403974663
 20
155.0343289191
 30
0.0
  0
VERTEX
  5
3D0
330
222
100
AcDbEntity
  8
0
  6
CONTINUOUS
 62
     8
100
AcDbVertex
100
AcDb2dVertex
 10
268.2248548669
 20
155.0343278684
 30
0.0
  0
VERTEX
  5
3D1
330
222
100
AcDbEntity
  8
0
  6
CONTINUOUS
 62
     8
100
AcDbVertex
100
AcDb2dVertex
 10
268.2134865793
 20
155.0343264774
 30
0.0
  0
VERTEX
  5
3D2
330
222
100
AcDbEntity
  8
0
  6
CONTINUOUS
 62
     8
100
AcDbVertex
100
AcDb2dVertex
 10
268.2065571625
 20
155.0343247783
 30
0.0
  0
VERTEX
  5
3D3
330
222
100
AcDbEntity
  8
0
  6
CONTINUOUS
 62
     8
100
AcDbVertex
100
AcDb2dVertex
 10
268.2042278758
 20
155.0343228108
 30
0.0
  0
VERTEX
  5
3D4
330
222
100
AcDbEntity
  8
0
  6
CONTINUOUS
 62
     8
100
AcDbVertex
100
AcDb2dVertex
 10
268.2042335206
 20
155.0343227069
 30
0.0
  0
SEQEND
  5
3FB
330
222
100
AcDbEntity
  8
0
  6
CONTINUOUS
 62
     8
  0
ARC
  5
223
330
1F
100
AcDbEntity
  8
0
  6
CONTINUOUS
 62
     8
100
AcDbCircle
 10
268.2971582862
 20
159.4152303141
 30
0.0
 40
0.0929755626048394
100
AcDbArc
 50
127.6250684135
 51
178.2141828975
  0
POLYLINE
  5
224
330
1F
100
AcDbEntity
  8
0
  6
CONTINUOUS
 62
     8
100
AcDb2dPolyline
 66
     1
 10
0.0
 20
0.0
 30
0.0
 70
   128
  0
VERTEX
  5
3D5
330
224
100
AcDbEntity
  8
0
  6
CONTINUOUS
 62
     8
100
AcDbVertex
100
AcDb2dVertex
 10
268.2403974432
 20
35.4560781419
 30
0.0
  0
VERTEX
  5
3D6
330
224
100
AcDbEntity
  8
0
  6
CONTINUOUS
 62
     8
100
AcDbVertex
100
AcDb2dVertex
 10
268.2248548438
 20
35.4560778921
 30
0.0
  0
VERTEX
  5
3D7
330
224
100
AcDbEntity
  8
0
  6
CONTINUOUS
 62
     8
100
AcDbVertex
100
AcDb2dVertex
 10
268.2134865561
 20
35.4560776482
 30
0.0
  0
VERTEX
  5
3D8
330
224
100
AcDbEntity
  8
0
  6
CONTINUOUS
 62
     8
100
AcDbVertex
100
AcDb2dVertex
 10
268.2065571393
 20
35.4560774157
 30
0.0
  0
VERTEX
  5
3D9
330
224
100
AcDbEntity
  8
0
  6
CONTINUOUS
 62
     8
100
AcDbVertex
100
AcDb2dVertex
 10
268.2042278526
 20
35.4560772002
 30
0.0
  0
VERTEX
  5
3DA
330
224
100
AcDbEntity
  8
0
  6
CONTINUOUS
 62
     8
100
AcDbVertex
100
AcDb2dVertex
 10
268.2042278525
 20
35.4560772
 30
0.0
  0
SEQEND
  5
3FC
330
224
100
AcDbEntity
  8
0
  6
CONTINUOUS
 62
     8
  0
LINE
  5
225
330
1F
100
AcDbEntity
  8
0
  6
CONTINUOUS
 62
     8
100
AcDbLine
 10
268.2403974432
 20
155.0332534913
 30
0.0
 11
268.2042278525
 21
155.0332531835
 31
0.0
  0
SPLINE
  5
226
330
1F
100
AcDbEntity
  8
0
  6
CONTINUOUS
 62
     8
100
AcDbSpline
210
0.0
220
0.0
230
1.0
 70
     8
 71
     3
 72
    29
 73
    25
 74
     0
 42
0.00000001
 43
0.00000001
 40
0.0
 40
0.0
 40
0.0
 40
0.0
 40
0.0208836851618535
 40
0.0667397127003695
 40
0.113928471689711
 40
0.1611604848202675
 40
0.2083925114849028
 40
0.2555812889467222
 40
0.3014225474877875
 40
0.3473034301116802
 40
0.3931843194308263
 40
0.4390255871096737
 40
0.4861971019940794
 40
0.5334117940578103
 40
0.58062647919298
 40
0.6277979846207
 40
0.6736370418050678
 40
0.7195157345809
 40
0.7653944170128318
 40
0.8112334600796838
 40
0.8584034877912515
 40
0.9056167233091509
 40
0.9528299645192421
 40
1.0
 40
1.0
 40
1.0
 40
1.0
 10
268.2403911576956
 20
173.0606617412695
 30
0.0
 10
268.2403903967684
 20
173.0623524305973
 30
0.0
 10
268.2403879650111
 20
173.0677555057311
 30
0.0
 10
268.2403713239432
 20
173.0110769286402
 30
0.0
 10
268.2403400000503
 20
172.8908599015346
 30
0.0
 10
268.2403005239973
 20
172.7013982272045
 30
0.0
 10
268.2402574210965
 20
172.4489635973369
 30
0.0
 10
268.240214783681
 20
172.135742257898
 30
0.0
 10
268.24017726637
 20
171.7642099961377
 30
0.0
 10
268.2401475101707
 20
171.3373109359239
 30
0.0
 10
268.2401269498657
 20
170.8524256480235
 30
0.0
 10
268.2401175898146
 20
170.3051782848345
 30
0.0
 10
268.2401219395065
 20
169.69398715493
 30
0.0
 10
268.2401383971736
 20
169.0182814913062
 30
0.0
 10
268.2401648132185
 20
168.2854078383689
 30
0.0
 10
268.2401990798759
 20
167.5042211208412
 30
0.0
 10
268.2402381407188
 20
166.6773565977279
 30
0.0
 10
268.2402778607929
 20
165.8081104106433
 30
0.0
 10
268.240315635835
 20
164.8903951034667
 30
0.0
 10
268.2403489020106
 20
163.9165621620597
 30
0.0
 10
268.2403730658844
 20
162.8863334855397
 30
0.0
 10
268.240388148167
 20
161.7991253224165
 30
0.0
 10
268.2403962415061
 20
160.6707784028374
 30
0.0
 10
268.2403970427317
 20
159.8834319130009
 30
0.0
 10
268.2403974431611
 20
159.4899388794533
 30
0.0
  0
SPLINE
  5
227
330
1F
100
AcDbEntity
  8
0
  6
CONTINUOUS
 62
     8
100
AcDbSpline
210
0.0
220
0.0
230
1.0
 70
     8
 71
     3
 72
    30
 73
    26
 74
     0
 42
0.00000001
 43
0.00000001
 40
0.0
 40
0.0
 40
0.0
 40
0.0
 40
0.0507156941202967
 40
0.1014313943040454
 40
0.1355308113107649
 40
0.1696383746581387
 40
0.2037377923608152
 40
0.2495844938314458
 40
0.2954708443879818
 40
0.3413571907046196
 40
0.3872038863885703
 40
0.4343819129987636
 40
0.4816031568577003
 40
0.5288244006858287
 40
0.5760024272539719
 40
0.6218436962029076
 40
0.6677246025155419
 40
0.7136055120222671
 40
0.7594467853305473
 40
0.8066188503177252
 40
0.8538341130849995
 40
0.9010493651264468
 40
0.9482214154741028
 40
0.9940761486738545
 40
1.0
 40
1.0
 40
1.0
 40
1.0
 10
268.2403976159052
 20
30.99939061423369
 30
0.0
 10
268.2403940112811
 20
30.57659594342542
 30
0.0
 10
268.2403868020324
 20
29.73100655126049
 30
0.0
 10
268.2403695240204
 20
28.65572201245825
 30
0.0
 10
268.2403575960385
 20
27.74331594029991
 30
0.0
 10
268.24034908347
 20
26.98281333765895
 30
0.0
 10
268.2403423429362
 20
26.16234416398391
 30
0.0
 10
268.2403388510205
 20
25.29392041955472
 30
0.0
 10
268.2403385934014
 20
24.39172353659874
 30
0.0
 10
268.2403406429117
 20
23.5385105675393
 30
0.0
 10
268.2403438876215
 20
22.72832822361732
 30
0.0
 10
268.2403466280124
 20
21.96447615850305
 30
0.0
 10
268.2403483794234
 20
21.24957738885307
 30
0.0
 10
268.2403492632411
 20
20.5922790525522
 30
0.0
 10
268.2403490965451
 20
19.9997437183721
 30
0.0
 10
268.2403484110554
 20
19.47135501456063
 30
0.0
 10
268.240348638338
 20
19.00547810410151
 30
0.0
 10
268.2403506621382
 20
18.59784651626144
 30
0.0
 10
268.2403551859358
 20
18.24604990481013
 30
0.0
 10
268.2403644975026
 20
17.95291577099459
 30
0.0
 10
268.2403768313525
 20
17.72110580986615
 30
0.0
 10
268.240388761837
 20
17.55162305868069
 30
0.0
 10
268.2403968677058
 20
17.45387013921398
 30
0.0
 10
268.2403986890244
 20
17.41359060897431
 30
0.0
 10
268.2403935061228
 20
17.42335646532839
 30
0.0
 10
268.2403929131607
 20
17.4244737512033
 30
0.0
  0
LINE
  5
228
330
1F
100
AcDbEntity
  8
0
  6
CONTINUOUS
 62
     8
100
AcDbLine
 10
262.8707053323
 20
54.0144813614
 30
0.0
 11
262.8707053323
 21
138.4446611469
 31
0.0
  0
ARC
  5
229
330
1F
100
AcDbEntity
  8
0
  6
CONTINUOUS
 62
     8
100
AcDbCircle
 10
268.2998284616
 20
31.0743948783
 30
0.0
 40
0.0956956898373096
100
AcDbArc
 50
182.5566303272
 51
231.6078835803
  0
ARC
  5
22A
330
1F
100
AcDbEntity
  8
0
  6
CONTINUOUS
 62
     8
100
AcDbCircle
 10
268.2971736764
 20
159.4162926836
 30
0.0
 40
0.0929908749787264
100
AcDbArc
 50
127.6297914154
 51
178.2164422237
  0
LINE
  5
22B
330
1F
100
AcDbEntity
  8
0
  6
CONTINUOUS
 62
     8
100
AcDbLine
 10
298.8817791315
 20
155.3962209862
 30
0.0
 11
295.6581515959
 21
155.4308237963
 31
0.0
  0
SPLINE
  5
22C
330
1F
100
AcDbEntity
  8
0
  6
CONTINUOUS
 62
     8
100
AcDbSpline
210
0.0
220
0.0
230
1.0
 70
     8
 71
     3
 72
     8
 73
     4
 74
     0
 42
0.00000001
 43
0.00000001
 40
0.0
 40
0.0
 40
0.0
 40
0.0
 40
0.0000901229234239
 40
0.0000901229234239
 40
0.0000901229234239
 40
0.0000901229234239
 10
298.882573257399
 20
155.3061015658639
 30
0.0
 10
298.882573257399
 20
155.3361425403386
 30
0.0
 10
298.8823076920161
 20
155.366184667675
 30
0.0
 10
298.8817791314739
 20
155.3962209861986
 30
0.0
  0
LINE
  5
22D
330
1F
100
AcDbEntity
  8
0
  6
CONTINUOUS
 62
     8
100
AcDbLine
 10
298.8825732574
 20
35.1832307194
 30
0.0
 11
298.8825732574
 21
155.3060915744
 31
0.0
  0
SPLINE
  5
22E
330
1F
100
AcDbEntity
  8
0
  6
CONTINUOUS
 62
     8
100
AcDbSpline
210
0.0
220
0.0
230
1.0
 70
     8
 71
     3
 72
     8
 73
     4
 74
     0
 42
0.00000001
 43
0.00000001
 40
0.0
 40
0.0
 40
0.0
 40
0.0
 40
0.0000901229234244
 40
0.0000901229234244
 40
0.0000901229234244
 40
0.0000901229234244
 10
298.8817791314739
 20
35.09310130755537
 30
0.0
 10
298.8823076920161
 20
35.12313762607914
 30
0.0
 10
298.882573257399
 20
35.15317975341573
 30
0.0
 10
298.882573257399
 20
35.18322072789055
 30
0.0
  0
LINE
  5
22F
330
1F
100
AcDbEntity
  8
0
  6
CONTINUOUS
 62
     8
100
AcDbLine
 10
295.6581515959
 20
35.0584984974
 30
0.0
 11
298.8817790153
 21
35.0931013063
 31
0.0
  0
SPLINE
  5
230
330
1F
100
AcDbEntity
  8
0
  6
CONTINUOUS
 62
     8
100
AcDbSpline
210
0.0
220
0.0
230
1.0
 70
     8
 71
     3
 72
    14
 73
    10
 74
     0
 42
0.00000001
 43
0.00000001
 40
0.0
 40
0.0
 40
0.0
 40
0.0
 40
0.4999999999999958
 40
0.4999999999999958
 40
0.7499999999999937
 40
0.7499999999999937
 40
0.8749999999999968
 40
0.8749999999999968
 40
1.0
 40
1.0
 40
1.0
 40
1.0
 10
298.8817790646956
 20
155.3962247809088
 30
0.0
 10
298.8738340326103
 20
156.0218800597328
 30
0.0
 10
298.8728140876225
 20
156.6508355405973
 30
0.0
 10
298.8728027095773
 20
157.5431249813766
 30
0.0
 10
298.8732393550588
 20
157.833421266771
 30
0.0
 10
298.8750836950504
 20
158.2481061386952
 30
0.0
 10
298.875907576865
 20
158.3832208481202
 30
0.0
 10
298.8782098382651
 20
158.6471907389547
 30
0.0
 10
298.8797051319124
 20
158.7771193555359
 30
0.0
 10
298.8816658509235
 20
158.901417793599
 30
0.0
  0
SPLINE
  5
231
330
1F
100
AcDbEntity
  8
0
  6
CONTINUOUS
 62
     8
100
AcDbSpline
210
0.0
220
0.0
230
1.0
 70
     8
 71
     3
 72
     8
 73
     4
 74
     0
 42
0.00000001
 43
0.00000001
 40
0.0
 40
0.0
 40
0.0
 40
0.0
 40
1.0
 40
1.0
 40
1.0
 40
1.0
 10
299.5559423809918
 20
158.7133155038233
 30
0.0
 10
299.3788996529123
 20
158.8239390976957
 30
0.0
 10
299.1326646521887
 20
158.8926348471144
 30
0.0
 10
298.8816660823039
 20
158.9014281422277
 30
0.0
  0
SPLINE
  5
232
330
1F
100
AcDbEntity
  8
0
  6
CONTINUOUS
 62
     8
100
AcDbSpline
210
0.0
220
0.0
230
1.0
 70
     8
 71
     3
 72
    14
 73
    10
 74
     0
 42
0.00000001
 43
0.00000001
 40
0.0
 40
0.0
 40
0.0
 40
0.0
 40
0.25
 40
0.25
 40
0.5
 40
0.5
 40
0.75
 40
0.75
 40
1.0
 40
1.0
 40
1.0
 40
1.0
 10
299.555942404654
 20
158.7133036022515
 30
0.0
 10
299.5564168877405
 20
158.4744721371435
 30
0.0
 10
299.5577878889753
 20
158.2230806822423
 30
0.0
 10
299.5598645963359
 20
157.6999598702032
 30
0.0
 10
299.5605827502375
 20
157.426445672061
 30
0.0
 10
299.5605620437159
 20
156.8667410230295
 30
0.0
 10
299.5598223758718
 20
156.5785644894142
 30
0.0
 10
299.5576952054282
 20
155.997802909716
 30
0.0
 10
299.5562987245041
 20
155.7045234966303
 30
0.0
 10
299.5557975995004
 20
155.408267038417
 30
0.0
  0
SPLINE
  5
233
330
1F
100
AcDbEntity
  8
0
  6
CONTINUOUS
 62
     8
100
AcDbSpline
210
0.0
220
0.0
230
1.0
 70
     8
 71
     3
 72
     8
 73
     4
 74
     0
 42
0.00000001
 43
0.00000001
 40
0.0
 40
0.0
 40
0.0
 40
0.0
 40
1.0
 40
1.0
 40
1.0
 40
1.0
 10
299.5557975995004
 20
155.4082670384193
 30
0.0
 10
299.3787761311738
 20
155.4050423976108
 30
0.0
 10
299.1326560955555
 20
155.4006451285534
 30
0.0
 10
298.8817790646956
 20
155.3962247809098
 30
0.0
  0
SPLINE
  5
234
330
1F
100
AcDbEntity
  8
0
  6
CONTINUOUS
 62
     8
100
AcDbSpline
210
0.0
220
0.0
230
1.0
 70
     8
 71
     3
 72
    14
 73
    10
 74
     0
 42
0.00000001
 43
0.00000001
 40
0.0
 40
0.0
 40
0.0
 40
0.0
 40
0.4999999999999998
 40
0.4999999999999998
 40
0.7499999999999997
 40
0.7499999999999997
 40
0.8749999999999998
 40
0.8749999999999998
 40
1.0
 40
1.0
 40
1.0
 40
1.0
 10
298.8816658509236
 20
31.58790450015257
 30
0.0
 10
298.8738229545278
 20
32.08509955826418
 30
0.0
 10
298.872801736204
 20
32.64754309676628
 30
0.0
 10
298.8728088655336
 20
33.53976458908783
 30
0.0
 10
298.8732513013658
 20
33.84658517902717
 30
0.0
 10
298.8751168698055
 20
34.31012382194974
 30
0.0
 10
298.8759499914789
 20
34.46552853103238
 30
0.0
 10
298.8782794081567
 20
34.77812934061912
 30
0.0
 10
298.879792801512
 20
34.93668328232684
 30
0.0
 10
298.8817790646956
 20
35.0930975128456
 30
0.0
  0
SPLINE
  5
235
330
1F
100
AcDbEntity
  8
0
  6
CONTINUOUS
 62
     8
100
AcDbSpline
210
0.0
220
0.0
230
1.0
 70
     8
 71
     3
 72
     8
 73
     4
 74
     0
 42
0.00000001
 43
0.00000001
 40
0.0
 40
0.0
 40
0.0
 40
0.0
 40
1.0
 40
1.0
 40
1.0
 40
1.0
 10
299.5557975922239
 20
35.08105955618188
 30
0.0
 10
299.3787761282284
 20
35.0842840617154
 30
0.0
 10
299.1326561264147
 20
35.08868114583473
 30
0.0
 10
298.8817791314739
 20
35.09310130755544
 30
0.0
  0
SPLINE
  5
236
330
1F
100
AcDbEntity
  8
0
  6
CONTINUOUS
 62
     8
100
AcDbSpline
210
0.0
220
0.0
230
1.0
 70
     8
 71
     3
 72
    14
 73
    10
 74
     0
 42
0.00000001
 43
0.00000001
 40
0.0
 40
0.0
 40
0.0
 40
0.0
 40
0.25
 40
0.25
 40
0.5
 40
0.5
 40
0.75
 40
0.75
 40
1.0
 40
1.0
 40
1.0
 40
1.0
 10
299.5557975995004
 20
35.08105525533608
 30
0.0
 10
299.5562987185127
 20
34.78480233910758
 30
0.0
 10
299.557700311828
 20
34.4903091470377
 30
0.0
 10
299.5598259907297
 20
33.90958620224292
 30
0.0
 10
299.5605637366611
 20
33.62150805774772
 30
0.0
 10
299.5605811291567
 20
33.06183844822628
 30
0.0
 10
299.5598610583716
 20
32.78826568453002
 30
0.0
 10
299.5577828809954
 20
32.26518648192142
 30
0.0
 10
299.5564168961076
 20
32.01485436807189
 30
0.0
 10
299.555942404654
 20
31.7760186914991
 30
0.0
  0
SPLINE
  5
237
330
1F
100
AcDbEntity
  8
0
  6
CONTINUOUS
 62
     8
100
AcDbSpline
210
0.0
220
0.0
230
1.0
 70
     8
 71
     3
 72
     8
 73
     4
 74
     0
 42
0.00000001
 43
0.00000001
 40
0.0
 40
0.0
 40
0.0
 40
0.0
 40
1.0
 40
1.0
 40
1.0
 40
1.0
 10
299.555942404656
 20
31.77601869150054
 30
0.0
 10
299.3788996609283
 20
31.66539462795592
 30
0.0
 10
299.1326645438911
 20
31.59669830496217
 30
0.0
 10
298.881665850917
 20
31.58790450015323
 30
0.0
  0
LINE
  5
238
330
1F
100
AcDbEntity
  8
0
  6
CONTINUOUS
 62
     8
100
AcDbLine
 10
295.6581515989
 20
158.9367142024
 30
0.0
 11
298.8816656436
 21
158.9014284509
 31
0.0
  0
LINE
  5
239
330
1F
100
AcDbEntity
  8
0
  6
CONTINUOUS
 62
     8
100
AcDbLine
 10
298.8816660779
 20
31.5878938476
 30
0.0
 11
295.6581515989
 21
31.5526080913
 31
0.0
  0
SPLINE
  5
23A
330
1F
100
AcDbEntity
  8
0
  6
CONTINUOUS
 62
     8
100
AcDbSpline
210
0.0
220
0.0
230
1.0
 70
     8
 71
     3
 72
    11
 73
     7
 74
     0
 42
0.00000001
 43
0.00000001
 40
0.0
 40
0.0
 40
0.0
 40
0.0
 40
0.0001021237331546
 40
0.0001021237331546
 40
0.0001021237331546
 40
0.0001021837331546
 40
0.0001021837331546
 40
0.0001021837331546
 40
0.0001021837331546
 10
299.5557975922238
 20
155.408262737572
 30
0.0
 10
299.5557399972425
 20
155.3742275414436
 30
0.0
 10
299.5554020019579
 20
155.3401914766425
 30
0.0
 10
299.5547816356131
 20
155.3061615459175
 30
0.0
 10
299.5547812711339
 20
155.3061415525646
 30
0.0
 10
299.55478090651
 20
155.306121559215
 30
0.0
 10
299.554780541883
 20
155.3061015658638
 30
0.0
  0
SPLINE
  5
23B
330
1F
100
AcDbEntity
  8
0
  6
CONTINUOUS
 62
     8
100
AcDbSpline
210
0.0
220
0.0
230
1.0
 70
    24
 71
     3
 72
     8
 73
     4
 74
     0
 42
0.00000001
 43
0.00000001
 40
0.0
 40
0.0
 40
0.0
 40
0.0
 40
1.0
 40
1.0
 40
1.0
 40
1.0
 10
299.554780541883
 20
155.3061015658637
 30
0.0
 10
299.3778879804563
 20
155.3061015658637
 30
0.0
 10
299.1325847237875
 20
155.3061015658637
 30
0.0
 10
298.882573257399
 20
155.3061015658637
 30
0.0
  0
SPLINE
  5
23C
330
1F
100
AcDbEntity
  8
0
  6
CONTINUOUS
 62
     8
100
AcDbSpline
210
0.0
220
0.0
230
1.0
 70
    24
 71
     3
 72
     8
 73
     4
 74
     0
 42
0.00000001
 43
0.00000001
 40
0.0
 40
0.0
 40
0.0
 40
0.0
 40
1.0
 40
1.0
 40
1.0
 40
1.0
 10
299.554780541883
 20
35.18323071936133
 30
0.0
 10
299.3778879804564
 20
35.1832307193613
 30
0.0
 10
299.1325847237875
 20
35.18323071936128
 30
0.0
 10
298.882573257399
 20
35.18323071936124
 30
0.0
  0
SPLINE
  5
23D
330
1F
100
AcDbEntity
  8
0
  6
CONTINUOUS
 62
     8
100
AcDbSpline
210
0.0
220
0.0
230
1.0
 70
     8
 71
     3
 72
    11
 73
     7
 74
     0
 42
0.00000001
 43
0.00000001
 40
-0.00000006
 40
-0.00000006
 40
-0.00000006
 40
-0.00000006
 40
0.0
 40
0.0
 40
0.0
 40
0.0001021237331551
 40
0.0001021237331551
 40
0.0001021237331551
 40
0.0001021237331551
 10
299.554780541883
 20
35.18322072789058
 30
0.0
 10
299.5547809065101
 20
35.18320073453933
 30
0.0
 10
299.5547812711339
 20
35.1831807411898
 30
0.0
 10
299.5547816356131
 20
35.18316074783682
 30
0.0
 10
299.555402001958
 20
35.14913081711165
 30
0.0
 10
299.5557399972425
 20
35.11509475231046
 30
0.0
 10
299.5557975922239
 20
35.08105955618188
 30
0.0
  0
LINE
  5
23E
330
1F
100
AcDbEntity
  8
0
  6
CONTINUOUS
 62
     8
100
AcDbLine
 10
299.5547805419
 20
155.3060915744
 30
0.0
 11
299.5547805419
 21
35.1832307194
 31
0.0
  0
SPLINE
  5
23F
330
1F
100
AcDbEntity
  8
0
  6
CONTINUOUS
 62
     8
100
AcDbSpline
210
0.0
220
0.0
230
1.0
 70
     8
 71
     3
 72
    11
 73
     7
 74
     0
 42
0.00000001
 43
0.00000001
 40
-0.00000006
 40
-0.00000006
 40
-0.00000006
 40
-0.00000006
 40
0.0
 40
0.0
 40
0.0
 40
0.0001193840761031
 40
0.0001193840761031
 40
0.0001193840761031
 40
0.0001193840761031
 10
299.5547667116101
 20
158.809463380023
 30
0.0
 10
299.5547670736213
 20
158.809447303345
 30
0.0
 10
299.554767435615
 20
158.8094312266172
 30
0.0
 10
299.5547677974927
 20
158.8094151498969
 30
0.0
 10
299.5554878380528
 20
158.7774267432459
 30
0.0
 10
299.5558785756975
 20
158.7453912419717
 30
0.0
 10
299.5559423809964
 20
158.7133155038203
 30
0.0
  0
SPLINE
  5
240
330
1F
100
AcDbEntity
  8
0
  6
CONTINUOUS
 62
     8
100
AcDbSpline
210
0.0
220
0.0
230
1.0
 70
     8
 71
     3
 72
    15
 73
    11
 74
     0
 42
0.00000001
 43
0.00000001
 40
0.0
 40
0.0
 40
0.0
 40
0.0
 40
0.1397328500916666
 40
0.2752651255441637
 40
0.4065911330208761
 40
0.5337061071620873
 40
0.6566063336850823
 40
0.7752892808812506
 40
0.8897537430123693
 40
1.0
 40
1.0
 40
1.0
 40
1.0
 10
299.5547705665563
 20
158.8094599860413
 30
0.0
 10
299.9962327088252
 20
158.6693890566665
 30
0.0
 10
300.8658859931813
 20
158.3934579357157
 30
0.0
 10
302.1476271078384
 20
157.9749751098493
 30
0.0
 10
303.3874827266422
 20
157.5610305594554
 30
0.0
 10
304.5852590509344
 20
157.1510472308142
 30
0.0
 10
305.7410272408766
 20
156.7455369608351
 30
0.0
 10
306.8546979262288
 20
156.3445727035094
 30
0.0
 10
307.9265520958402
 20
155.9495165507825
 30
0.0
 10
308.6257135981828
 20
155.6834003177208
 30
0.0
 10
308.9687321197976
 20
155.5528399299754
 30
0.0
  0
SPLINE
  5
241
330
1F
100
AcDbEntity
  8
0
  6
CONTINUOUS
 62
     8
100
AcDbSpline
210
0.0
220
0.0
230
1.0
 70
     8
 71
     3
 72
    23
 73
    19
 74
     0
 42
0.00000001
 43
0.00000001
 40
0.0
 40
0.0
 40
0.0
 40
0.0
 40
0.0624484065856764
 40
0.1248043087526583
 40
0.187089634624535
 40
0.2493258450880322
 40
0.3115340385273018
 40
0.3737350630594688
 40
0.4359496344988923
 40
0.4981984582144357
 40
0.5605023529965651
 40
0.6228823750216534
 40
0.6853599399870122
 40
0.7479569414943809
 40
0.8106958637817396
 40
0.8735998869438797
 40
0.9366929828438979
 40
1.0
 40
1.0
 40
1.0
 40
1.0
 10
308.9693214176319
 20
152.1340967658281
 30
0.0
 10
308.9716446153352
 20
152.2127551747544
 30
0.0
 10
308.976287569404
 20
152.3699554764171
 30
0.0
 10
308.9824510188515
 20
152.6047587274804
 30
0.0
 10
308.9878829292055
 20
152.8380735760954
 30
0.0
 10
308.9924452501013
 20
153.0694781497754
 30
0.0
 10
308.9960766007908
 20
153.2985818158887
 30
0.0
 10
308.9987152035214
 20
153.5249828639832
 30
0.0
 10
309.0003199403824
 20
153.7482817093791
 30
0.0
 10
309.0008650296721
 20
153.9680791298541
 30
0.0
 10
309.0003416842297
 20
154.1839789745116
 30
0.0
 10
308.9987576615057
 20
154.3955879341715
 30
0.0
 10
308.9961377165661
 20
154.6025225371061
 30
0.0
 10
308.9925219944843
 20
154.8043899898342
 30
0.0
 10
308.9879712289565
 20
155.000866480294
 30
0.0
 10
308.9825461493433
 20
155.1914103550442
 30
0.0
 10
308.9763830728238
 20
155.3763431158789
 30
0.0
 10
308.9717418432557
 20
155.4937677539406
 30
0.0
 10
308.9694173010319
 20
155.552579438492
 30
0.0
  0
SPLINE
  5
242
330
1F
100
AcDbEntity
  8
0
  6
CONTINUOUS
 62
     8
100
AcDbSpline
210
0.0
220
0.0
230
1.0
 70
     8
 71
     3
 72
    15
 73
    11
 74
     0
 42
0.00000001
 43
0.00000001
 40
0.0
 40
0.0
 40
0.0
 40
0.0
 40
0.1155441432896951
 40
0.2337828991101398
 40
0.3547200907211204
 40
0.4783592910537908
 40
0.604703843807047
 40
0.7337568823970207
 40
0.8655213470130817
 40
1.0
 40
1.0
 40
1.0
 40
1.0
 10
308.9693149933098
 20
152.1340249963633
 30
0.0
 10
308.6085375140984
 20
152.2666875097009
 30
0.0
 10
307.8785688404615
 20
152.5351063675357
 30
0.0
 10
306.768858316948
 20
152.9306787118566
 30
0.0
 10
305.6323830092469
 20
153.3270767751015
 30
0.0
 10
304.468974479317
 20
153.7233894902546
 30
0.0
 10
303.2786856423984
 20
154.1199109337464
 30
0.0
 10
302.0614767253268
 20
154.5163981423543
 30
0.0
 10
300.8174545244714
 20
154.9135394283381
 30
0.0
 10
299.9785226711107
 20
155.1743545745846
 30
0.0
 10
299.5547805417235
 20
155.3060915744424
 30
0.0
  0
SPLINE
  5
243
330
1F
100
AcDbEntity
  8
0
  6
CONTINUOUS
 62
     8
100
AcDbSpline
210
0.0
220
0.0
230
1.0
 70
     8
 71
     3
 72
    23
 73
    19
 74
     0
 42
0.00000001
 43
0.00000001
 40
0.0
 40
0.0
 40
0.0
 40
0.0
 40
0.0633070196577157
 40
0.1264001177639639
 40
0.189304142822191
 40
0.2520430666825454
 40
0.3146400694288393
 40
0.3771176352900946
 40
0.4394976578612522
 40
0.5018015528349854
 40
0.5640503763852727
 40
0.626264947302446
 40
0.6884659709574349
 40
0.7506741631689235
 40
0.8129103720604907
 40
0.8751956960248718
 40
0.9375515959593473
 40
1.0
 40
1.0
 40
1.0
 40
1.0
 10
308.9694173010266
 20
34.93674285526084
 30
0.0
 10
308.9717418440037
 20
34.99555454259068
 30
0.0
 10
308.9763830750653
 20
35.11297918593327
 30
0.0
 10
308.9825461529235
 20
35.29791195434228
 30
0.0
 10
308.9879712332908
 20
35.48845583578797
 30
0.0
 10
308.9925219990083
 20
35.68493233196587
 30
0.0
 10
308.9961377208263
 20
35.88679978934525
 30
0.0
 10
308.9987576651408
 20
36.09373439578417
 30
0.0
 10
309.0003416869804
 20
36.30534335773361
 30
0.0
 10
309.0008650313814
 20
36.52124320341034
 30
0.0
 10
309.0003199409967
 20
36.74104062359132
 30
0.0
 10
308.9987152030911
 20
36.96433946735052
 30
0.0
 10
308.9960765994687
 20
37.19074051244997
 30
0.0
 10
308.992445248142
 20
37.41984417420765
 30
0.0
 10
308.9878829269568
 20
37.65124874218332
 30
0.0
 10
308.9824510167702
 20
37.88456358376909
 30
0.0
 10
308.9762875679762
 20
38.11936682652041
 30
0.0
 10
308.9716446148573
 20
38.27656712219225
 30
0.0
 10
308.9693214176351
 20
38.35522552792624
 30
0.0
  0
SPLINE
  5
244
330
1F
100
AcDbEntity
  8
0
  6
CONTINUOUS
 62
     8
100
AcDbSpline
210
0.0
220
0.0
230
1.0
 70
     8
 71
     3
 72
    15
 73
    11
 74
     0
 42
0.00000001
 43
0.00000001
 40
0.0
 40
0.0
 40
0.0
 40
0.0
 40
0.1102449948757813
 40
0.2247085548231548
 40
0.3433909605823499
 40
0.4662910068058446
 40
0.5934061618054631
 40
0.7247327109981576
 40
0.8602658884467997
 40
0.9999999999999999
 40
0.9999999999999999
 40
0.9999999999999999
 40
0.9999999999999999
 10
308.969339736823
 20
34.93671535288414
 30
0.0
 10
308.6263033165878
 20
34.80614625561704
 30
0.0
 10
307.9271040619676
 20
34.54001178679587
 30
0.0
 10
306.8551897237674
 20
34.14492861572086
 30
0.0
 10
305.7414525818388
 20
33.74393622740902
 30
0.0
 10
304.5856115937356
 20
33.33839698196282
 30
0.0
 10
303.3877561461571
 20
32.92838391103722
 30
0.0
 10
302.1478150674329
 20
32.51440897410995
 30
0.0
 10
300.8659821841568
 20
32.09589506772477
 30
0.0
 10
299.9962654391003
 20
31.81994368579796
 30
0.0
 10
299.5547705665562
 20
31.6798623077118
 30
0.0
  0
SPLINE
  5
245
330
1F
100
AcDbEntity
  8
0
  6
CONTINUOUS
 62
     8
100
AcDbSpline
210
0.0
220
0.0
230
1.0
 70
     8
 71
     3
 72
    11
 73
     7
 74
     0
 42
0.00000001
 43
0.00000001
 40
0.0
 40
0.0
 40
0.0
 40
0.0
 40
0.000119384076104
 40
0.000119384076104
 40
0.000119384076104
 40
0.000119444076104
 40
0.000119444076104
 40
0.000119444076104
 40
0.000119444076104
 10
299.5559423809963
 20
31.77600678993359
 30
0.0
 10
299.5558785756975
 20
31.74393105178189
 30
0.0
 10
299.5554878380527
 20
31.71189555050748
 30
0.0
 10
299.5547677974926
 20
31.6799071438562
 30
0.0
 10
299.5547674356149
 20
31.67989106713591
 30
0.0
 10
299.5547670736212
 20
31.67987499040817
 30
0.0
 10
299.55476671161
 20
31.67985891373015
 30
0.0
  0
SPLINE
  5
246
330
1F
100
AcDbEntity
  8
0
  6
CONTINUOUS
 62
     8
100
AcDbSpline
210
0.0
220
0.0
230
1.0
 70
     8
 71
     3
 72
    14
 73
    10
 74
     0
 42
0.00000001
 43
0.00000001
 40
0.0
 40
0.0
 40
0.0
 40
0.0
 40
0.1534690974311008
 40
0.3033933601145438
 40
0.4497769677014564
 40
0.5926244106371716
 40
0.7319405213010627
 40
0.8677305090832363
 40
1.0
 40
1.0
 40
1.0
 40
1.0
 10
299.5547805417235
 20
35.18323071931192
 30
0.0
 10
300.0383748456076
 20
35.33369957340089
 30
0.0
 10
300.9943933747027
 20
35.63116174656009
 30
0.0
 10
302.4096441679364
 20
36.08507296572323
 30
0.0
 10
303.7898636809322
 20
36.53815936042115
 30
0.0
 10
305.1349353215666
 20
36.99119546017949
 30
0.0
 10
306.4448329018947
 20
37.44428709707714
 30
0.0
 10
307.7197673540546
 20
37.89630567711794
 30
0.0
 10
308.5568726974288
 20
38.20379769028351
 30
0.0
 10
308.9699284048755
 20
38.35552450942002
 30
0.0
  0
LINE
  5
247
330
1F
100
AcDbEntity
  8
0
  6
CONTINUOUS
 62
     8
100
AcDbLine
 10
308.9693214177
 20
38.355299677
 30
0.0
 11
308.9693214176
 21
152.1340226168
 31
0.0
  0
LINE
  5
248
330
1F
100
AcDbEntity
  8
0
  6
CONTINUOUS
 62
     8
100
AcDbLine
 10
298.8825732574
 20
158.9875000508
 30
0.0
 11
298.8825732574
 21
172.6820618613
 31
0.0
  0
SPLINE
  5
249
330
1F
100
AcDbEntity
  8
0
  6
CONTINUOUS
 62
     8
100
AcDbSpline
210
0.0
220
0.0
230
1.0
 70
     8
 71
     3
 72
     8
 73
     4
 74
     0
 42
0.00000001
 43
0.00000001
 40
0.0
 40
0.0
 40
0.0
 40
0.0
 40
0.0001084309524739
 40
0.0001084309524739
 40
0.0001084309524739
 40
0.0001084309524739
 10
298.8816660775293
 20
158.9014284461545
 30
0.0
 10
298.8822768958102
 20
158.9301434501263
 30
0.0
 10
298.8825840551127
 20
158.9588360767286
 30
0.0
 10
298.8825846313473
 20
158.9875001217488
 30
0.0
  0
SPLINE
  5
24A
330
1F
100
AcDbEntity
  8
0
  6
CONTINUOUS
 62
     8
100
AcDbSpline
210
0.0
220
0.0
230
1.0
 70
     8
 71
     3
 72
     8
 73
     4
 74
     0
 42
0.00000001
 43
0.00000001
 40
0.0
 40
0.0
 40
0.0
 40
0.0
 40
0.0001084309524747
 40
0.0001084309524747
 40
0.0001084309524747
 40
0.0001084309524747
 10
298.8825846313473
 20
31.50182217200447
 30
0.0
 10
298.8825840551127
 20
31.53048621702498
 30
0.0
 10
298.8822768958102
 20
31.5591788436274
 30
0.0
 10
298.8816660775293
 20
31.58789384759948
 30
0.0
  0
LINE
  5
24B
330
1F
100
AcDbEntity
  8
0
  6
CONTINUOUS
 62
     8
100
AcDbLine
 10
298.8825732574
 20
17.8072604325
 30
0.0
 11
298.8825732574
 21
31.501822243
 31
0.0
  0
SPLINE
  5
24C
330
1F
100
AcDbEntity
  8
0
  6
CONTINUOUS
 62
     8
100
AcDbSpline
210
0.0
220
0.0
230
1.0
 70
     8
 71
     3
 72
     8
 73
     4
 74
     0
 42
0.00000001
 43
0.00000001
 40
0.0
 40
0.0
 40
0.0
 40
0.0
 40
1.0
 40
1.0
 40
1.0
 40
1.0
 10
299.554761223608
 20
31.67986225689751
 30
0.0
 10
299.3778729516649
 20
31.57211471466878
 30
0.0
 10
299.1325831059943
 20
31.50714480864294
 30
0.0
 10
298.882584631345
 20
31.50182217204389
 30
0.0
  0
SPLINE
  5
24D
330
1F
100
AcDbEntity
  8
0
  6
CONTINUOUS
 62
     8
100
AcDbSpline
210
0.0
220
0.0
230
1.0
 70
     8
 71
     3
 72
     8
 73
     4
 74
     0
 42
0.00000001
 43
0.00000001
 40
0.0
 40
0.0
 40
0.0
 40
0.0
 40
1.0
 40
1.0
 40
1.0
 40
1.0
 10
299.5547667475789
 20
158.8094719293196
 30
0.0
 10
299.3778762673718
 20
158.9172156293047
 30
0.0
 10
299.1325842275787
 20
158.9821816369166
 30
0.0
 10
298.882584631341
 20
158.9874998086818
 30
0.0
  0
LINE
  5
24E
330
1F
100
AcDbEntity
  8
0
  6
CONTINUOUS
 62
     8
100
AcDbLine
 10
299.5547805419
 20
31.6798654533
 30
0.0
 11
299.5547805419
 21
18.0995444783
 31
0.0
  0
LINE
  5
24F
330
1F
100
AcDbEntity
  8
0
  6
CONTINUOUS
 62
     8
100
AcDbLine
 10
299.5547805419
 20
172.3897778155
 30
0.0
 11
299.5547805419
 21
158.8094568405
 31
0.0
  0
LINE
  5
250
330
1F
100
AcDbEntity
  8
0
  6
CONTINUOUS
 62
     8
100
AcDbLine
 10
308.9693214184
 20
155.5526139651
 30
0.0
 11
308.9693214177
 21
162.9752369396
 31
0.0
  0
LINE
  5
251
330
1F
100
AcDbEntity
  8
0
  6
CONTINUOUS
 62
     8
100
AcDbLine
 10
308.9693214177
 20
27.5140853541
 30
0.0
 11
308.9693214177
 21
34.9367083284
 31
0.0
  0
SPLINE
  5
252
330
1F
100
AcDbEntity
  8
0
  6
CONTINUOUS
 62
     8
100
AcDbSpline
210
0.0
220
0.0
230
1.0
 70
    24
 71
     3
 72
    10
 73
     6
 74
     0
 42
0.00000001
 43
0.00000001
 40
0.0
 40
0.0
 40
0.0
 40
0.0
 40
0.5
 40
0.5
 40
1.0
 40
1.0
 40
1.0
 40
1.0
 10
309.6581515958894
 20
152.1340967658281
 30
0.0
 10
309.6581515958894
 20
152.1340967658281
 30
0.0
 10
309.5969401897574
 20
152.1340967658282
 30
0.0
 10
309.3613207407381
 20
152.1340967658281
 30
0.0
 10
309.1870054040427
 20
152.1340967658281
 30
0.0
 10
308.9693214176323
 20
152.1340967658281
 30
0.0
  0
SPLINE
  5
253
330
1F
100
AcDbEntity
  8
0
  6
CONTINUOUS
 62
     8
100
AcDbSpline
210
0.0
220
0.0
230
1.0
 70
    24
 71
     3
 72
    10
 73
     6
 74
     0
 42
0.00000001
 43
0.00000001
 40
0.0
 40
0.0
 40
0.0
 40
0.0
 40
0.5
 40
0.5
 40
1.0
 40
1.0
 40
1.0
 40
1.0
 10
309.6581515958891
 20
38.35522552794156
 30
0.0
 10
309.6581515958891
 20
38.35522552793881
 30
0.0
 10
309.598479049368
 20
38.35522552793593
 30
0.0
 10
309.3597850062701
 20
38.35522552793062
 30
0.0
 10
309.1814556404189
 20
38.35522552792821
 30
0.0
 10
308.9693236544582
 20
38.35522552792625
 30
0.0
  0
SPLINE
  5
254
330
1F
100
AcDbEntity
  8
0
  6
CONTINUOUS
 62
     8
100
AcDbSpline
210
0.0
220
0.0
230
1.0
 70
     8
 71
     3
 72
    10
 73
     6
 74
     0
 42
0.00000001
 43
0.00000001
 40
0.0
 40
0.0
 40
0.0
 40
0.0
 40
0.5
 40
0.5
 40
1.0
 40
1.0
 40
1.0
 40
1.0
 10
309.6581515955497
 20
154.3768769992784
 30
0.0
 10
309.6581464989356
 20
154.588976424129
 30
0.0
 10
309.5984740315887
 20
154.809464322575
 30
0.0
 10
309.3597972878476
 20
155.2168788632224
 30
0.0
 10
309.1814791931738
 20
155.4026204768195
 30
0.0
 10
308.9693681365105
 20
155.552614205043
 30
0.0
  0
SPLINE
  5
255
330
1F
100
AcDbEntity
  8
0
  6
CONTINUOUS
 62
     8
100
AcDbSpline
210
0.0
220
0.0
230
1.0
 70
     8
 71
     3
 72
    10
 73
     6
 74
     0
 42
0.00000001
 43
0.00000001
 40
0.0
 40
0.0
 40
0.0
 40
0.0
 40
0.5
 40
0.5
 40
1.0
 40
1.0
 40
1.0
 40
1.0
 10
309.6581515954628
 20
36.11247354490929
 30
0.0
 10
309.6581574574323
 20
35.89483127674905
 30
0.0
 10
309.5969536956574
 20
35.67727363940465
 30
0.0
 10
309.3613516882307
 20
35.27511776359975
 30
0.0
 10
309.1870461365882
 20
35.09067774435977
 30
0.0
 10
308.969371892261
 20
34.93677495588393
 30
0.0
  0
SPLINE
  5
256
330
1F
100
AcDbEntity
  8
0
  6
CONTINUOUS
 62
     7
100
AcDbSpline
210
0.0
220
0.0
230
1.0
 70
     8
 71
     3
 72
    90
 73
    86
 74
     0
 42
0.00000001
 43
0.00000001
 40
0.0
 40
0.0
 40
0.0
 40
0.0
 40
0.0099960636869378
 40
0.0224077753122907
 40
0.0345607823526207
 40
0.0467186187195202
 40
0.058885177595833
 40
0.0710540024212016
 40
0.0831942889527241
 40
0.0953147547171454
 40
0.1074427955312922
 40
0.1195768212980178
 40
0.1317100915904557
 40
0.1438498906642279
 40
0.1560040928459514
 40
0.1681635702945658
 40
0.1803208071352731
 40
0.1924834520467859
 40
0.2046586541504192
 40
0.2168440349392271
 40
0.2290252496560912
 40
0.2412108617297924
 40
0.2534080702288335
 40
0.2655811062340097
 40
0.277701408168268
 40
0.2898270856181906
 40
0.3019568430566916
 40
0.3140966671556099
 40
0.3262378170217438
 40
0.3383805956789151
 40
0.3505313928288601
 40
0.36269850697721
 40
0.3748653183496512
 40
0.3870321182798515
 40
0.3992058723098186
 40
0.4113945446762087
 40
0.4235843212474878
 40
0.4357802913569754
 40
0.4479702239055798
 40
0.4600980440469158
 40
0.4722240687244389
 40
0.4843471685864018
 40
0.4964745695500845
 40
0.5086132063189631
 40
0.5207654182384222
 40
0.5329129720233343
 40
0.5450640795860339
 40
0.557224950544389
 40
0.5694030549945194
 40
0.5815763109654618
 40
0.5937519300087679
 40
0.605936205182099
 40
0.6181362343491404
 40
0.6303335575841652
 40
0.6424782496983545
 40
0.6545997649996017
 40
0.6667279018797524
 40
0.6788640837996751
 40
0.6909988399681097
 40
0.7031396668199779
 40
0.7152941945447198
 40
0.7274567252061447
 40
0.7396162244978434
 40
0.7517806048692028
 40
0.7639567529215262
 40
0.7761454357235782
 40
0.7883290553500651
 40
0.8005163622012613
 40
0.8127151947044369
 40
0.82488559338742
 40
0.8370056725883074
 40
0.8491319767542775
 40
0.861262075626881
 40
0.8734011031921786
 40
0.8855429496682216
 40
0.8976852816404358
 40
0.9098348627082196
 40
0.9219997521482439
 40
0.9341664475952091
 40
0.9463322237679512
 40
0.9585043603621837
 40
0.9706906004524517
 40
0.9828798264293676
 40
0.9950748616801569
 40
1.0
 40
1.0
 40
1.0
 40
1.0
 10
130.0728669531039
 20
203.2272554860706
 30
0.0
 10
130.2050452916051
 20
203.2272315193925
 30
0.0
 10
130.5013441751502
 20
203.2271777942507
 30
0.0
 10
130.9737990937885
 20
203.2271952745137
 30
0.0
 10
131.4878799809146
 20
203.22718040852
 30
0.0
 10
132.0116572825925
 20
203.2271738644394
 30
0.0
 10
132.5481408667619
 20
203.2271654679542
 30
0.0
 10
133.0966980220847
 20
203.2271585201571
 30
0.0
 10
133.6565607413703
 20
203.2271525701166
 30
0.0
 10
134.2275048106839
 20
203.2271479239704
 30
0.0
 10
134.8097529438105
 20
203.2271446009656
 30
0.0
 10
135.4033603082957
 20
203.2271424859957
 30
0.0
 10
136.0080387954116
 20
203.2271414369577
 30
0.0
 10
136.6236370333172
 20
203.2271413288407
 30
0.0
 10
137.2499579640819
 20
203.2271419752759
 30
0.0
 10
137.886592694879
 20
203.2271431441956
 30
0.0
 10
138.5330904380284
 20
203.2271446520625
 30
0.0
 10
139.1892686408701
 20
203.2271463072159
 30
0.0
 10
139.8550263051795
 20
203.2271478995012
 30
0.0
 10
140.5299015839209
 20
203.2271493155387
 30
0.0
 10
141.2134350189037
 20
203.2271504939454
 30
0.0
 10
141.905320959653
 20
203.2271513645807
 30
0.0
 10
142.6048324627231
 20
203.2271518522121
 30
0.0
 10
143.3105271707995
 20
203.2271520166916
 30
0.0
 10
144.0218892831261
 20
203.2271519141766
 30
0.0
 10
144.7390929826886
 20
203.2271516430806
 30
0.0
 10
145.4630282232529
 20
203.2271513295116
 30
0.0
 10
146.1932657755938
 20
203.2271510898212
 30
0.0
 10
146.9294237736562
 20
203.2271511105959
 30
0.0
 10
147.6711083072886
 20
203.2271515678181
 30
0.0
 10
148.4182640523734
 20
203.2271526503538
 30
0.0
 10
149.170494976102
 20
203.2271545090213
 30
0.0
 10
149.9272892517728
 20
203.2271571759783
 30
0.0
 10
150.6880879374773
 20
203.2271606919116
 30
0.0
 10
151.4528366118618
 20
203.2271651135945
 30
0.0
 10
152.2211910817755
 20
203.2271704210456
 30
0.0
 10
152.9927709759369
 20
203.2271763531111
 30
0.0
 10
153.7667576209771
 20
203.2271826643024
 30
0.0
 10
154.5414335094577
 20
203.2271889054613
 30
0.0
 10
155.3162375068581
 20
203.2271944420453
 30
0.0
 10
156.0908538709675
 20
203.2271984255622
 30
0.0
 10
156.8663211658992
 20
203.2272001405326
 30
0.0
 10
157.6425413681511
 20
203.2271988441529
 30
0.0
 10
158.4194912535098
 20
203.2271936908537
 30
0.0
 10
159.1966044028942
 20
203.2271851119925
 30
0.0
 10
159.9733381935538
 20
203.2271733611073
 30
0.0
 10
160.7492331814111
 20
203.2271587366049
 30
0.0
 10
161.5243792556324
 20
203.2271414787031
 30
0.0
 10
162.2982185907849
 20
203.2271221057749
 30
0.0
 10
163.0702100885966
 20
203.2271011926205
 30
0.0
 10
163.8397939903417
 20
203.2270792978611
 30
0.0
 10
164.6070311111596
 20
203.2270569520318
 30
0.0
 10
165.3714335525023
 20
203.227034753141
 30
0.0
 10
166.1313441873178
 20
203.2270133083624
 30
0.0
 10
166.885606979639
 20
203.2269931889847
 30
0.0
 10
167.6340751460897
 20
203.2269748377445
 30
0.0
 10
168.3776572473083
 20
203.2269587501916
 30
0.0
 10
169.1164269074504
 20
203.2269452184235
 30
0.0
 10
169.8500054141125
 20
203.2269345181368
 30
0.0
 10
170.5781493998628
 20
203.2269269227979
 30
0.0
 10
171.3006983178305
 20
203.2269227235952
 30
0.0
 10
172.0170951222099
 20
203.2269219042175
 30
0.0
 10
172.726804564132
 20
203.2269244117409
 30
0.0
 10
173.4295515794463
 20
203.2269301847035
 30
0.0
 10
174.1253000359314
 20
203.2269391911402
 30
0.0
 10
174.8134946723245
 20
203.2269511247457
 30
0.0
 10
175.4936240692217
 20
203.2269656175342
 30
0.0
 10
176.1653348440905
 20
203.2269823097557
 30
0.0
 10
176.8278813461463
 20
203.2270008518143
 30
0.0
 10
177.4799842019051
 20
203.2270206957094
 30
0.0
 10
178.1212896503228
 20
203.2270413429204
 30
0.0
 10
178.7521070714263
 20
203.2270622999216
 30
0.0
 10
179.3731548566081
 20
203.2270831053398
 30
0.0
 10
179.9840776837585
 20
203.2271032028713
 30
0.0
 10
180.5844871185498
 20
203.2271221971484
 30
0.0
 10
181.1740519108884
 20
203.2271396568767
 30
0.0
 10
181.7526877115207
 20
203.2271552526522
 30
0.0
 10
182.320131242141
 20
203.2271683038006
 30
0.0
 10
182.8759256526157
 20
203.2271799614523
 30
0.0
 10
183.4196601404215
 20
203.2271857657906
 30
0.0
 10
183.9512103337926
 20
203.2272021300899
 30
0.0
 10
184.4705304219241
 20
203.2271675577332
 30
0.0
 10
184.9767016270355
 20
203.2273125157931
 30
0.0
 10
185.3732031818431
 20
203.2268849373814
 30
0.0
 10
185.5981777830343
 20
203.2274653037574
 30
0.0
 10
185.662898565493
 20
203.2276322637865
 30
0.0
  0
LINE
  5
257
330
1F
100
AcDbEntity
  8
0
  6
CONTINUOUS
 62
     7
100
AcDbLine
 10
127.6534187435
 20
203.8171060763
 30
0.0
 11
128.4442362326
 21
203.2633697091
 31
0.0
  0
LINE
  5
258
330
1F
100
AcDbEntity
  8
0
  6
CONTINUOUS
 62
     7
100
AcDbLine
 10
187.2917740647
 20
203.2633697091
 30
0.0
 11
188.0825915537
 21
203.8171060763
 31
0.0
  0
SPLINE
  5
259
330
1F
100
AcDbEntity
  8
0
  6
CONTINUOUS
 62
     7
100
AcDbSpline
210
0.0
220
0.0
230
1.0
 70
     8
 71
     3
 72
     9
 73
     5
 74
     0
 42
0.00000001
 43
0.00000001
 40
0.0
 40
0.0
 40
0.0
 40
0.0
 40
0.2501885139296514
 40
1.0
 40
1.0
 40
1.0
 40
1.0
 10
130.067876343986
 20
203.2272014617771
 30
0.0
 10
130.0682822767764
 20
203.227201258266
 30
0.0
 10
130.0699047844768
 20
203.2272004448348
 30
0.0
 10
130.0715243166606
 20
203.2272003617627
 30
0.0
 10
130.0727386604941
 20
203.2272002994742
 30
0.0
  0
SPLINE
  5
25A
330
1F
100
AcDbEntity
  8
0
  6
CONTINUOUS
 62
     7
100
AcDbSpline
210
0.0
220
0.0
230
1.0
 70
     8
 71
     3
 72
    28
 73
    24
 74
     0
 42
0.00000001
 43
0.00000001
 40
0.0
 40
0.0
 40
0.0
 40
0.0
 40
0.0069592670321163
 40
0.015918617351204
 40
0.0250931948441808
 40
0.0355111971177586
 40
0.0488165192946458
 40
0.0675113424991214
 40
0.0962055373021468
 40
0.1478003632905954
 40
0.2065922140551026
 40
0.265431116848622
 40
0.338663262460663
 40
0.4118767339835974
 40
0.4852774939532247
 40
0.5590010324140605
 40
0.6323573262876551
 40
0.7058450496630244
 40
0.7794290136536607
 40
0.8527297654832364
 40
0.9178933282715729
 40
0.9868068130293665
 40
1.0
 40
1.0
 40
1.0
 40
1.0
 10
128.4483895284711
 20
203.2616138905018
 30
0.0
 10
128.4564766486715
 20
203.2563732308173
 30
0.0
 10
128.4749751157299
 20
203.2443857534291
 30
0.0
 10
128.5025288623075
 20
203.2349528270116
 30
0.0
 10
128.5261784230325
 20
203.2295190506943
 30
0.0
 10
128.5437948442981
 20
203.2274803098624
 30
0.0
 10
128.5572185964782
 20
203.2267669566046
 30
0.0
 10
128.5680305932163
 20
203.2267288417589
 30
0.0
 10
128.5787495104316
 20
203.2269321292074
 30
0.0
 10
128.5910947385889
 20
203.2272589536425
 30
0.0
 10
128.6195275907862
 20
203.2272308657462
 30
0.0
 10
128.6659639191942
 20
203.2272521387202
 30
0.0
 10
128.7293803539092
 20
203.2272550473236
 30
0.0
 10
128.814322819657
 20
203.2272587775391
 30
0.0
 10
128.9159419894268
 20
203.2272561104541
 30
0.0
 10
129.0339090675895
 20
203.2272497774327
 30
0.0
 10
129.1680774996119
 20
203.2272405386867
 30
0.0
 10
129.3176810483924
 20
203.2272384008667
 30
0.0
 10
129.4827171111664
 20
203.227209310091
 30
0.0
 10
129.6551498975416
 20
203.2272826261967
 30
0.0
 10
129.8385607648833
 20
203.2268546655453
 30
0.0
 10
129.9754623505687
 20
203.2262253964594
 30
0.0
 10
130.0571033904199
 20
203.2273614108276
 30
0.0
 10
130.0702217580331
 20
203.2275439495865
 30
0.0
  0
LINE
  5
25B
330
1F
100
AcDbEntity
  8
0
  6
CONTINUOUS
 62
     7
100
AcDbLine
 10
185.6636684349
 20
203.2272002147
 30
0.0
 11
185.6645102614
 21
203.2272001908
 31
0.0
  0
SPLINE
  5
25C
330
1F
100
AcDbEntity
  8
0
  6
CONTINUOUS
 62
     7
100
AcDbSpline
210
0.0
220
0.0
230
1.0
 70
     8
 71
     3
 72
    28
 73
    24
 74
     0
 42
0.00000001
 43
0.00000001
 40
0.0
 40
0.0
 40
0.0
 40
0.0
 40
0.0416444456986797
 40
0.1105970356814073
 40
0.1815177999390591
 40
0.2538510625811955
 40
0.3263073796347848
 40
0.3989608973358575
 40
0.4717867096736515
 40
0.5447723875474331
 40
0.6177406922345183
 40
0.6900865504822125
 40
0.7625503781163235
 40
0.8351130182440843
 40
0.8887804831286672
 40
0.9374904745969375
 40
0.9589794163881566
 40
0.9678215783024091
 40
0.975105570895879
 40
0.9788589494551931
 40
0.983553954515268
 40
0.9912547732890794
 40
1.0
 40
1.0
 40
1.0
 40
1.0
 10
185.6627349416465
 20
203.2274002485937
 30
0.0
 10
185.7041497255924
 20
203.2273049473349
 30
0.0
 10
185.8141368381822
 20
203.2270518514769
 30
0.0
 10
185.9798989553651
 20
203.22727480452
 30
0.0
 10
186.162685459793
 20
203.22721808525
 30
0.0
 10
186.3335151827708
 20
203.2272461288208
 30
0.0
 10
186.4908377070743
 20
203.2272486420056
 30
0.0
 10
186.6330391205621
 20
203.2272552269724
 30
0.0
 10
186.7596718202269
 20
203.2272572866306
 30
0.0
 10
186.8702373052801
 20
203.2272564978725
 30
0.0
 10
186.964062716145
 20
203.2272523760441
 30
0.0
 10
187.041001112216
 20
203.2272460166689
 30
0.0
 10
187.1012401397488
 20
203.2272369220501
 30
0.0
 10
187.1403022510959
 20
203.227230175065
 30
0.0
 10
187.1643227142824
 20
203.2272144229977
 30
0.0
 10
187.1705755215101
 20
203.2272239690907
 30
0.0
 10
187.1736623845268
 20
203.227136549562
 30
0.0
 10
187.1793068339797
 20
203.2271743508801
 30
0.0
 10
187.1868108364546
 20
203.2272887126632
 30
0.0
 10
187.2020739412183
 20
203.22854817027
 30
0.0
 10
187.2249839854377
 20
203.2323910092512
 30
0.0
 10
187.2573768682027
 20
203.242000597137
 30
0.0
 10
187.2794586644943
 20
203.2564191327461
 30
0.0
 10
187.2912007160977
 20
203.2640862258998
 30
0.0
  0
LINE
  5
25D
330
1F
100
AcDbEntity
  8
0
  6
CONTINUOUS
 62
     7
100
AcDbLine
 10
151.9014190667
 20
189.3711255492
 30
0.0
 11
151.88710776
 21
189.3711255492
 31
0.0
  0
LINE
  5
25E
330
1F
100
AcDbEntity
  8
0
  6
CONTINUOUS
 62
     7
100
AcDbLine
 10
151.88710776
 20
189.3711255492
 30
0.0
 11
151.8870739941
 21
189.3730599934
 31
0.0
  0
LINE
  5
25F
330
1F
100
AcDbEntity
  8
0
  6
CONTINUOUS
 62
     7
100
AcDbLine
 10
163.8489363031
 20
189.3730599934
 30
0.0
 11
163.8489025373
 21
189.3711255492
 31
0.0
  0
LINE
  5
260
330
1F
100
AcDbEntity
  8
0
  6
CONTINUOUS
 62
     7
100
AcDbLine
 10
163.8489025373
 20
189.3711255492
 30
0.0
 11
163.8345912305
 21
189.3711255492
 31
0.0
  0
ARC
  5
261
330
1F
100
AcDbEntity
  8
0
  6
CONTINUOUS
 62
     7
100
AcDbCircle
 10
157.8680051486
 20
233.6711238622
 30
0.0
 40
44.70000000000002
100
AcDbArc
 50
274.6402271083
 51
306.8326108744
  0
SPLINE
  5
262
330
1F
100
AcDbEntity
  8
0
  6
CONTINUOUS
 62
     7
100
AcDbSpline
210
0.0
220
0.0
230
1.0
 70
     8
 71
     3
 72
     8
 73
     4
 74
     0
 42
0.00000001
 43
0.00000001
 40
0.0
 40
0.0
 40
0.0
 40
0.0
 40
1.0
 40
1.0
 40
1.0
 40
1.0
 10
160.5680051486143
 20
189.0529131603129
 30
0.0
 10
160.8789266944948
 20
189.0717235243824
 30
0.0
 10
161.1843111807894
 20
189.0932972301528
 30
0.0
 10
161.484178757725
 20
189.1176359131125
 30
0.0
  0
SPLINE
  5
263
330
1F
100
AcDbEntity
  8
0
  6
CONTINUOUS
 62
     7
100
AcDbSpline
210
0.0
220
0.0
230
1.0
 70
     8
 71
     3
 72
    10
 73
     6
 74
     0
 42
0.00000001
 43
0.00000001
 40
0.0
 40
0.0
 40
0.0
 40
0.0
 40
0.5
 40
0.5
 40
1.0
 40
1.0
 40
1.0
 40
1.0
 10
155.1680051486143
 20
189.0529131603129
 30
0.0
 10
156.0634616171227
 20
188.9987391656052
 30
0.0
 10
156.9634237579849
 20
188.9713150178722
 30
0.0
 10
158.7725865392403
 20
188.9713150178721
 30
0.0
 10
159.672548680106
 20
188.9987391656051
 30
0.0
 10
160.5680051486143
 20
189.0529131603129
 30
0.0
  0
SPLINE
  5
264
330
1F
100
AcDbEntity
  8
0
  6
CONTINUOUS
 62
     7
100
AcDbSpline
210
0.0
220
0.0
230
1.0
 70
     8
 71
     3
 72
     8
 73
     4
 74
     0
 42
0.00000001
 43
0.00000001
 40
0.0
 40
0.0
 40
0.0
 40
0.0
 40
1.0
 40
1.0
 40
1.0
 40
1.0
 10
155.1680051486143
 20
189.0529131603129
 30
0.0
 10
154.8570836027326
 20
189.0717235243825
 30
0.0
 10
154.5516991164369
 20
189.093297230153
 30
0.0
 10
154.2518315395002
 20
189.1176359131128
 30
0.0
  0
ARC
  5
265
330
1F
100
AcDbEntity
  8
0
  6
CONTINUOUS
 62
     7
100
AcDbCircle
 10
157.8680051486
 20
233.6711238622
 30
0.0
 40
44.70000000000002
100
AcDbArc
 50
233.1673891256
 51
265.3597728917
  0
LINE
  5
266
330
1F
100
AcDbEntity
  8
0
  6
CONTINUOUS
 62
     7
100
AcDbLine
 10
129.3594967667
 20
203.8171060652
 30
0.0
 11
186.3765136996
 21
203.8171060652
 31
0.0
  0
SPLINE
  5
267
330
1F
100
AcDbEntity
  8
0
  6
CONTINUOUS
 62
     7
100
AcDbSpline
210
0.0
220
0.0
230
1.0
 70
     8
 71
     3
 72
     8
 73
     4
 74
     0
 42
0.00000001
 43
0.00000001
 40
0.0
 40
0.0
 40
0.0
 40
0.0
 40
1.0
 40
1.0
 40
1.0
 40
1.0
 10
186.3765136995914
 20
203.8171060651649
 30
0.0
 10
186.3785674131588
 20
203.8171060361885
 30
0.0
 10
186.3806208278045
 20
203.8171071668228
 30
0.0
 10
186.3826739435015
 20
203.8171094571702
 30
0.0
  0
SPLINE
  5
268
330
1F
100
AcDbEntity
  8
0
  6
CONTINUOUS
 62
     7
100
AcDbSpline
210
0.0
220
0.0
230
1.0
 70
     8
 71
     3
 72
     8
 73
     4
 74
     0
 42
0.00000001
 43
0.00000001
 40
0.0
 40
0.0
 40
0.0
 40
0.0
 40
1.0
 40
1.0
 40
1.0
 40
1.0
 10
129.3533363537271
 20
203.8171094571704
 30
0.0
 10
129.3553895257787
 20
203.8171071667601
 30
0.0
 10
129.3574429967957
 20
203.8171060361265
 30
0.0
 10
129.3594967667511
 20
203.8171060651673
 30
0.0
  0
LINE
  5
269
330
1F
100
AcDbEntity
  8
0
  6
CONTINUOUS
 62
     7
100
AcDbLine
 10
187.3455955278
 20
229.8711238622
 30
0.0
 11
128.3904147695
 21
229.8711238622
 31
0.0
  0
LINE
  5
26A
330
1F
100
AcDbEntity
  8
0
  6
CONTINUOUS
 62
     7
100
AcDbLine
 10
186.5515751697
 20
230.6711238622
 30
0.0
 11
129.1844307505
 21
230.6711238622
 31
0.0
  0
SPLINE
  5
26B
330
1F
100
AcDbEntity
  8
0
  6
CONTINUOUS
 62
     7
100
AcDbSpline
210
0.0
220
0.0
230
1.0
 70
     8
 71
     3
 72
    10
 73
     6
 74
     0
 42
0.00000001
 43
0.00000001
 40
0.0
 40
0.0
 40
0.0
 40
0.0
 40
0.5
 40
0.5
 40
1.0
 40
1.0
 40
1.0
 40
1.0
 10
186.3826739435015
 20
203.8171094571702
 30
0.0
 10
186.9334182593849
 20
203.817723838428
 30
0.0
 10
187.3542029543507
 20
203.8180436322163
 30
0.0
 10
187.9364875260282
 20
203.8180439349861
 30
0.0
 10
188.0826130926566
 20
203.8177233316276
 30
0.0
 10
188.0825916295373
 20
203.8171087083081
 30
0.0
  0
LINE
  5
26C
330
1F
100
AcDbEntity
  8
0
  6
CONTINUOUS
 62
     7
100
AcDbLine
 10
188.9924178871
 20
229.8711238622
 30
0.0
 11
188.0825916295
 21
203.8171087083
 31
0.0
  0
SPLINE
  5
26D
330
1F
100
AcDbEntity
  8
0
  6
CONTINUOUS
 62
     7
100
AcDbSpline
210
0.0
220
0.0
230
1.0
 70
    24
 71
     3
 72
    12
 73
     8
 74
     0
 42
0.00000001
 43
0.00000001
 40
0.0
 40
0.0
 40
0.0
 40
0.0
 40
0.5000000000000003
 40
0.5000000000000003
 40
0.7500000000000001
 40
0.7500000000000001
 40
1.0
 40
1.0
 40
1.0
 40
1.0
 10
188.9924178870606
 20
229.8711238621921
 30
0.0
 10
188.9924178870606
 20
229.8711238621921
 30
0.0
 10
188.8514418482318
 20
229.871123862192
 30
0.0
 10
188.4302108237707
 20
229.871123862192
 30
0.0
 10
188.2561658476247
 20
229.871123862192
 30
0.0
 10
187.8476966136897
 20
229.871123862192
 30
0.0
 10
187.6126282387116
 20
229.871123862192
 30
0.0
 10
187.3455955277511
 20
229.871123862192
 30
0.0
  0
SPLINE
  5
26E
330
1F
100
AcDbEntity
  8
0
  6
CONTINUOUS
 62
     7
100
AcDbSpline
210
0.0
220
0.0
230
1.0
 70
     8
 71
     3
 72
    10
 73
     6
 74
     0
 42
0.00000001
 43
0.00000001
 40
0.0
 40
0.0
 40
0.0
 40
0.0
 40
0.5
 40
0.5
 40
1.0
 40
1.0
 40
1.0
 40
1.0
 10
127.6534186676914
 20
203.8171087083083
 30
0.0
 10
127.6533972045741
 20
203.8177233315696
 30
0.0
 10
127.7990134584716
 20
203.8180433747683
 30
0.0
 10
128.3808087778046
 20
203.8180441918153
 30
0.0
 10
128.8025919385496
 20
203.8177238385546
 30
0.0
 10
129.3533363537271
 20
203.8171094571704
 30
0.0
  0
LINE
  5
26F
330
1F
100
AcDbEntity
  8
0
  6
CONTINUOUS
 62
     7
100
AcDbLine
 10
127.6534186677
 20
203.8171087083
 30
0.0
 11
126.7435924102
 21
229.8711238622
 31
0.0
  0
SPLINE
  5
270
330
1F
100
AcDbEntity
  8
0
  6
CONTINUOUS
 62
     7
100
AcDbSpline
210
0.0
220
0.0
230
1.0
 70
    24
 71
     3
 72
    12
 73
     8
 74
     0
 42
0.00000001
 43
0.00000001
 40
0.0
 40
0.0
 40
0.0
 40
0.0
 40
0.4999999999999959
 40
0.4999999999999959
 40
0.7499999999999979
 40
0.7499999999999979
 40
1.0
 40
1.0
 40
1.0
 40
1.0
 10
128.3904147694776
 20
229.8711238621919
 30
0.0
 10
127.8563442370689
 20
229.8711238621919
 30
0.0
 10
127.4491092688299
 20
229.871123862192
 30
0.0
 10
127.0268738906497
 20
229.871123862192
 30
0.0
 10
126.9208260814976
 20
229.871123862192
 30
0.0
 10
126.7795438455424
 20
229.871123862192
 30
0.0
 10
126.743592410168
 20
229.871123862192
 30
0.0
 10
126.743592410168
 20
229.871123862192
 30
0.0
  0
LINE
  5
271
330
1F
100
AcDbEntity
  8
0
  6
CONTINUOUS
 62
     7
100
AcDbLine
 10
127.7435924102
 20
230.6711238622
 30
0.0
 11
126.9435924102
 21
229.8711238622
 31
0.0
  0
LINE
  5
272
330
1F
100
AcDbEntity
  8
0
  6
CONTINUOUS
 62
     7
100
AcDbLine
 10
129.1844307505
 20
230.6711238622
 30
0.0
 11
127.7435924102
 21
230.6711238622
 31
0.0
  0
LINE
  5
273
330
1F
100
AcDbEntity
  8
0
  6
CONTINUOUS
 62
     7
100
AcDbLine
 10
187.9924178871
 20
230.6711238622
 30
0.0
 11
188.7924178871
 21
229.8711238622
 31
0.0
  0
LINE
  5
274
330
1F
100
AcDbEntity
  8
0
  6
CONTINUOUS
 62
     7
100
AcDbLine
 10
187.9924178871
 20
230.6711238622
 30
0.0
 11
186.5515751697
 21
230.6711238622
 31
0.0
  0
LINE
  5
275
330
1F
100
AcDbEntity
  8
0
  6
CONTINUOUS
 62
     7
100
AcDbLine
 10
128.4442362329
 20
203.2633697097
 30
0.0
 11
128.4442362666
 21
203.2633697325
 31
0.0
  0
ARC
  5
276
330
1F
100
AcDbEntity
  8
0
  6
CONTINUOUS
 62
     7
100
AcDbCircle
 10
187.2917800678
 20
203.2633785718
 30
0.0
 40
0.000010704180421
100
AcDbArc
 50
235.6670632737
 51
235.885035413
  0
SPLINE
  5
277
330
1F
100
AcDbEntity
  8
0
  6
CONTINUOUS
 62
     7
100
AcDbSpline
210
0.0
220
0.0
230
1.0
 70
    24
 71
     3
 72
    18
 73
    14
 74
     0
 42
0.00000001
 43
0.00000001
 40
0.0
 40
0.0
 40
0.0
 40
0.0
 40
0.0499616859546642
 40
0.1376904461607759
 40
0.2255476438273196
 40
0.3209262409813716
 40
0.4163873310828588
 40
0.511848421184346
 40
0.6072270183383982
 40
0.7053753129029487
 40
0.8036135091691982
 40
0.9018517054354453
 40
1.0
 40
1.0
 40
1.0
 40
1.0
 10
185.9705191677468
 20
203.2272180404834
 30
0.0
 10
185.9670246237885
 20
203.1271473945858
 30
0.0
 10
185.9573939376427
 20
202.8513606268266
 30
0.0
 10
185.9432878744314
 20
202.4474158278819
 30
0.0
 10
185.9276612035429
 20
201.9999265223502
 30
0.0
 10
185.9133956539321
 20
201.5914146304743
 30
0.0
 10
185.900593528745
 20
201.2248097310578
 30
0.0
 10
185.8896856804043
 20
200.912449823202
 30
0.0
 10
185.8806073046178
 20
200.6524791547817
 30
0.0
 10
185.8734399153891
 20
200.4472319814519
 30
0.0
 10
185.8682976207981
 20
200.2999759310892
 30
0.0
 10
185.8650650728335
 20
200.2074078688259
 30
0.0
 10
185.8646632394449
 20
200.1959008661324
 30
0.0
 10
185.8644624147261
 20
200.1901499986203
 30
0.0
  0
ARC
  5
278
330
1F
100
AcDbEntity
  8
0
  6
CONTINUOUS
 62
     7
100
AcDbCircle
 10
182.8662899337
 20
200.2948484887
 30
0.0
 40
3.000000000000023
100
AcDbArc
 50
306.8326108744
 51
358.0
  0
ARC
  5
279
330
1F
100
AcDbEntity
  8
0
  6
CONTINUOUS
 62
     7
100
AcDbCircle
 10
132.8697203636
 20
200.2948484887
 30
0.0
 40
2.999999999999994
100
AcDbArc
 50
182.0
 51
233.1673891256
  0
SPLINE
  5
27A
330
1F
100
AcDbEntity
  8
0
  6
CONTINUOUS
 62
     7
100
AcDbSpline
210
0.0
220
0.0
230
1.0
 70
    24
 71
     3
 72
    18
 73
    14
 74
     0
 42
0.00000001
 43
0.00000001
 40
0.0
 40
0.0
 40
0.0
 40
0.0
 40
0.0950940135466773
 40
0.1901880270933553
 40
0.2859425807885305
 40
0.3816971344837045
 40
0.4673384533045121
 40
0.5529797721253185
 40
0.6637334123081705
 40
0.7744870524910229
 40
0.8617108846863295
 40
0.9490609346537842
 40
0.9999999999999999
 40
0.9999999999999999
 40
0.9999999999999999
 40
0.9999999999999999
 10
129.8715478825025
 20
200.1901499986203
 30
0.0
 10
129.8713604307403
 20
200.195517914762
 30
0.0
 10
129.8709855272159
 20
200.2062537470453
 30
0.0
 10
129.8679529995982
 20
200.2930939759922
 30
0.0
 10
129.8630969179493
 20
200.4321539600525
 30
0.0
 10
129.856478349113
 20
200.6216849736192
 30
0.0
 10
129.8483955543356
 20
200.8531459320991
 30
0.0
 10
129.838163464395
 20
201.1461546512507
 30
0.0
 10
129.8249104477239
 20
201.5256713934062
 30
0.0
 10
129.8092658768832
 20
201.9736732865038
 30
0.0
 10
129.7928208697766
 20
202.4445966752489
 30
0.0
 10
129.7787270913459
 20
202.8481896841032
 30
0.0
 10
129.7690605010086
 20
203.1250046133826
 30
0.0
 10
129.7654997936041
 20
203.2269699324851
 30
0.0
  0
LINE
  5
27B
330
1F
100
AcDbEntity
  8
0
  6
CONTINUOUS
 62
     7
100
AcDbLine
 10
187.2917740646
 20
203.2633697094
 30
0.0
 11
187.2854328105
 21
203.2591076766
 31
0.0
  0
LINE
  5
27C
330
1F
100
AcDbEntity
  8
0
  6
CONTINUOUS
 62
     7
100
AcDbLine
 10
128.4522698727
 20
203.2580285305
 30
0.0
 11
128.4442362327
 21
203.2633697095
 31
0.0
  0
SPLINE
  5
27D
330
1F
100
AcDbEntity
  8
0
  6
CONTINUOUS
 62
     7
100
AcDbSpline
210
0.0
220
0.0
230
1.0
 70
     8
 71
     3
 72
    10
 73
     6
 74
     0
 42
0.00000001
 43
0.00000001
 40
0.0
 40
0.0
 40
0.0
 40
0.0
 40
0.0128922056118092
 40
0.9223713549933164
 40
1.0
 40
1.0
 40
1.0
 40
1.0
 10
155.1680051486143
 20
189.0527420000043
 30
0.0
 10
155.1661021331082
 20
189.0528572680174
 30
0.0
 10
155.0299511094732
 20
189.0611041046454
 30
0.0
 10
154.881177735152
 20
189.0703102644506
 30
0.0
 10
154.7379002606337
 20
189.0809857140713
 30
0.0
 10
154.7266325588993
 20
189.0818252583375
 30
0.0
  0
SPLINE
  5
27E
330
1F
100
AcDbEntity
  8
0
  6
CONTINUOUS
 62
     7
100
AcDbSpline
210
0.0
220
0.0
230
1.0
 70
     8
 71
     3
 72
    11
 73
     7
 74
     0
 42
0.00000001
 43
0.00000001
 40
0.0
 40
0.0
 40
0.0
 40
0.0
 40
0.2695387064889441
 40
0.539941315016182
 40
0.8094849843720536
 40
1.0
 40
1.0
 40
1.0
 40
1.0
 10
164.1598129892503
 20
189.416144999961
 30
0.0
 10
164.1554254061444
 20
189.4155100693354
 30
0.0
 10
164.1466361772327
 20
189.4142381730597
 30
0.0
 10
164.0751298303616
 20
189.4041474705445
 30
0.0
 10
163.9792878571608
 20
189.3907596373808
 30
0.0
 10
163.8871092953481
 20
189.3782798587227
 30
0.0
 10
163.8489372083568
 20
189.3731118545013
 30
0.0
  0
SPLINE
  5
27F
330
1F
100
AcDbEntity
  8
0
  6
CONTINUOUS
 62
     7
100
AcDbSpline
210
0.0
220
0.0
230
1.0
 70
     8
 71
     3
 72
    11
 73
     7
 74
     0
 42
0.00000001
 43
0.00000001
 40
0.0
 40
0.0
 40
0.0
 40
0.0
 40
0.0827852961499197
 40
0.5017443855761973
 40
0.9193905177987726
 40
0.9999999999999999
 40
0.9999999999999999
 40
0.9999999999999999
 40
0.9999999999999999
 10
163.8343099838926
 20
189.3711255492458
 30
0.0
 10
163.8243261529191
 20
189.3697658009824
 30
0.0
 10
163.7638162390763
 20
189.3615246508183
 30
0.0
 10
163.6106643438298
 20
189.3414893385348
 30
0.0
 10
163.4493898715534
 20
189.3206064303328
 30
0.0
 10
163.3416429210141
 20
189.3076080470397
 30
0.0
 10
163.3242112541341
 20
189.3055051245308
 30
0.0
  0
SPLINE
  5
280
330
1F
100
AcDbEntity
  8
0
  6
CONTINUOUS
 62
     7
100
AcDbSpline
210
0.0
220
0.0
230
1.0
 70
     8
 71
     3
 72
     9
 73
     5
 74
     0
 42
0.00000001
 43
0.00000001
 40
0.0
 40
0.0
 40
0.0
 40
0.0
 40
0.1066864563318443
 40
1.0
 40
1.0
 40
1.0
 40
1.0
 10
161.0081459120366
 20
189.0817445675938
 30
0.0
 10
160.9926876790921
 20
189.080597478526
 30
0.0
 10
160.8477936271567
 20
189.0698455133068
 30
0.0
 10
160.7000164776834
 20
189.0608118731262
 30
0.0
 10
160.5680051486143
 20
189.0527420000043
 30
0.0
  0
SPLINE
  5
281
330
1F
100
AcDbEntity
  8
0
  6
CONTINUOUS
 62
     7
100
AcDbSpline
210
0.0
220
0.0
230
1.0
 70
     8
 71
     3
 72
     9
 73
     5
 74
     0
 42
0.00000001
 43
0.00000001
 40
0.0
 40
0.0
 40
0.0
 40
0.0
 40
0.5
 40
1.0
 40
1.0
 40
1.0
 40
1.0
 10
163.2074186688305
 20
236.0542807229982
 30
0.0
 10
161.4276141620918
 20
236.3304112260925
 30
0.0
 10
157.8680051486143
 20
236.6115813521271
 30
0.0
 10
154.3083961351369
 20
236.3304112260925
 30
0.0
 10
152.5285916283981
 20
236.0542807229982
 30
0.0
  0
SPLINE
  5
282
330
1F
100
AcDbEntity
  8
0
  6
CONTINUOUS
 62
     7
100
AcDbSpline
210
0.0
220
0.0
230
1.0
 70
    24
 71
     3
 72
     8
 73
     4
 74
     0
 42
0.00000001
 43
0.00000001
 40
0.000000280327229
 40
0.000000280327229
 40
0.000000280327229
 40
0.000000280327229
 40
0.0057229504518291
 40
0.0057229504518291
 40
0.0057229504518291
 40
0.0057229504518291
 10
163.2074186688305
 20
236.0542807229979
 30
0.0
 10
163.2540665272663
 20
237.3901006122718
 30
0.0
 10
163.3006597834829
 20
238.7243568985642
 30
0.0
 10
163.3471716673716
 20
240.0562829862675
 30
0.0
  0
SPLINE
  5
283
330
1F
100
AcDbEntity
  8
0
  6
CONTINUOUS
 62
     7
100
AcDbSpline
210
0.0
220
0.0
230
1.0
 70
     8
 71
     3
 72
    12
 73
     8
 74
     0
 42
0.00000001
 43
0.00000001
 40
0.0
 40
0.0
 40
0.0
 40
0.0
 40
0.5
 40
0.5
 40
0.75
 40
0.75
 40
1.0
 40
1.0
 40
1.0
 40
1.0
 10
163.3471716673716
 20
240.0562829862678
 30
0.0
 10
161.5322319551449
 20
240.4081381241329
 30
0.0
 10
159.7104021944534
 20
240.5916080800267
 30
0.0
 10
156.9664496422587
 20
240.5929040320279
 30
0.0
 10
156.0499424007446
 20
240.5479678736538
 30
0.0
 10
154.2132239718649
 20
240.3675752072398
 30
0.0
 10
153.2968033489237
 20
240.232306492311
 30
0.0
 10
152.388838629857
 20
240.0562829862675
 30
0.0
  0
SPLINE
  5
284
330
1F
100
AcDbEntity
  8
0
  6
CONTINUOUS
 62
     7
100
AcDbSpline
210
0.0
220
0.0
230
1.0
 70
    24
 71
     3
 72
     8
 73
     4
 74
     0
 42
0.00000001
 43
0.00000001
 40
0.0000002795433706
 40
0.0000002795433706
 40
0.0000002795433706
 40
0.0000002795433706
 40
0.0057229496679707
 40
0.0057229496679707
 40
0.0057229496679707
 40
0.0057229496679707
 10
152.3888386298571
 20
240.0562829862675
 30
0.0
 10
152.4353505137458
 20
238.7243568985642
 30
0.0
 10
152.4819437699623
 20
237.3901006122718
 30
0.0
 10
152.5285916283981
 20
236.0542807229979
 30
0.0
  0
LINE
  5
285
330
1F
100
AcDbEntity
  8
0
  6
CONTINUOUS
 62
     7
100
AcDbLine
 10
141.1292491845
 20
244.6811238622
 30
0.0
 11
174.6067611132
 21
244.6811238622
 31
0.0
  0
LINE
  5
286
330
1F
100
AcDbEntity
  8
0
  6
CONTINUOUS
 62
     7
100
AcDbLine
 10
186.9054335945
 20
233.9047513978
 30
0.0
 11
187.0180051486
 21
230.6811238622
 31
0.0
  0
LINE
  5
287
330
1F
100
AcDbEntity
  8
0
  6
CONTINUOUS
 62
     7
100
AcDbLine
 10
128.7180051486
 20
230.6811238622
 30
0.0
 11
128.8305766986
 21
233.9047512795
 31
0.0
  0
SPLINE
  5
288
330
1F
100
AcDbEntity
  8
0
  6
CONTINUOUS
 62
     7
100
AcDbSpline
210
0.0
220
0.0
230
1.0
 70
    24
 71
     3
 72
    15
 73
    11
 74
     0
 42
0.00000001
 43
0.00000001
 40
0.0
 40
0.0
 40
0.0
 40
0.0
 40
0.1155441432896951
 40
0.2337828991101398
 40
0.3547200907211204
 40
0.4783592910537908
 40
0.604703843807047
 40
0.7337568823970207
 40
0.8655213470130817
 40
1.0
 40
1.0
 40
1.0
 40
1.0
 10
177.1985873657692
 20
243.9922872595708
 30
0.0
 10
177.5593648449806
 20
243.6315097803594
 30
0.0
 10
178.2893335186176
 20
242.9015411067224
 30
0.0
 10
179.399044042131
 20
241.7918305832089
 30
0.0
 10
180.5355193498321
 20
240.6553552755078
 30
0.0
 10
181.698927879762
 20
239.4919467455779
 30
0.0
 10
182.8892167166806
 20
238.3016579086593
 30
0.0
 10
184.1064256337522
 20
237.0844489915877
 30
0.0
 10
185.3504478346076
 20
235.8404267907324
 30
0.0
 10
186.1893796879683
 20
235.0014949373716
 30
0.0
 10
186.6131218173555
 20
234.5777528079844
 30
0.0
  0
SPLINE
  5
289
330
1F
100
AcDbEntity
  8
0
  6
CONTINUOUS
 62
     7
100
AcDbSpline
210
0.0
220
0.0
230
1.0
 70
    24
 71
     3
 72
    14
 73
    10
 74
     0
 42
0.00000001
 43
0.00000001
 40
0.0
 40
0.0
 40
0.0
 40
0.0
 40
0.1491248334201962
 40
0.2949047838677628
 40
0.4373436704392933
 40
0.6248723244169351
 40
0.8067488184411223
 40
0.904302153927257
 40
0.9999999999999999
 40
0.9999999999999999
 40
0.9999999999999999
 40
0.9999999999999999
 10
129.1228870063728
 20
234.5777513344841
 30
0.0
 10
129.5927961518509
 20
235.0476604799622
 30
0.0
 10
130.5220743398389
 20
235.9769386679502
 30
0.0
 10
131.89827443526
 20
237.3531387633713
 30
0.0
 10
133.3936331649036
 20
238.8484974930148
 30
0.0
 10
135.0000121404086
 20
240.4548764685199
 30
0.0
 10
136.4626672324668
 20
241.9175315605781
 30
0.0
 10
137.6358293336072
 20
243.0906936617185
 30
0.0
 10
138.2392318506755
 20
243.6940961787868
 30
0.0
 10
138.5380363430077
 20
243.992900671119
 30
0.0
  0
SPLINE
  5
28A
330
1F
100
AcDbEntity
  8
0
  6
CONTINUOUS
 62
     7
100
AcDbSpline
210
0.0
220
0.0
230
1.0
 70
     8
 71
     3
 72
    10
 73
     6
 74
     0
 42
0.00000001
 43
0.00000001
 40
0.0
 40
0.0
 40
0.0
 40
0.0
 40
0.5
 40
0.5
 40
1.0
 40
1.0
 40
1.0
 40
1.0
 10
175.5355977829341
 20
244.6811238621503
 30
0.0
 10
175.8434494288261
 20
244.6811238621504
 30
0.0
 10
176.1511799482413
 20
244.6199124560183
 30
0.0
 10
176.72001561762
 20
244.384293006999
 30
0.0
 10
176.980896955038
 20
244.2099776703037
 30
0.0
 10
177.1985809414471
 20
243.9922936838933
 30
0.0
  0
SPLINE
  5
28B
330
1F
100
AcDbEntity
  8
0
  6
CONTINUOUS
 62
     7
100
AcDbSpline
210
0.0
220
0.0
230
1.0
 70
    24
 71
     3
 72
    19
 73
    15
 74
     0
 42
0.00000001
 43
0.00000001
 40
0.0
 40
0.0
 40
0.0
 40
0.0
 40
0.0856169367317916
 40
0.1699694208006824
 40
0.2532998293102717
 40
0.3358595416201019
 40
0.4179070212371827
 40
0.4997055874035491
 40
0.5815209627480216
 40
0.6636187066827051
 40
0.7462616566306632
 40
0.8297074983099139
 40
0.9142065723376519
 40
1.0
 40
1.0
 40
1.0
 40
1.0
 10
174.6067840575067
 20
244.6811238621501
 30
0.0
 10
174.6527162271311
 20
244.6811238621501
 30
0.0
 10
174.7439022069755
 20
244.6811238621501
 30
0.0
 10
174.8690092944957
 20
244.6811238621501
 30
0.0
 10
174.9840171569415
 20
244.6811238621501
 30
0.0
 10
175.0882065088371
 20
244.6811238621501
 30
0.0
 10
175.1817607031035
 20
244.6811238621501
 30
0.0
 10
175.2646245263736
 20
244.6811238621501
 30
0.0
 10
175.336812839849
 20
244.6811238621501
 30
0.0
 10
175.3983028809263
 20
244.6811238621501
 30
0.0
 10
175.4491613345492
 20
244.6811238621501
 30
0.0
 10
175.4891395807889
 20
244.6811238621501
 30
0.0
 10
175.5191875133722
 20
244.6811238621501
 30
0.0
 10
175.5301000452045
 20
244.6811238621501
 30
0.0
 10
175.5355977829267
 20
244.6811238621501
 30
0.0
  0
SPLINE
  5
28C
330
1F
100
AcDbEntity
  8
0
  6
CONTINUOUS
 62
     7
100
AcDbSpline
210
0.0
220
0.0
230
1.0
 70
     8
 71
     3
 72
    10
 73
     6
 74
     0
 42
0.00000001
 43
0.00000001
 40
0.0
 40
0.0
 40
0.0
 40
0.0
 40
0.5
 40
0.5
 40
1.0
 40
1.0
 40
1.0
 40
1.0
 10
140.2004172065448
 20
244.6811238621501
 30
0.0
 10
139.900416951729
 20
244.6811238621501
 30
0.0
 10
139.5885468996658
 20
244.6214513156289
 30
0.0
 10
139.0122856737177
 20
244.3827572725309
 30
0.0
 10
138.7495641492362
 20
244.2044279066798
 30
0.0
 10
138.5374315926109
 20
243.9922959207192
 30
0.0
  0
SPLINE
  5
28D
330
1F
100
AcDbEntity
  8
0
  6
CONTINUOUS
 62
     7
100
AcDbSpline
210
0.0
220
0.0
230
1.0
 70
    24
 71
     3
 72
    19
 73
    15
 74
     0
 42
0.00000001
 43
0.00000001
 40
0.0
 40
0.0
 40
0.0
 40
0.0
 40
0.0857934258822503
 40
0.1702924984627086
 40
0.2537383390314016
 40
0.3363812882067062
 40
0.4184790317048149
 40
0.5002944069437436
 40
0.5820929733273225
 40
0.6641404534729358
 40
0.7467001666083242
 40
0.8300305762236995
 40
0.9143830616598078
 40
0.9999999999999999
 40
0.9999999999999999
 40
0.9999999999999999
 40
0.9999999999999999
 10
140.2004125143021
 20
244.6811238621501
 30
0.0
 10
140.2059102518346
 20
244.6811238621501
 30
0.0
 10
140.2168227833097
 20
244.6811238621501
 30
0.0
 10
140.2468707154545
 20
244.6811238621501
 30
0.0
 10
140.2868489613498
 20
244.6811238621501
 30
0.0
 10
140.3377074147359
 20
244.6811238621501
 30
0.0
 10
140.3991974556772
 20
244.6811238621501
 30
0.0
 10
140.471385769118
 20
244.6811238621501
 30
0.0
 10
140.5542495924531
 20
244.6811238621501
 30
0.0
 10
140.6478037868831
 20
244.6811238621501
 30
0.0
 10
140.7519931390422
 20
244.6811238621501
 30
0.0
 10
140.867001001844
 20
244.6811238621501
 30
0.0
 10
140.9921080898376
 20
244.6811238621501
 30
0.0
 10
141.0832940699106
 20
244.6811238621501
 30
0.0
 10
141.1292262397088
 20
244.6811238621501
 30
0.0
  0
SPLINE
  5
28E
330
1F
100
AcDbEntity
  8
0
  6
CONTINUOUS
 62
     7
100
AcDbSpline
210
0.0
220
0.0
230
1.0
 70
     8
 71
     3
 72
     8
 73
     4
 74
     0
 42
0.00000001
 43
0.00000001
 40
0.0
 40
0.0
 40
0.0
 40
0.0
 40
1.0
 40
1.0
 40
1.0
 40
1.0
 10
186.613121817196
 20
234.5777528081439
 30
0.0
 10
186.7900143786227
 20
234.4008602467173
 30
0.0
 10
186.8966752702405
 20
234.1555569900484
 30
0.0
 10
186.9054058630286
 20
233.9055455236599
 30
0.0
  0
SPLINE
  5
28F
330
1F
100
AcDbEntity
  8
0
  6
CONTINUOUS
 62
     7
100
AcDbSpline
210
0.0
220
0.0
230
1.0
 70
     8
 71
     3
 72
     8
 73
     4
 74
     0
 42
0.00000001
 43
0.00000001
 40
0.0
 40
0.0
 40
0.0
 40
0.0
 40
1.0
 40
1.0
 40
1.0
 40
1.0
 10
129.1228884800327
 20
234.577752808144
 30
0.0
 10
128.945995918606
 20
234.4008602467173
 30
0.0
 10
128.8393350269882
 20
234.1555569900485
 30
0.0
 10
128.8306044342001
 20
233.90554552366
 30
0.0
  0
SPLINE
  5
290
330
1F
100
AcDbEntity
  8
0
  6
CONTINUOUS
 62
     8
100
AcDbSpline
210
0.0
220
0.0
230
1.0
 70
    24
 71
     3
 72
    22
 73
    18
 74
     0
 42
0.00000001
 43
0.00000001
 40
0.0
 40
0.0
 40
0.0
 40
0.0
 40
0.0737830480985585
 40
0.1476928432675571
 40
0.2219875121035716
 40
0.296411588396956
 40
0.3723197893378619
 40
0.4483660320972094
 40
0.5248317454678997
 40
0.6014385712526061
 40
0.6782588409011039
 40
0.7552221993125849
 40
0.8326205008985402
 40
0.9101651528331491
 40
0.952738243812448
 40
0.9953356345939631
 40
1.0
 40
1.0
 40
1.0
 40
1.0
 10
184.6647276879893
 20
197.8936775985505
 30
0.0
 10
184.6649280467027
 20
197.8994151214146
 30
0.0
 10
184.6653291083126
 20
197.9109000232579
 30
0.0
 10
184.6685791766189
 20
198.0039698024641
 30
0.0
 10
184.6737839370232
 20
198.1530146396771
 30
0.0
 10
184.6811888910128
 20
198.3650647776688
 30
0.0
 10
184.6907798088338
 20
198.6397127296104
 30
0.0
 10
184.7026244450524
 20
198.9788987324102
 30
0.0
 10
184.7166617155651
 20
199.3808735662121
 30
0.0
 10
184.7328929026574
 20
199.8456739508717
 30
0.0
 10
184.7512858984568
 20
200.3723804372118
 30
0.0
 10
184.7718434653456
 20
200.9610721295207
 30
0.0
 10
184.7945552801755
 20
201.6114534115029
 30
0.0
 10
184.8156095228655
 20
202.2143680378563
 30
0.0
 10
184.8341155491672
 20
202.74431129429
 30
0.0
 10
184.8445985195155
 20
203.0445042883441
 30
0.0
 10
184.8504052768055
 20
203.2107880608511
 30
0.0
 10
184.850978358299
 20
203.2271989676525
 30
0.0
  0
SPLINE
  5
291
330
1F
100
AcDbEntity
  8
0
  6
CONTINUOUS
 62
     8
100
AcDbSpline
210
0.0
220
0.0
230
1.0
 70
    24
 71
     3
 72
    27
 73
    23
 74
     0
 42
0.00000001
 43
0.00000001
 40
0.0
 40
0.0
 40
0.0
 40
0.0
 40
0.0374891078998131
 40
0.0969676549171415
 40
0.1565124957678473
 40
0.2101444534215108
 40
0.2571391902022934
 40
0.3041339269830751
 40
0.3512598450967717
 40
0.3983857632104684
 40
0.4462761198051214
 40
0.4941664763997748
 40
0.5421956844510093
 40
0.5902248925022429
 40
0.6386792985240302
 40
0.6871337045458175
 40
0.7357319435231766
 40
0.7843301825005359
 40
0.8381244585905053
 40
0.8919677628850752
 40
0.9459590966636656
 40
1.0
 40
1.0
 40
1.0
 40
1.0
 10
130.8850322183877
 20
203.2271909650209
 30
0.0
 10
130.8895695554114
 20
203.0972586327802
 30
0.0
 10
130.9013056290447
 20
202.7611814556715
 30
0.0
 10
130.9189454385056
 20
202.2560434040847
 30
0.0
 10
130.9374323888132
 20
201.7266464126462
 30
0.0
 10
130.9535117077295
 20
201.2661949635451
 30
0.0
 10
130.9674859135171
 20
200.866026067184
 30
0.0
 10
130.9800696877853
 20
200.5056739199847
 30
0.0
 10
130.9918822952122
 20
200.1674051017775
 30
0.0
 10
131.0029725724859
 20
199.8498211127881
 30
0.0
 10
131.0133060101842
 20
199.5539101735746
 30
0.0
 10
131.0228698138227
 20
199.280038670236
 30
0.0
 10
131.0315980903208
 20
199.0300935337128
 30
0.0
 10
131.0395058170918
 20
198.8036458670071
 30
0.0
 10
131.0465690717145
 20
198.6013807186297
 30
0.0
 10
131.0527806648706
 20
198.4235039637188
 30
0.0
 10
131.0581117317345
 20
198.2708421827367
 30
0.0
 10
131.0627127990984
 20
198.1390848523336
 30
0.0
 10
131.0664674979673
 20
198.0315643445216
 30
0.0
 10
131.0692268371
 20
197.9525472102262
 30
0.0
 10
131.070960537904
 20
197.9029005148834
 30
0.0
 10
131.0711752192927
 20
197.8967528442614
 30
0.0
 10
131.0712826092394
 20
197.8936775985505
 30
0.0
  0
LINE
  5
292
330
1F
100
AcDbEntity
  8
0
  6
CONTINUOUS
 62
     8
100
AcDbLine
 10
186.3765136996
 20
203.8171060652
 30
0.0
 11
185.7539737528
 21
203.2633697094
 31
0.0
  0
SPLINE
  5
293
330
1F
100
AcDbEntity
  8
0
  6
CONTINUOUS
 62
     8
100
AcDbSpline
210
0.0
220
0.0
230
1.0
 70
     8
 71
     3
 72
    38
 73
    34
 74
     0
 42
0.00000001
 43
0.00000001
 40
0.0
 40
0.0
 40
0.0
 40
0.0
 40
0.0625000000000001
 40
0.0625000000000001
 40
0.0937500000000003
 40
0.0937500000000003
 40
0.1250000000000004
 40
0.1250000000000004
 40
0.2500000000000012
 40
0.2500000000000012
 40
0.2812500000000012
 40
0.2812500000000012
 40
0.3125000000000012
 40
0.3125000000000012
 40
0.3750000000000012
 40
0.3750000000000012
 40
0.4375000000000012
 40
0.4375000000000012
 40
0.4687500000000011
 40
0.4687500000000011
 40
0.500000000000001
 40
0.500000000000001
 40
0.6250000000000009
 40
0.6250000000000009
 40
0.6875000000000009
 40
0.6875000000000009
 40
0.7500000000000008
 40
0.7500000000000008
 40
0.8125000000000007
 40
0.8125000000000007
 40
0.8750000000000006
 40
0.8750000000000006
 40
1.0
 40
1.0
 40
1.0
 40
1.0
 10
129.9820305906219
 20
203.263369882276
 30
0.0
 10
130.8143815921195
 20
203.2633642320854
 30
0.0
 10
131.704288344591
 20
203.2633452443392
 30
0.0
 10
133.1252785528285
 20
203.2633266133906
 30
0.0
 10
133.6124026781283
 20
203.2633215614599
 30
0.0
 10
134.6068805816203
 20
203.2633145084319
 30
0.0
 10
135.1151224316104
 20
203.263312461117
 30
0.0
 10
137.71046414928
 20
203.263307990772
 30
0.0
 10
139.9578788760136
 20
203.263319889675
 30
0.0
 10
142.9879661251177
 20
203.2633216505688
 30
0.0
 10
143.6026802139521
 20
203.2633216092833
 30
0.0
 10
144.8395831444176
 20
203.2633212027858
 30
0.0
 10
145.4632232743205
 20
203.2633208470417
 30
0.0
 10
147.3494653550914
 20
203.2633205714385
 30
0.0
 10
148.6273410704074
 20
203.2633216465177
 30
0.0
 10
151.223741499724
 20
203.2633322788287
 30
0.0
 10
152.5422615844054
 20
203.2633425031605
 30
0.0
 10
154.5516379811218
 20
203.2633586650263
 30
0.0
 10
155.2230817354331
 20
203.2633639689085
 30
0.0
 10
156.5609681784097
 20
203.2633700686677
 30
0.0
 10
157.2287084465602
 20
203.2633703774506
 30
0.0
 10
160.5614863007546
 20
203.2633512163573
 30
0.0
 10
163.2089819089331
 20
203.2632654180386
 30
0.0
 10
167.1511536223377
 20
203.2631552567614
 30
0.0
 10
168.4388502838829
 20
203.2631240561258
 30
0.0
 10
170.9517503760811
 20
203.263090125945
 30
0.0
 10
172.1789301085284
 20
203.2630874211493
 30
0.0
 10
174.5748185448157
 20
203.2631111150399
 30
0.0
 10
175.7435340819808
 20
203.263137384714
 30
0.0
 10
178.0202668405124
 20
203.2632035957338
 30
0.0
 10
179.1079389778545
 20
203.2632423572775
 30
0.0
 10
182.2167933104021
 20
203.2633418980686
 30
0.0
 10
184.0892834346517
 20
203.2633697077092
 30
0.0
 10
185.7539737528041
 20
203.263369709422
 30
0.0
  0
LINE
  5
294
330
1F
100
AcDbEntity
  8
0
  6
CONTINUOUS
 62
     8
100
AcDbLine
 10
129.3594967667
 20
203.8171060652
 30
0.0
 11
129.9820305906
 21
203.2633698823
 31
0.0
  0
ARC
  5
295
330
1F
100
AcDbEntity
  8
0
  6
CONTINUOUS
 62
     8
100
AcDbCircle
 10
185.6623124854
 20
203.3614340119
 30
0.0
 40
0.1342326166040466
100
AcDbArc
 50
270.2436966398
 51
313.0670623484
  0
ARC
  5
296
330
1F
100
AcDbEntity
  8
0
  6
CONTINUOUS
 62
     8
100
AcDbCircle
 10
130.0737041075
 20
203.3614555636
 30
0.0
 40
0.1342565997938883
100
AcDbArc
 50
226.9353487425
 51
269.6485203334
  0
LINE
  5
297
330
1F
100
AcDbEntity
  8
0
  6
CONTINUOUS
 62
     8
100
AcDbLine
 10
186.5078717024
 20
207.1994065461
 30
0.0
 11
187.3455955278
 21
229.8711238622
 31
0.0
  0
LINE
  5
298
330
1F
100
AcDbEntity
  8
0
  6
CONTINUOUS
 62
     8
100
AcDbLine
 10
186.3894097596
 20
203.9990410423
 30
0.0
 11
186.5078716905
 21
207.1994065464
 31
0.0
  0
LINE
  5
299
330
1F
100
AcDbEntity
  8
0
  6
CONTINUOUS
 62
     8
100
AcDbLine
 10
186.3894097595
 20
203.9990410423
 30
0.0
 11
186.3826739435
 21
203.8171094572
 31
0.0
  0
LINE
  5
29A
330
1F
100
AcDbEntity
  8
0
  6
CONTINUOUS
 62
     8
100
AcDbLine
 10
129.346600454
 20
203.9990433044
 30
0.0
 11
129.3533363537
 21
203.8171094572
 31
0.0
  0
LINE
  5
29B
330
1F
100
AcDbEntity
  8
0
  6
CONTINUOUS
 62
     8
100
AcDbLine
 10
129.346600454
 20
203.9990433044
 30
0.0
 11
129.2281385948
 21
207.1994065462
 31
0.0
  0
LINE
  5
29C
330
1F
100
AcDbEntity
  8
0
  6
CONTINUOUS
 62
     8
100
AcDbLine
 10
128.3904147695
 20
229.8711238622
 30
0.0
 11
129.2281385948
 21
207.1994065461
 31
0.0
  0
LINE
  5
29D
330
1F
100
AcDbEntity
  8
0
  6
CONTINUOUS
 62
     8
100
AcDbLine
 10
186.5515751697
 20
230.6711238622
 30
0.0
 11
187.186792583
 21
229.8711238622
 31
0.0
  0
LINE
  5
29E
330
1F
100
AcDbEntity
  8
0
  6
CONTINUOUS
 62
     8
100
AcDbLine
 10
129.1844307505
 20
230.6711238622
 30
0.0
 11
128.5492191152
 21
229.8711238622
 31
0.0
  0
SPLINE
  5
29F
330
1F
100
AcDbEntity
  8
0
  6
CONTINUOUS
 62
     8
100
AcDbSpline
210
0.0
220
0.0
230
1.0
 70
     8
 71
     3
 72
     8
 73
     4
 74
     0
 42
0.00000001
 43
0.00000001
 40
0.0
 40
0.0
 40
0.0
 40
0.0
 40
0.0000065181797712
 40
0.0000065181797712
 40
0.0000065181797712
 40
0.0000065181797712
 10
129.9780121307074
 20
203.2633708192638
 30
0.0
 10
129.9793512221531
 20
203.2633701721872
 30
0.0
 10
129.9806906840852
 20
203.2633698819109
 30
0.0
 10
129.9820305905945
 20
203.2633698822573
 30
0.0
  0
SPLINE
  5
2A0
330
1F
100
AcDbEntity
  8
0
  6
CONTINUOUS
 62
     8
100
AcDbSpline
210
0.0
220
0.0
230
1.0
 70
     8
 71
     3
 72
    14
 73
    10
 74
     0
 42
0.00000001
 43
0.00000001
 40
0.0
 40
0.0
 40
0.0
 40
0.0
 40
0.25
 40
0.25
 40
0.5
 40
0.5
 40
0.75
 40
0.75
 40
1.0
 40
1.0
 40
1.0
 40
1.0
 10
128.4442367495982
 20
203.2633693943271
 30
0.0
 10
128.4442646709861
 20
203.2633883691105
 30
0.0
 10
128.4781375525302
 20
203.2634072223394
 30
0.0
 10
128.6097218353877
 20
203.2634225446153
 30
0.0
 10
128.7073498948576
 20
203.2634303990014
 30
0.0
 10
128.967349916711
 20
203.2634172327051
 30
0.0
 10
129.1303540423993
 20
203.2634019150956
 30
0.0
 10
129.5111792885493
 20
203.2633918819513
 30
0.0
 10
129.7299842605272
 20
203.2633888590957
 30
0.0
 10
129.9780130735496
 20
203.2633699811437
 30
0.0
  0
LINE
  5
2A1
330
1F
100
AcDbEntity
  8
0
  6
CONTINUOUS
 62
     8
100
AcDbLine
 10
185.7539737528
 20
203.2633697094
 30
0.0
 11
185.7548117382
 21
203.2633697383
 31
0.0
  0
SPLINE
  5
2A2
330
1F
100
AcDbEntity
  8
0
  6
CONTINUOUS
 62
     8
100
AcDbSpline
210
0.0
220
0.0
230
1.0
 70
     8
 71
     3
 72
    14
 73
    10
 74
     0
 42
0.00000001
 43
0.00000001
 40
0.0
 40
0.0
 40
0.0
 40
0.0
 40
0.25
 40
0.25
 40
0.5
 40
0.5
 40
0.75
 40
0.75
 40
1.0
 40
1.0
 40
1.0
 40
1.0
 10
185.7548113580062
 20
203.2633694000875
 30
0.0
 10
186.0033308102722
 20
203.2633884017854
 30
0.0
 10
186.224223392871
 20
203.2634006599836
 30
0.0
 10
186.6042848929634
 20
203.2634203265898
 30
0.0
 10
186.7648546603474
 20
203.2634265902447
 30
0.0
 10
187.0261238380634
 20
203.2634263944335
 30
0.0
 10
187.1260681299223
 20
203.2634196513562
 30
0.0
 10
187.2582250216242
 20
203.2634001847107
 30
0.0
 10
187.2917460493455
 20
203.263388707406
 30
0.0
 10
187.291774030645
 20
203.2633697325392
 30
0.0
  0
SPLINE
  5
2A3
330
1F
100
AcDbEntity
  8
0
  6
CONTINUOUS
 62
     8
100
AcDbSpline
210
0.0
220
0.0
230
1.0
 70
     8
 71
     3
 72
     9
 73
     5
 74
     0
 42
0.00000001
 43
0.00000001
 40
0.0
 40
0.0
 40
0.0
 40
0.0
 40
0.4997030384568377
 40
1.0
 40
1.0
 40
1.0
 40
1.0
 10
130.0683080097337
 20
203.2272113821008
 30
0.0
 10
130.0521725620991
 20
203.2288255564267
 30
0.0
 10
130.0198824890101
 20
203.2320558236087
 30
0.0
 10
129.9919750703234
 20
203.2529277965165
 30
0.0
 10
129.9780130735499
 20
203.2633699811437
 30
0.0
  0
ARC
  5
2A4
330
1F
100
AcDbEntity
  8
0
  6
CONTINUOUS
 62
     8
100
AcDbCircle
 10
185.6631051813
 20
203.3615171965
 30
0.0
 40
0.134324294718603
100
AcDbArc
 50
270.5951115516
 51
313.0569545699
  0
LINE
  5
2A5
330
1F
100
AcDbEntity
  8
0
  6
CONTINUOUS
 62
     8
100
AcDbLine
 10
130.0153300036
 20
233.9046383442
 30
0.0
 11
129.9006853508
 21
230.6811238651
 31
0.0
  0
SPLINE
  5
2A6
330
1F
100
AcDbEntity
  8
0
  6
CONTINUOUS
 62
     8
100
AcDbSpline
210
0.0
220
0.0
230
1.0
 70
     8
 71
     3
 72
     8
 73
     4
 74
     0
 42
0.00000001
 43
0.00000001
 40
0.0
 40
0.0
 40
0.0
 40
0.0
 40
0.000108430952477
 40
0.000108430952477
 40
0.000108430952477
 40
0.000108430952477
 10
130.0812700852389
 20
233.9055568976082
 30
0.0
 10
130.0592533639184
 20
233.9055563213736
 30
0.0
 10
130.0372717204981
 20
233.9052491620711
 30
0.0
 10
130.0153300035442
 20
233.9046383437902
 30
0.0
  0
LINE
  5
2A7
330
1F
100
AcDbEntity
  8
0
  6
CONTINUOUS
 62
     8
100
AcDbLine
 10
185.6547407673
 20
233.9055455237
 30
0.0
 11
130.0812695299
 21
233.9055455237
 31
0.0
  0
SPLINE
  5
2A8
330
1F
100
AcDbEntity
  8
0
  6
CONTINUOUS
 62
     8
100
AcDbSpline
210
0.0
220
0.0
230
1.0
 70
     8
 71
     3
 72
     8
 73
     4
 74
     0
 42
0.00000001
 43
0.00000001
 40
0.0
 40
0.0
 40
0.0
 40
0.0
 40
0.0001084309524739
 40
0.0001084309524739
 40
0.0001084309524739
 40
0.0001084309524739
 10
185.7206802936845
 20
233.9046383437903
 30
0.0
 10
185.6987385767312
 20
233.9052491620711
 30
0.0
 10
185.6767569333115
 20
233.9055563213736
 30
0.0
 10
185.6547402119917
 20
233.9055568976083
 30
0.0
  0
LINE
  5
2A9
330
1F
100
AcDbEntity
  8
0
  6
CONTINUOUS
 62
     8
100
AcDbLine
 10
185.8353249464
 20
230.6811238651
 30
0.0
 11
185.7206803091
 21
233.9046379098
 31
0.0
  0
SPLINE
  5
2AA
330
1F
100
AcDbEntity
  8
0
  6
CONTINUOUS
 62
     8
100
AcDbSpline
210
0.0
220
0.0
230
1.0
 70
     8
 71
     3
 72
     8
 73
     4
 74
     0
 42
0.00000001
 43
0.00000001
 40
0.0
 40
0.0
 40
0.0
 40
0.0
 40
1.0
 40
1.0
 40
1.0
 40
1.0
 10
130.3130462000849
 20
234.577733489869
 30
0.0
 10
130.1727732204735
 20
234.4008452179258
 30
0.0
 10
130.0881935691945
 20
234.1555553722553
 30
0.0
 10
130.0812700852902
 20
233.905556897606
 30
0.0
  0
LINE
  5
2AB
330
1F
100
AcDbEntity
  8
0
  6
CONTINUOUS
 62
     8
100
AcDbLine
 10
130.3130681035
 20
234.5777528081
 30
0.0
 11
185.4229421938
 21
234.5777528081
 31
0.0
  0
SPLINE
  5
2AC
330
1F
100
AcDbEntity
  8
0
  6
CONTINUOUS
 62
     8
100
AcDbSpline
210
0.0
220
0.0
230
1.0
 70
     8
 71
     3
 72
     8
 73
     4
 74
     0
 42
0.00000001
 43
0.00000001
 40
0.0
 40
0.0
 40
0.0
 40
0.0
 40
1.0
 40
1.0
 40
1.0
 40
1.0
 10
185.4229618378918
 20
234.5777390138398
 30
0.0
 10
185.5632368626861
 20
234.4008485336327
 30
0.0
 10
185.6478170817574
 20
234.1555564938396
 30
0.0
 10
185.654740452457
 20
233.905556897602
 30
0.0
  0
SPLINE
  5
2AD
330
1F
100
AcDbEntity
  8
0
  6
CONTINUOUS
 62
     8
100
AcDbSpline
210
0.0
220
0.0
230
1.0
 70
     8
 71
     3
 72
    15
 73
    11
 74
     0
 42
0.00000001
 43
0.00000001
 40
0.0
 40
0.0
 40
0.0
 40
0.0
 40
0.1397328500916666
 40
0.2752651255441637
 40
0.4065911330208761
 40
0.5337061071620873
 40
0.6566063336850823
 40
0.7752892808812506
 40
0.8897537430123693
 40
1.0
 40
1.0
 40
1.0
 40
1.0
 10
185.4229523559479
 20
234.5777428328173
 30
0.0
 10
184.9730438696252
 20
235.0192049750862
 30
0.0
 10
184.0867518066653
 20
235.8888582594422
 30
0.0
 10
182.7782916127824
 20
237.1705993740994
 30
0.0
 10
181.5111091233198
 20
238.4104549929032
 30
0.0
 10
180.2853573662239
 20
239.6082313171954
 30
0.0
 10
179.1010861862873
 20
240.7639995071376
 30
0.0
 10
177.958318562667
 20
241.8776701924897
 30
0.0
 10
176.8569354610575
 20
242.9495243621012
 30
0.0
 10
176.136807703009
 20
243.6486858644437
 30
0.0
 10
175.7835028398093
 20
243.9917043860585
 30
0.0
  0
SPLINE
  5
2AE
330
1F
100
AcDbEntity
  8
0
  6
CONTINUOUS
 62
     8
100
AcDbSpline
210
0.0
220
0.0
230
1.0
 70
     8
 71
     3
 72
    15
 73
    11
 74
     0
 42
0.00000001
 43
0.00000001
 40
0.0
 40
0.0
 40
0.0
 40
0.0
 40
0.1102449948770805
 40
0.2247085548253882
 40
0.3433909605851478
 40
0.4662910068088363
 40
0.5934061618082743
 40
0.7247327110004109
 40
0.8602658884481166
 40
1.0
 40
1.0
 40
1.0
 40
1.0
 10
139.9531336903899
 20
243.992312003084
 30
0.0
 10
139.5998099766471
 20
243.6492755828442
 30
0.0
 10
138.8796424879624
 20
242.9500763282158
 30
0.0
 10
137.778196704001
 20
241.8781619900059
 30
0.0
 10
136.6353601983921
 20
240.7644248480714
 30
0.0
 10
135.4510138979543
 20
239.6085838599662
 30
0.0
 10
134.2251807617181
 20
238.4107284123898
 30
0.0
 10
132.9579106327871
 20
237.1707873336714
 30
0.0
 10
131.6493565607516
 20
235.8889544504053
 30
0.0
 10
130.7629997971688
 20
235.0192377053567
 30
0.0
 10
130.3130579412825
 20
234.5777428328172
 30
0.0
  0
LINE
  5
2AF
330
1F
100
AcDbEntity
  8
0
  6
CONTINUOUS
 62
     8
100
AcDbLine
 10
175.7828954865
 20
243.9922936846
 30
0.0
 11
139.95311481
 21
243.992293684
 31
0.0
  0
SPLINE
  5
2B0
330
1F
100
AcDbEntity
  8
0
  6
CONTINUOUS
 62
     8
100
AcDbSpline
210
0.0
220
0.0
230
1.0
 70
     8
 71
     3
 72
    10
 73
     6
 74
     0
 42
0.00000001
 43
0.00000001
 40
0.0
 40
0.0
 40
0.0
 40
0.0
 40
0.5
 40
0.5
 40
1.0
 40
1.0
 40
1.0
 40
1.0
 10
174.6068123177272
 20
244.6811238618106
 30
0.0
 10
174.8189853602313
 20
244.6811187651965
 30
0.0
 10
175.0395497878885
 20
244.6214462978496
 30
0.0
 10
175.447105738172
 20
244.3827695541085
 30
0.0
 10
175.6329118208819
 20
244.2044514594348
 30
0.0
 10
175.7829576104739
 20
243.9923404027714
 30
0.0
  0
SPLINE
  5
2B1
330
1F
100
AcDbEntity
  8
0
  6
CONTINUOUS
 62
     8
100
AcDbSpline
210
0.0
220
0.0
230
1.0
 70
     8
 71
     3
 72
    10
 73
     6
 74
     0
 42
0.00000001
 43
0.00000001
 40
0.0
 40
0.0
 40
0.0
 40
0.0
 40
0.5
 40
0.5
 40
1.0
 40
1.0
 40
1.0
 40
1.0
 10
141.1292262397088
 20
244.6811238617237
 30
0.0
 10
140.9115068116281
 20
244.6811297236933
 30
0.0
 10
140.6938723907467
 20
244.6199259619184
 30
0.0
 10
140.2915765160277
 20
244.3843239544918
 30
0.0
 10
140.1070733422153
 20
244.2100184028492
 30
0.0
 10
139.9531195785413
 20
243.992344158522
 30
0.0
  0
SPLINE
  5
2B2
330
1F
100
AcDbEntity
  8
0
  6
CONTINUOUS
 62
     8
100
AcDbSpline
210
0.0
220
0.0
230
1.0
 70
     8
 71
     3
 72
    11
 73
     7
 74
     0
 42
0.00000001
 43
0.00000001
 40
-0.00000006
 40
-0.00000006
 40
-0.00000006
 40
-0.00000006
 40
0.0
 40
0.0
 40
0.0
 40
0.0001193840761031
 40
0.0001193840761031
 40
0.0001193840761031
 40
0.0001193840761031
 10
185.4229684496954
 20
234.577738977871
 30
0.0
 10
185.4229803412626
 20
234.5777393398822
 30
0.0
 10
185.4229922327632
 20
234.5777397018759
 30
0.0
 10
185.4230041242773
 20
234.5777400637536
 30
0.0
 10
185.4466650814776
 20
234.5784601043138
 30
0.0
 10
185.4702747497158
 20
234.5788508419585
 30
0.0
 10
185.4938281032994
 20
234.5789146472573
 30
0.0
  0
SPLINE
  5
2B3
330
1F
100
AcDbEntity
  8
0
  6
CONTINUOUS
 62
     8
100
AcDbSpline
210
0.0
220
0.0
230
1.0
 70
     8
 71
     3
 72
     8
 73
     4
 74
     0
 42
0.00000001
 43
0.00000001
 40
0.0
 40
0.0
 40
0.0
 40
0.0
 40
1.0
 40
1.0
 40
1.0
 40
1.0
 10
185.493828103303
 20
234.5789146472527
 30
0.0
 10
185.6335224751581
 20
234.4018719191733
 30
0.0
 10
185.7163653786325
 20
234.1556369184496
 30
0.0
 10
185.7206805254328
 20
233.9046383485648
 30
0.0
  0
SPLINE
  5
2B4
330
1F
100
AcDbEntity
  8
0
  6
CONTINUOUS
 62
     8
100
AcDbSpline
210
0.0
220
0.0
230
1.0
 70
     8
 71
     3
 72
     8
 73
     4
 74
     0
 42
0.00000001
 43
0.00000001
 40
0.0
 40
0.0
 40
0.0
 40
0.0
 40
1.0
 40
1.0
 40
1.0
 40
1.0
 10
130.2421734545597
 20
234.578914670917
 30
0.0
 10
130.102479233117
 20
234.4018719271892
 30
0.0
 10
130.0196366254179
 20
234.155636810152
 30
0.0
 10
130.0153218637134
 20
233.9046381171779
 30
0.0
  0
SPLINE
  5
2B5
330
1F
100
AcDbEntity
  8
0
  6
CONTINUOUS
 62
     8
100
AcDbSpline
210
0.0
220
0.0
230
1.0
 70
     8
 71
     3
 72
    11
 73
     7
 74
     0
 42
0.00000001
 43
0.00000001
 40
0.0
 40
0.0
 40
0.0
 40
0.0
 40
0.0001193840761063
 40
0.0001193840761063
 40
0.0001193840761063
 40
0.0001194440761063
 40
0.0001194440761063
 40
0.0001194440761063
 40
0.0001194440761063
 10
130.2421821939292
 20
234.5789146472574
 30
0.0
 10
130.2657355475134
 20
234.5788508419585
 30
0.0
 10
130.2893452157523
 20
234.5784601043138
 30
0.0
 10
130.3130061729532
 20
234.5777400637536
 30
0.0
 10
130.3130180644673
 20
234.5777397018759
 30
0.0
 10
130.3130299559679
 20
234.5777393398822
 30
0.0
 10
130.3130418475352
 20
234.577738977871
 30
0.0
  0
SPLINE
  5
2B6
330
1F
100
AcDbEntity
  8
0
  6
CONTINUOUS
 62
     8
100
AcDbSpline
210
0.0
220
0.0
230
1.0
 70
     8
 71
     3
 72
    14
 73
    10
 74
     0
 42
0.00000001
 43
0.00000001
 40
0.0
 40
0.0
 40
0.0
 40
0.0
 40
0.4999999999999958
 40
0.4999999999999958
 40
0.7499999999999937
 40
0.7499999999999937
 40
0.8749999999999968
 40
0.8749999999999968
 40
1.0
 40
1.0
 40
1.0
 40
1.0
 10
186.9054335968489
 20
233.9047513309566
 30
0.0
 10
186.905711043483
 20
233.8968062988712
 30
0.0
 10
186.8027581331652
 20
233.8957863538835
 30
0.0
 10
186.5012820422181
 20
233.8957749758383
 30
0.0
 10
186.3759273762896
 20
233.8962116213197
 30
0.0
 10
186.1552365786776
 20
233.8980559613114
 30
0.0
 10
186.0761225620077
 20
233.8988798431259
 30
0.0
 10
185.9067384507368
 20
233.9011821045261
 30
0.0
 10
185.8156372981925
 20
233.9026773981734
 30
0.0
 10
185.7206884335178
 20
233.9046381171845
 30
0.0
  0
SPLINE
  5
2B7
330
1F
100
AcDbEntity
  8
0
  6
CONTINUOUS
 62
     8
100
AcDbSpline
210
0.0
220
0.0
230
1.0
 70
     8
 71
     3
 72
    14
 73
    10
 74
     0
 42
0.00000001
 43
0.00000001
 40
0.0
 40
0.0
 40
0.0
 40
0.0
 40
0.25
 40
0.25
 40
0.5
 40
0.5
 40
0.75
 40
0.75
 40
1.0
 40
1.0
 40
1.0
 40
1.0
 10
185.4938368426716
 20
234.578914670915
 30
0.0
 10
185.6692116647937
 20
234.5793891540014
 30
0.0
 10
185.8252420012668
 20
234.5807601552363
 30
0.0
 10
186.0970237533566
 20
234.5828368625968
 30
0.0
 10
186.2134890281229
 20
234.5835550164984
 30
0.0
 10
186.4026411385479
 20
234.5835343099769
 30
0.0
 10
186.4759905130669
 20
234.5827946421327
 30
0.0
 10
186.5772790245026
 20
234.5806674716892
 30
0.0
 10
186.6056679892737
 20
234.579270990765
 30
0.0
 10
186.6112308359781
 20
234.5787698657613
 30
0.0
  0
SPLINE
  5
2B8
330
1F
100
AcDbEntity
  8
0
  6
CONTINUOUS
 62
     8
100
AcDbSpline
210
0.0
220
0.0
230
1.0
 70
     8
 71
     3
 72
     8
 73
     4
 74
     0
 42
0.00000001
 43
0.00000001
 40
0.0
 40
0.0
 40
0.0
 40
0.0
 40
1.0
 40
1.0
 40
1.0
 40
1.0
 10
186.6112308359781
 20
234.5787698657613
 30
0.0
 10
186.7892436935994
 20
234.4017483974348
 30
0.0
 10
186.8966727778834
 20
234.1556283618165
 30
0.0
 10
186.9054335968489
 20
233.9047513309565
 30
0.0
  0
SPLINE
  5
2B9
330
1F
100
AcDbEntity
  8
0
  6
CONTINUOUS
 62
     8
100
AcDbSpline
210
0.0
220
0.0
230
1.0
 70
     8
 71
     3
 72
    14
 73
    10
 74
     0
 42
0.00000001
 43
0.00000001
 40
0.0
 40
0.0
 40
0.0
 40
0.0
 40
0.4999999999999998
 40
0.4999999999999998
 40
0.7499999999999943
 40
0.7499999999999943
 40
0.8749999999999972
 40
0.8749999999999972
 40
1.0
 40
1.0
 40
1.0
 40
1.0
 10
130.0153218637123
 20
233.9046381171845
 30
0.0
 10
129.6355254075049
 20
233.8967952207014
 30
0.0
 10
129.3357880000827
 20
233.8957740024657
 30
0.0
 10
129.0341040704129
 20
233.8957811317952
 30
0.0
 10
128.9576350530342
 20
233.8962235676274
 30
0.0
 10
128.8814887958298
 20
233.8980891360671
 30
0.0
 10
128.8624080319756
 20
233.8989222577404
 30
0.0
 10
128.8369126357222
 20
233.9012516744181
 30
0.0
 10
128.8305073385407
 20
233.9027650677642
 30
0.0
 10
128.8305767003798
 20
233.9047513309567
 30
0.0
  0
SPLINE
  5
2BA
330
1F
100
AcDbEntity
  8
0
  6
CONTINUOUS
 62
     8
100
AcDbSpline
210
0.0
220
0.0
230
1.0
 70
     8
 71
     3
 72
     8
 73
     4
 74
     0
 42
0.00000001
 43
0.00000001
 40
0.0
 40
0.0
 40
0.0
 40
0.0
 40
1.0
 40
1.0
 40
1.0
 40
1.0
 10
129.1247793804928
 20
234.5787698584847
 30
0.0
 10
128.9467665714142
 20
234.4017483944892
 30
0.0
 10
128.8393375204228
 20
234.1556283926757
 30
0.0
 10
128.8305767027117
 20
233.904751397735
 30
0.0
  0
SPLINE
  5
2BB
330
1F
100
AcDbEntity
  8
0
  6
CONTINUOUS
 62
     8
100
AcDbSpline
210
0.0
220
0.0
230
1.0
 70
     8
 71
     3
 72
    14
 73
    10
 74
     0
 42
0.00000001
 43
0.00000001
 40
0.0
 40
0.0
 40
0.0
 40
0.0
 40
0.25
 40
0.25
 40
0.5
 40
0.5
 40
0.75
 40
0.75
 40
1.0
 40
1.0
 40
1.0
 40
1.0
 10
129.1247794612502
 20
234.5787698657611
 30
0.0
 10
129.1303422414459
 20
234.5792709847735
 30
0.0
 10
129.1588798339915
 20
234.5806725780886
 30
0.0
 10
129.260286887689
 20
234.5827982569899
 30
0.0
 10
129.3336719718151
 20
234.5835360029211
 30
0.0
 10
129.5229322250485
 20
234.5835533954169
 30
0.0
 10
129.6394866966653
 20
234.5828333246319
 30
0.0
 10
129.911386410285
 20
234.580755147256
 30
0.0
 10
130.0667955399421
 20
234.5793891623683
 30
0.0
 10
130.2421734545583
 20
234.578914670915
 30
0.0
  0
SPLINE
  5
2BC
330
1F
100
AcDbEntity
  8
0
  6
CONTINUOUS
 62
     8
100
AcDbSpline
210
0.0
220
0.0
230
1.0
 70
     8
 71
     3
 72
    23
 73
    19
 74
     0
 42
0.00000001
 43
0.00000001
 40
0.0
 40
0.0
 40
0.0
 40
0.0
 40
0.0624484065856764
 40
0.1248043087526583
 40
0.187089634624535
 40
0.2493258450880322
 40
0.3115340385273018
 40
0.3737350630594688
 40
0.4359496344988923
 40
0.4981984582144357
 40
0.5605023529965651
 40
0.6228823750216534
 40
0.6853599399870122
 40
0.7479569414943809
 40
0.8106958637817396
 40
0.8735998869438797
 40
0.9366929828438979
 40
1.0
 40
1.0
 40
1.0
 40
1.0
 10
177.198580941447
 20
243.9922936838929
 30
0.0
 10
177.1951956508597
 20
243.9946168815961
 30
0.0
 10
177.1884300842939
 20
243.9992598356649
 30
0.0
 10
177.1649501453843
 20
244.0054232851125
 30
0.0
 10
177.1317386579822
 20
244.0108551954665
 30
0.0
 10
177.0878819150765
 20
244.0154175163622
 30
0.0
 10
177.033691919284
 20
244.0190488670517
 30
0.0
 10
176.9691735605264
 20
244.0216874697824
 30
0.0
 10
176.8944346287012
 20
244.0232922066434
 30
0.0
 10
176.8095756394926
 20
244.0238372959331
 30
0.0
 10
176.7147193337655
 20
244.0233139504907
 30
0.0
 10
176.6100008290466
 20
244.0217299277666
 30
0.0
 10
176.4955750621896
 20
244.0191099828271
 30
0.0
 10
176.3715939101742
 20
244.0154942607453
 30
0.0
 10
176.2382871503648
 20
244.0109434952174
 30
0.0
 10
176.0956567419782
 20
244.0055184156043
 30
0.0
 10
175.9446190006948
 20
243.9993553390848
 30
0.0
 10
175.8368823331319
 20
243.9947141095167
 30
0.0
 10
175.7829228318558
 20
243.9923895672929
 30
0.0
  0
SPLINE
  5
2BD
330
1F
100
AcDbEntity
  8
0
  6
CONTINUOUS
 62
     8
100
AcDbSpline
210
0.0
220
0.0
230
1.0
 70
     8
 71
     3
 72
    11
 73
     7
 74
     0
 42
0.00000001
 43
0.00000001
 40
-0.00000006
 40
-0.00000006
 40
-0.00000006
 40
-0.00000006
 40
0.0
 40
0.0
 40
0.0
 40
0.0001021237331404
 40
0.0001021237331404
 40
0.0001021237331404
 40
0.0001021237331404
 10
129.1228884800327
 20
234.577752808144
 30
0.0
 10
129.1228888446598
 20
234.5777531727711
 30
0.0
 10
129.1228892093843
 20
234.5777535373949
 30
0.0
 10
129.1228895740648
 20
234.5777539018741
 30
0.0
 10
129.1235102831104
 20
234.5783742682188
 30
0.0
 10
129.1241402978783
 20
234.5787122635033
 30
0.0
 10
129.1247793804928
 20
234.5787698584847
 30
0.0
  0
SPLINE
  5
2BE
330
1F
100
AcDbEntity
  8
0
  6
CONTINUOUS
 62
     8
100
AcDbSpline
210
0.0
220
0.0
230
1.0
 70
     8
 71
     3
 72
    23
 73
    19
 74
     0
 42
0.00000001
 43
0.00000001
 40
0.0
 40
0.0
 40
0.0
 40
0.0
 40
0.0633070196577778
 40
0.1264001177640856
 40
0.1893041428223559
 40
0.252043066682761
 40
0.314640069429091
 40
0.377117635290361
 40
0.4394976578615227
 40
0.5018015528352455
 40
0.5640503763855063
 40
0.6262649473026456
 40
0.68846597095759
 40
0.7506741631690295
 40
0.8129103720605517
 40
0.8751956960249005
 40
0.9375515959593532
 40
1.0
 40
1.0
 40
1.0
 40
1.0
 10
139.9530874653716
 20
243.9923895672876
 30
0.0
 10
139.8991279625126
 20
243.9947141102644
 30
0.0
 10
139.7913912920336
 20
243.9993553413254
 30
0.0
 10
139.6403535469876
 20
244.0055184191831
 30
0.0
 10
139.4977231357114
 20
244.0109434995497
 30
0.0
 10
139.3644163738493
 20
244.0154942652668
 30
0.0
 10
139.2404352205602
 20
244.0191099870843
 30
0.0
 10
139.1260094531438
 20
244.0217299313987
 30
0.0
 10
139.0212909485078
 20
244.0233139532382
 30
0.0
 10
138.9264346434265
 20
244.023837297639
 30
0.0
 10
138.8415756553416
 20
244.0232922072544
 30
0.0
 10
138.7668367250277
 20
244.021687469349
 30
0.0
 10
138.7023183680741
 20
244.0190488657269
 30
0.0
 10
138.6481283742811
 20
244.0154175144005
 30
0.0
 10
138.6042716334705
 20
244.0108551932158
 30
0.0
 10
138.5710601481556
 20
244.0054232830297
 30
0.0
 10
138.5475802112413
 20
243.9992598342364
 30
0.0
 10
138.5408146458008
 20
243.994616881118
 30
0.0
 10
138.5374293557848
 20
243.9922936838961
 30
0.0
  0
ENDSEC
  0
SECTION
  2
OBJECTS
  0
DICTIONARY
  5
C
330
0
100
AcDbDictionary
  3
ACAD_GROUP
350
D
  3
ACAD_MLINESTYLE
350
17
  3
ACAD_SCALELIST
350
47
  3
DWGPROPS
350
2BF
1001
ACAD
1000
TREAT_AS_HARD
1070
     0
  0
DICTIONARY
  5
D
102
{ACAD_REACTORS
330
C
102
}
330
C
100
AcDbDictionary
1001
ACAD
1000
TREAT_AS_HARD
1070
     0
  0
DICTIONARY
  5
17
102
{ACAD_REACTORS
330
C
102
}
330
C
100
AcDbDictionary
  3
STANDARD
350
18
1001
ACAD
1000
TREAT_AS_HARD
1070
     0
  0
DICTIONARY
  5
47
102
{ACAD_REACTORS
330
C
102
}
330
C
100
AcDbDictionary
1001
ACAD
1000
TREAT_AS_HARD
1070
     0
  0
XRECORD
  5
2BF
102
{ACAD_REACTORS
330
C
102
}
330
C
100
AcDbXrecord
  1
DWGPROPS COOKIE
  2

  3

  4

  6

  7

  8
m-noguchi
  9

300
=
301
=
302
=
303
=
304
=
305
=
306
=
307
=
308
=
309
=
 40
0.0
 41
2459824.213426632
 42
2459824.213427616
  1

 90
        0
  0
MLINESTYLE
  5
18
102
{ACAD_REACTORS
330
17
102
}
330
17
100
AcDbMlineStyle
  2
Standard
 70
     0
  3

 62
   256
 51
90.0
 52
90.0
 71
     2
 49
0.5
 62
   256
  6
BYLAYER
 49
-0.5
 62
   256
  6
BYLAYER
  0
ENDSEC
  0
EOF
