  0
SECTION
  2
HEADER
  9
$ACADVER
  1
AC1009
  9
$INSBASE
 10
0
 20
0
 30
0
  9
$EXTMIN
 10
0
 20
0
  9
$EXTMAX
 10
420
 20
297
  9
$LIMMIN
 10
0
 20
0
  9
$LIMMAX
 10
420
 20
297
  9
$LTSCALE
 40
1
  0
ENDSEC
  0
SECTION
  2
TABLES
  0
TABLE
  2
LTYPE
 70
     9
  0
LTYPE
  2
CONTINUOUS
 70
    64
  3
実線
 72
    65
 73
     0
 40
0.0
  0
LTYPE
  2
DASHED1
 70
    64
  3
--  --  --  --  --  --  --  --  
 72
    65
 73
     2
 40
2.5
 49
1.25
 49
-1.25
  0
LTYPE
  2
DASHED2
 70
    64
  3
----    ----    ----    ----    
 72
    65
 73
     2
 40
5.0
 49
2.5
 49
-2.5
  0
LTYPE
  2
DASHED3
 70
    64
  3
------  ------  ------  ------  
 72
    65
 73
     2
 40
5.0
 49
3.75
 49
-1.25
  0
LTYPE
  2
CENTER1
 70
    64
  3
----- - ----- - ----- - ----- - 
 72
    65
 73
     4
 40
10.0
 49
6.25
 49
-1.25
 49
1.25
 49
-1.25
  0
LTYPE
  2
CENTER2
 70
    64
  3
----------  --  ----------  --  
 72
    65
 73
     4
 40
20.0
 49
12.5
 49
-2.5
 49
2.5
 49
-2.5
  0
LTYPE
  2
PHANTOM1
 70
    64
  3
--- - - --- - - --- - - --- - - 
 72
    65
 73
     6
 40
10.0
 49
3.25
 49
-1.25
 49
1.25
 49
-1.25
 49
1.25
 49
-1.25
  0
LTYPE
  2
PHANTOM2
 70
    64
  3
--------  -  -  --------  -  -  
 72
    65
 73
     6
 40
20.0
 49
10.0
 49
-2.5
 49
1.25
 49
-2.5
 49
1.25
 49
-2.5
  0
LTYPE
  2
DOT
 70
    64
  3
-   -   -   -   -   -   -   -   
 72
    65
 73
     2
 40
2.5
 49
0.625
 49
-1.875
  0
LTYPE
  2
DUMMY
 70
    64
  3
ダミー
 72
    65
 73
     0
 40
0.0
  0
LTYPE
  2
RAND1
 70
    64
  3
ランダム線1
 72
    65
 73
     4
 40
10.0
 49
1.0
 49
-2.0
 49
3.0
 49
-4.0
  0
LTYPE
  2
RAND2
 70
    64
  3
ランダム線2
 72
    65
 73
     4
 40
14.0
 49
2.0
 49
-3.0
 49
4.0
 49
-5.0
  0
LTYPE
  2
RAND3
 70
    64
  3
ランダム線3
 72
    65
 73
     4
 40
18.0
 49
3.0
 49
-4.0
 49
5.0
 49
-6.0
  0
LTYPE
  2
RAND4
 70
    64
  3
ランダム線4
 72
    65
 73
     4
 40
22.0
 49
4.0
 49
-5.0
 49
6.0
 49
-7.0
  0
LTYPE
  2
RAND5
 70
    64
  3
ランダム線5
 72
    65
 73
     4
 40
26.0
 49
5.0
 49
-6.0
 49
7.0
 49
-8.0
  0
LTYPE
  2
LONG1
 70
    64
  3
----------  --  ----------  --  
 72
    65
 73
     4
 40
40.0
 49
32.5
 49
-2.5
 49
2.5
 49
-2.5
  0
LTYPE
  2
LONG2
 70
    64
  3
--------  -  -  --------  -  -  
 72
    65
 73
     6
 40
40.0
 49
30.0
 49
-2.5
 49
1.25
 49
-2.5
 49
1.25
 49
-2.5
  0
LTYPE
  2
LONG3
 70
    64
  3
+++++++++++++++..+++++++++++++++
 72
    65
 73
     2
 40
40.0
 49
37.5
 49
-2.5
  0
LTYPE
  2
LONG4
 70
    64
  3
+++++++++++++++..+++++++++++++++
 72
    65
 73
     2
 40
80.0
 49
75.0
 49
-5.0
  0
LTYPE
  2
LONG5
 70
    64
  3
----------  --  ----------  --  
 72
    65
 73
     4
 40
60.0
 49
37.5
 49
-7.5
 49
7.5
 49
-7.5
  0
LTYPE
  2
dashed
 70
   64
  3
-------   -------------   ------
 72
   65
 73
    2
 40
7.5
 49
6
 49
-1.5
  0
LTYPE
  2
dashed_spaced
 70
   64
  3
----        --------        ----
 72
   65
 73
    2
 40
12
 49
6
 49
-6
  0
LTYPE
  2
long_dashed_dotted
 70
   64
  3
------------- --- --------------
 72
   65
 73
    4
 40
15.25
 49
12
 49
-1.5
 49
0.25
 49
-1.5
  0
LTYPE
  2
long_dashed_double-dotted
 70
   64
  3
----------- --- --- ------------
 72
   65
 73
    6
 40
17
 49
12
 49
-1.5
 49
0.25
 49
-1.5
 49
0.25
 49
-1.5
  0
LTYPE
  2
long_dashed_triplicate-dotted
 70
   64
  3
--------- --- --- --- ----------
 72
   65
 73
    8
 40
18.75
 49
12
 49
-1.5
 49
0.25
 49
-1.5
 49
0.25
 49
-1.5
 49
0.25
 49
-1.5
  0
LTYPE
  2
dotted
 70
   64
  3
   -       -       -       -    
 72
   65
 73
    2
 40
1.75
 49
0.25
 49
-1.5
  0
LTYPE
  2
chain
 70
   64
  3
-------------- -- --------------
 72
   65
 73
    4
 40
18.5
 49
12
 49
-1.5
 49
3.5
 49
-1.5
  0
LTYPE
  2
chain_double_dash
 70
   64
  3
------------ -- -- -------------
 72
   65
 73
    6
 40
23.5
 49
12
 49
-1.5
 49
3.5
 49
-1.5
 49
3.5
 49
-1.5
  0
LTYPE
  2
dashed_dotted
 70
   64
  3
-----------     -     ----------
 72
   65
 73
    4
 40
9.25
 49
6
 49
-1.5
 49
0.25
 49
-1.5
  0
LTYPE
  2
double-dashed_dotted
 70
   64
  3
------   -----------   -   -----
 72
   65
 73
    6
 40
16.75
 49
6
 49
-1.5
 49
6
 49
-1.5
 49
0.25
 49
-1.5
  0
LTYPE
  2
dashed_double-dotted
 70
   64
  3
---------    -    -    ---------
 72
   65
 73
    6
 40
11
 49
6
 49
-1.5
 49
0.25
 49
-1.5
 49
0.25
 49
-1.5
  0
LTYPE
  2
double-dashed_double-dotted
 70
   64
  3
-----   ---------   -   -   ----
 72
   65
 73
    8
 40
18.5
 49
6
 49
-1.5
 49
6
 49
-1.5
 49
0.25
 49
-1.5
 49
0.25
 49
-1.5
  0
LTYPE
  2
dashed_triplicate-dotted
 70
   64
  3
-------    -    -    -    ------
 72
   65
 73
    8
 40
12.75
 49
6
 49
-1.5
 49
0.25
 49
-1.5
 49
0.25
 49
-1.5
 49
0.25
 49
-1.5
  0
LTYPE
  2
double-dashed_triplicate-dotted
 70
   64
  3
-----  ---------  -  -  -  -----
 72
   65
 73
   10
 40
20.25
 49
6
 49
-1.5
 49
6
 49
-1.5
 49
0.25
 49
-1.5
 49
0.25
 49
-1.5
 49
0.25
 49
-1.5
  0
LTYPE
  2
undefined
 70
   64
  3
--------------------------------
 72
   65
 73
    0
 40
0
  0
LTYPE
  2
_
 70
   64
  3
                                
 72
   65
 73
    0
 40
0
  0
LTYPE
  2
__18
 70
   64
  3
                                
 72
   65
 73
    0
 40
0
  0
LTYPE
  2
__19
 70
   64
  3
                                
 72
   65
 73
    0
 40
0
  0
LTYPE
  2
__20
 70
   64
  3
                                
 72
   65
 73
    0
 40
0
  0
LTYPE
  2
__21
 70
   64
  3
                                
 72
   65
 73
    0
 40
0
  0
LTYPE
  2
__22
 70
   64
  3
                                
 72
   65
 73
    0
 40
0
  0
LTYPE
  2
__23
 70
   64
  3
                                
 72
   65
 73
    0
 40
0
  0
LTYPE
  2
__24
 70
   64
  3
                                
 72
   65
 73
    0
 40
0
  0
LTYPE
  2
__25
 70
   64
  3
                                
 72
   65
 73
    0
 40
0
  0
LTYPE
  2
__26
 70
   64
  3
                                
 72
   65
 73
    0
 40
0
  0
LTYPE
  2
__27
 70
   64
  3
                                
 72
   65
 73
    0
 40
0
  0
LTYPE
  2
__28
 70
   64
  3
                                
 72
   65
 73
    0
 40
0
  0
LTYPE
  2
__29
 70
   64
  3
                                
 72
   65
 73
    0
 40
0
  0
LTYPE
  2
__30
 70
   64
  3
                                
 72
   65
 73
    0
 40
0
  0
LTYPE
  2
__31
 70
   64
  3
                                
 72
   65
 73
    0
 40
0
  0
LTYPE
  2
__32
 70
   64
  3
                                
 72
   65
 73
    0
 40
0
  0
ENDTAB
  0
TABLE
  2
STYLE
  5
3
100
AcDbSymbolTable
 70
     1
  0
STYLE
  5
10
100
AcDbSymbolTableRecord
100
AcDbTextStyleTableRecord
  2
STANDARD
 70
     0
 40
0.0
 41
1.0
 50
0.0
 71
     0
 42
0.2
  3
txt
  4
bigfont.shx
  0
STYLE
  5
26
100
AcDbSymbolTableRecord
100
AcDbTextStyleTableRecord
  2
TATEGAKI
 70
    68
 40
0.0
 41
1.0
 50
0.0
 71
     0
 42
1.0
  3
txt
  4
bigfont.shx
  0
ENDTAB
  0
TABLE
  2
LAYER
 70
    5
  0
LAYER
  2
_0-0_0
 70
   64
 62
    7
  6
CONTINUOUS
  0
LAYER
  2
_0-1_title_line
 70
   64
 62
    7
  6
CONTINUOUS
  0
LAYER
  2
_0-2_body
 70
   64
 62
    7
  6
CONTINUOUS
  0
LAYER
  2
_0-3_unit222
 70
   64
 62
    7
  6
CONTINUOUS
  0
LAYER
  2
ADD_LINE
 70
   64
 62
    7
  6
CONTINUOUS
  0
ENDTAB
  0
ENDSEC
  0
SECTION
  2
BLOCKS
  0
BLOCK
  2
-000-block_2
 70
   64
 10
0
 20
0
 30
0
  0
LINE
  8
_0-2_body
  6
CONTINUOUS
 62
    7
 10
-0.000006515881346
 20
0.0000043318630631
 11
-0.0000134365614115
 21
0.0000043318630631
  0
LINE
  8
_0-2_body
  6
CONTINUOUS
 62
    7
 10
-0.0000134365614115
 20
0.0000043318630631
 11
-0.0000134365614115
 21
0.0000022992567268
  0
LINE
  8
_0-2_body
  6
CONTINUOUS
 62
    7
 10
-0.0000134365614115
 20
0.0000022992567268
 11
-0.000006515881346
 21
0.0000022992567268
  0
LINE
  8
_0-2_body
  6
CONTINUOUS
 62
    7
 10
-0.000006515881346
 20
0.0000022992567268
 11
-0.000006515881346
 21
0.0000043318630631
  0
LINE
  8
_0-2_body
  6
CONTINUOUS
 62
    7
 10
-0.000006515881346
 20
0.0000014989610456
 11
-0.0000134365614115
 21
0.0000014989610456
  0
LINE
  8
_0-2_body
  6
CONTINUOUS
 62
    7
 10
-0.0000134365614115
 20
0.0000014989610456
 11
-0.0000134365614115
 21
-0.000000508151584
  0
LINE
  8
_0-2_body
  6
CONTINUOUS
 62
    7
 10
-0.0000134365614115
 20
-0.000000508151584
 11
-0.000006515881346
 21
-0.000000508151584
  0
LINE
  8
_0-2_body
  6
CONTINUOUS
 62
    7
 10
-0.000006515881346
 20
-0.000000508151584
 11
-0.000006515881346
 21
0.0000014989610456
  0
LINE
  8
_0-2_body
  6
CONTINUOUS
 62
    7
 10
-0.0000134365614115
 20
-0.000003328479003
 11
-0.000006515881346
 21
-0.000003328479003
  0
LINE
  8
_0-2_body
  6
CONTINUOUS
 62
    7
 10
-0.000006515881346
 20
-0.000003328479003
 11
-0.000006515881346
 21
-0.00000130861952
  0
LINE
  8
_0-2_body
  6
CONTINUOUS
 62
    7
 10
-0.000006515881346
 20
-0.00000130861952
 11
-0.0000134365614115
 21
-0.00000130861952
  0
LINE
  8
_0-2_body
  6
CONTINUOUS
 62
    7
 10
-0.0000134365614115
 20
-0.00000130861952
 11
-0.0000134365614115
 21
-0.000003328479003
  0
LINE
  8
_0-2_body
  6
CONTINUOUS
 62
    7
 10
-0.0000024380940749
 20
0.0000025152642137
 11
-0.0000024380940749
 21
0.0000015750976558
  0
LINE
  8
_0-2_body
  6
CONTINUOUS
 62
    7
 10
-0.0000024380940749
 20
0.0000015750976558
 11
-0.0000007872043183
 21
0.0000015750976558
  0
LINE
  8
_0-2_body
  6
CONTINUOUS
 62
    7
 10
-0.0000007872043183
 20
0.0000015750976558
 11
-0.0000007872043183
 21
0.0000025152642137
  0
LINE
  8
_0-2_body
  6
CONTINUOUS
 62
    7
 10
-0.0000007872043183
 20
0.0000025152642137
 11
-0.0000024380940749
 21
0.0000025152642137
  0
LINE
  8
_0-2_body
  6
CONTINUOUS
 62
    7
 10
-0.0000024380940749
 20
0
 11
-0.0000007872043183
 21
0
  0
LINE
  8
_0-2_body
  6
CONTINUOUS
 62
    7
 10
-0.0000007872043183
 20
0
 11
-0.0000007872043183
 21
0.0000009653157549
  0
LINE
  8
_0-2_body
  6
CONTINUOUS
 62
    7
 10
-0.0000007872043183
 20
0.0000009653157549
 11
-0.0000024380940749
 21
0.0000009653157549
  0
LINE
  8
_0-2_body
  6
CONTINUOUS
 62
    7
 10
-0.0000024380940749
 20
0.0000009653157549
 11
-0.0000024380940749
 21
0
  0
LINE
  8
_0-2_body
  6
CONTINUOUS
 62
    7
 10
0.0000017525200733
 20
0.0000025152642137
 11
0
 21
0.0000025152642137
  0
LINE
  8
_0-2_body
  6
CONTINUOUS
 62
    7
 10
0
 20
0.0000025152642137
 11
0
 21
0.0000015750976558
  0
LINE
  8
_0-2_body
  6
CONTINUOUS
 62
    7
 10
0
 20
0.0000015750976558
 11
0.0000017525200733
 21
0.0000015750976558
  0
LINE
  8
_0-2_body
  6
CONTINUOUS
 62
    7
 10
0.0000017525200733
 20
0.0000015750976558
 11
0.0000017525200733
 21
0.0000025152642137
  0
LINE
  8
_0-2_body
  6
CONTINUOUS
 62
    7
 10
0.0000017525200733
 20
0
 11
0.0000017525200733
 21
0.0000009653157549
  0
LINE
  8
_0-2_body
  6
CONTINUOUS
 62
    7
 10
0.0000017525200733
 20
0.0000009653157549
 11
0
 21
0.0000009653157549
  0
LINE
  8
_0-2_body
  6
CONTINUOUS
 62
    7
 10
0
 20
0.0000009653157549
 11
0
 21
0
  0
LINE
  8
_0-2_body
  6
CONTINUOUS
 62
    7
 10
0
 20
0
 11
0.0000017525200733
 21
0
  0
ENDBLK
  0
BLOCK
  2
-001-block_3
 70
   64
 10
0
 20
0
 30
0
  0
LINE
  8
_0-2_body
  6
CONTINUOUS
 62
    7
 10
-0.0000047228814007
 20
0.0000047716295018
 11
0.0000037003770607
 21
0.0000047716295018
  0
LINE
  8
_0-2_body
  6
CONTINUOUS
 62
    7
 10
0.0000037003770607
 20
0.0000047716295018
 11
0.0000037003770607
 21
-0.0000045930013009
  0
LINE
  8
_0-2_body
  6
CONTINUOUS
 62
    7
 10
0.0000037003770607
 20
-0.0000045930013009
 11
0.0000026454888231
 21
-0.0000045930013009
  0
LINE
  8
_0-2_body
  6
CONTINUOUS
 62
    7
 10
0.0000026454888231
 20
-0.0000045930013009
 11
0.0000026454888231
 21
-0.0000038138929569
  0
LINE
  8
_0-2_body
  6
CONTINUOUS
 62
    7
 10
0.0000026454888231
 20
-0.0000038138929569
 11
0
 21
-0.0000038138929569
  0
LINE
  8
_0-2_body
  6
CONTINUOUS
 62
    7
 10
0
 20
-0.0000038138929569
 11
0
 21
-0.0000095429144941
  0
LINE
  8
_0-2_body
  6
CONTINUOUS
 62
    7
 10
0
 20
-0.0000095429144941
 11
-0.0000010710801863
 21
-0.0000095429144941
  0
LINE
  8
_0-2_body
  6
CONTINUOUS
 62
    7
 10
-0.0000010710801863
 20
-0.0000095429144941
 11
-0.0000010710801863
 21
-0.0000038138929569
  0
LINE
  8
_0-2_body
  6
CONTINUOUS
 62
    7
 10
-0.0000010710801863
 20
-0.0000038138929569
 11
-0.0000036841851119
 21
-0.0000038138929569
  0
LINE
  8
_0-2_body
  6
CONTINUOUS
 62
    7
 10
-0.0000036841851119
 20
-0.0000038138929569
 11
-0.0000036841851119
 21
-0.0000046579413508
  0
LINE
  8
_0-2_body
  6
CONTINUOUS
 62
    7
 10
-0.0000036841851119
 20
-0.0000046579413508
 11
-0.0000047228814007
 21
-0.0000046579413508
  0
LINE
  8
_0-2_body
  6
CONTINUOUS
 62
    7
 10
-0.0000047228814007
 20
-0.0000046579413508
 11
-0.0000047228814007
 21
0.0000047716295018
  0
LINE
  8
_0-2_body
  6
CONTINUOUS
 62
    7
 10
-0.0000010710801863
 20
0.0000037491251618
 11
-0.0000036841851119
 21
0.0000037491251618
  0
LINE
  8
_0-2_body
  6
CONTINUOUS
 62
    7
 10
-0.0000036841851119
 20
0.0000037491251618
 11
-0.0000036841851119
 21
0.0000010063123912
  0
LINE
  8
_0-2_body
  6
CONTINUOUS
 62
    7
 10
-0.0000036841851119
 20
0.0000010063123912
 11
-0.0000010710801863
 21
0.0000010063123912
  0
LINE
  8
_0-2_body
  6
CONTINUOUS
 62
    7
 10
-0.0000010710801863
 20
0.0000010063123912
 11
-0.0000010710801863
 21
0.0000037491251618
  0
LINE
  8
_0-2_body
  6
CONTINUOUS
 62
    7
 10
-0.0000036841851119
 20
-0.0000028077528204
 11
-0.0000010710801863
 21
-0.0000028077528204
  0
LINE
  8
_0-2_body
  6
CONTINUOUS
 62
    7
 10
-0.0000010710801863
 20
-0.0000028077528204
 11
-0.0000010710801863
 21
0
  0
LINE
  8
_0-2_body
  6
CONTINUOUS
 62
    7
 10
-0.0000010710801863
 20
0
 11
-0.0000036841851119
 21
0
  0
LINE
  8
_0-2_body
  6
CONTINUOUS
 62
    7
 10
-0.0000036841851119
 20
0
 11
-0.0000036841851119
 21
-0.0000028077528204
  0
LINE
  8
_0-2_body
  6
CONTINUOUS
 62
    7
 10
0.0000026454888231
 20
0.0000010063123912
 11
0.0000026454888231
 21
0.0000037491251618
  0
LINE
  8
_0-2_body
  6
CONTINUOUS
 62
    7
 10
0.0000026454888231
 20
0.0000037491251618
 11
0
 21
0.0000037491251618
  0
LINE
  8
_0-2_body
  6
CONTINUOUS
 62
    7
 10
0
 20
0.0000037491251618
 11
0
 21
0.0000010063123912
  0
LINE
  8
_0-2_body
  6
CONTINUOUS
 62
    7
 10
0
 20
0.0000010063123912
 11
0.0000026454888231
 21
0.0000010063123912
  0
LINE
  8
_0-2_body
  6
CONTINUOUS
 62
    7
 10
0
 20
-0.0000028077528204
 11
0.0000026454888231
 21
-0.0000028077528204
  0
LINE
  8
_0-2_body
  6
CONTINUOUS
 62
    7
 10
0.0000026454888231
 20
-0.0000028077528204
 11
0.0000026454888231
 21
0
  0
LINE
  8
_0-2_body
  6
CONTINUOUS
 62
    7
 10
0.0000026454888231
 20
0
 11
0
 21
0
  0
LINE
  8
_0-2_body
  6
CONTINUOUS
 62
    7
 10
0
 20
0
 11
0
 21
-0.0000028077528204
  0
ENDBLK
  0
BLOCK
  2
-002-block_4
 70
   64
 10
0
 20
0
 30
0
  0
ENDBLK
  0
BLOCK
  2
-003-block_5
 70
   64
 10
0
 20
0
 30
0
  0
ENDBLK
  0
BLOCK
  2
-004-block_6
 70
   64
 10
0
 20
0
 30
0
  0
ENDBLK
  0
BLOCK
  2
-005-block_7
 70
   64
 10
0
 20
0
 30
0
  0
ENDBLK
  0
BLOCK
  2
-006-block_8
 70
   64
 10
0
 20
0
 30
0
  0
ENDBLK
  0
BLOCK
  2
-007-block_9
 70
   64
 10
0
 20
0
 30
0
  0
LINE
  8
_0-2_body
  6
CONTINUOUS
 62
    7
 10
0
 20
-0.0000067141465912
 11
-0.000000731738281
 21
-0.0000067141465912
  0
LINE
  8
_0-2_body
  6
CONTINUOUS
 62
    7
 10
-0.000000731738281
 20
-0.0000067141465912
 11
-0.000000731738281
 21
-0.0000035026285798
  0
LINE
  8
_0-2_body
  6
CONTINUOUS
 62
    7
 10
-0.000000731738281
 20
-0.0000035026285798
 11
-0.0000039411892351
 21
-0.0000035026285798
  0
LINE
  8
_0-2_body
  6
CONTINUOUS
 62
    7
 10
-0.0000039411892351
 20
-0.0000035026285798
 11
-0.0000039411892351
 21
-0.0000067141465912
  0
LINE
  8
_0-2_body
  6
CONTINUOUS
 62
    7
 10
-0.0000039411892351
 20
-0.0000067141465912
 11
-0.0000046730997709
 21
-0.0000067141465912
  0
LINE
  8
_0-2_body
  6
CONTINUOUS
 62
    7
 10
-0.0000046730997709
 20
-0.0000067141465912
 11
-0.0000046730997709
 21
0
  0
LINE
  8
_0-2_body
  6
CONTINUOUS
 62
    7
 10
-0.0000046730997709
 20
0
 11
-0.0000039411892351
 21
0
  0
LINE
  8
_0-2_body
  6
CONTINUOUS
 62
    7
 10
-0.0000039411892351
 20
0
 11
-0.0000039411892351
 21
-0.0000028673529723
  0
LINE
  8
_0-2_body
  6
CONTINUOUS
 62
    7
 10
-0.0000039411892351
 20
-0.0000028673529723
 11
-0.000000731738281
 21
-0.0000028673529723
  0
LINE
  8
_0-2_body
  6
CONTINUOUS
 62
    7
 10
-0.000000731738281
 20
-0.0000028673529723
 11
-0.000000731738281
 21
0
  0
LINE
  8
_0-2_body
  6
CONTINUOUS
 62
    7
 10
-0.000000731738281
 20
0
 11
0
 21
0
  0
LINE
  8
_0-2_body
  6
CONTINUOUS
 62
    7
 10
0
 20
0
 11
0
 21
-0.0000067141465912
  0
ENDBLK
  0
BLOCK
  2
-008-block_10
 70
   64
 10
0
 20
0
 30
0
  0
ENDBLK
  0
BLOCK
  2
-009-block_11
 70
   64
 10
0
 20
0
 30
0
  0
LINE
  8
_0-2_body
  6
CONTINUOUS
 62
    7
 10
-0.000006347243922
 20
0.0000043301405154
 11
-0.0000130917073534
 21
0.0000043301405154
  0
LINE
  8
_0-2_body
  6
CONTINUOUS
 62
    7
 10
-0.0000130917073534
 20
0.0000043301405154
 11
-0.0000130917073534
 21
0.0000022983954529
  0
LINE
  8
_0-2_body
  6
CONTINUOUS
 62
    7
 10
-0.0000130917073534
 20
0.0000022983954529
 11
-0.000006347243922
 21
0.0000022983954529
  0
LINE
  8
_0-2_body
  6
CONTINUOUS
 62
    7
 10
-0.000006347243922
 20
0.0000022983954529
 11
-0.000006347243922
 21
0.0000043301405154
  0
LINE
  8
_0-2_body
  6
CONTINUOUS
 62
    7
 10
-0.000006347243922
 20
0.0000014984442813
 11
-0.0000130917073534
 21
0.0000014984442813
  0
LINE
  8
_0-2_body
  6
CONTINUOUS
 62
    7
 10
-0.0000130917073534
 20
0.0000014984442813
 11
-0.0000130917073534
 21
-0.0000005079793293
  0
LINE
  8
_0-2_body
  6
CONTINUOUS
 62
    7
 10
-0.0000130917073534
 20
-0.0000005079793293
 11
-0.000006347243922
 21
-0.0000005079793293
  0
LINE
  8
_0-2_body
  6
CONTINUOUS
 62
    7
 10
-0.000006347243922
 20
-0.0000005079793293
 11
-0.000006347243922
 21
0.0000014984442813
  0
LINE
  8
_0-2_body
  6
CONTINUOUS
 62
    7
 10
-0.0000130917073534
 20
-0.0000033269287101
 11
-0.000006347243922
 21
-0.0000033269287101
  0
LINE
  8
_0-2_body
  6
CONTINUOUS
 62
    7
 10
-0.000006347243922
 20
-0.0000033269287101
 11
-0.000006347243922
 21
-0.0000013079305009
  0
LINE
  8
_0-2_body
  6
CONTINUOUS
 62
    7
 10
-0.000006347243922
 20
-0.0000013079305009
 11
-0.0000130917073534
 21
-0.0000013079305009
  0
LINE
  8
_0-2_body
  6
CONTINUOUS
 62
    7
 10
-0.0000130917073534
 20
-0.0000013079305009
 11
-0.0000130917073534
 21
-0.0000033269287101
  0
LINE
  8
_0-2_body
  6
CONTINUOUS
 62
    7
 10
-0.0000023760823561
 20
0.0000025144029399
 11
-0.0000023760823561
 21
0.0000015745808915
  0
LINE
  8
_0-2_body
  6
CONTINUOUS
 62
    7
 10
-0.0000023760823561
 20
0.0000015745808915
 11
-0.0000007672227645
 21
0.0000015745808915
  0
LINE
  8
_0-2_body
  6
CONTINUOUS
 62
    7
 10
-0.0000007672227645
 20
0.0000015745808915
 11
-0.0000007672227645
 21
0.0000025144029399
  0
LINE
  8
_0-2_body
  6
CONTINUOUS
 62
    7
 10
-0.0000007672227645
 20
0.0000025144029399
 11
-0.0000023760823561
 21
0.0000025144029399
  0
LINE
  8
_0-2_body
  6
CONTINUOUS
 62
    7
 10
-0.0000023760823561
 20
0
 11
-0.0000007672227645
 21
0
  0
LINE
  8
_0-2_body
  6
CONTINUOUS
 62
    7
 10
-0.0000007672227645
 20
0
 11
-0.0000007672227645
 21
0.0000009651435001
  0
LINE
  8
_0-2_body
  6
CONTINUOUS
 62
    7
 10
-0.0000007672227645
 20
0.0000009651435001
 11
-0.0000023760823561
 21
0.0000009651435001
  0
LINE
  8
_0-2_body
  6
CONTINUOUS
 62
    7
 10
-0.0000023760823561
 20
0.0000009651435001
 11
-0.0000023760823561
 21
0
  0
LINE
  8
_0-2_body
  6
CONTINUOUS
 62
    7
 10
0.000001707733832
 20
0.0000025144029399
 11
0
 21
0.0000025144029399
  0
LINE
  8
_0-2_body
  6
CONTINUOUS
 62
    7
 10
0
 20
0.0000025144029399
 11
0
 21
0.0000015745808915
  0
LINE
  8
_0-2_body
  6
CONTINUOUS
 62
    7
 10
0
 20
0.0000015745808915
 11
0.000001707733832
 21
0.0000015745808915
  0
LINE
  8
_0-2_body
  6
CONTINUOUS
 62
    7
 10
0.000001707733832
 20
0.0000015745808915
 11
0.000001707733832
 21
0.0000025144029399
  0
LINE
  8
_0-2_body
  6
CONTINUOUS
 62
    7
 10
0.000001707733832
 20
0
 11
0.000001707733832
 21
0.0000009651435001
  0
LINE
  8
_0-2_body
  6
CONTINUOUS
 62
    7
 10
0.000001707733832
 20
0.0000009651435001
 11
0
 21
0.0000009651435001
  0
LINE
  8
_0-2_body
  6
CONTINUOUS
 62
    7
 10
0
 20
0.0000009651435001
 11
0
 21
0
  0
LINE
  8
_0-2_body
  6
CONTINUOUS
 62
    7
 10
0
 20
0
 11
0.000001707733832
 21
0
  0
ENDBLK
  0
BLOCK
  2
-010-block_12
 70
   64
 10
0
 20
0
 30
0
  0
LINE
  8
_0-2_body
  6
CONTINUOUS
 62
    7
 10
-0.000004600580511
 20
0.0000047716295018
 11
0.0000036046034062
 21
0.0000047716295018
  0
LINE
  8
_0-2_body
  6
CONTINUOUS
 62
    7
 10
0.0000036046034062
 20
0.0000047716295018
 11
0.0000036046034062
 21
-0.0000045930013009
  0
LINE
  8
_0-2_body
  6
CONTINUOUS
 62
    7
 10
0.0000036046034062
 20
-0.0000045930013009
 11
0.0000025772759325
 21
-0.0000045930013009
  0
LINE
  8
_0-2_body
  6
CONTINUOUS
 62
    7
 10
0.0000025772759325
 20
-0.0000045930013009
 11
0.0000025772759325
 21
-0.0000038138929569
  0
LINE
  8
_0-2_body
  6
CONTINUOUS
 62
    7
 10
0.0000025772759325
 20
-0.0000038138929569
 11
0
 21
-0.0000038138929569
  0
LINE
  8
_0-2_body
  6
CONTINUOUS
 62
    7
 10
0
 20
-0.0000038138929569
 11
0
 21
-0.0000095429144941
  0
LINE
  8
_0-2_body
  6
CONTINUOUS
 62
    7
 10
0
 20
-0.0000095429144941
 11
-0.0000010431749129
 21
-0.0000095429144941
  0
LINE
  8
_0-2_body
  6
CONTINUOUS
 62
    7
 10
-0.0000010431749129
 20
-0.0000095429144941
 11
-0.0000010431749129
 21
-0.0000038138929569
  0
LINE
  8
_0-2_body
  6
CONTINUOUS
 62
    7
 10
-0.0000010431749129
 20
-0.0000038138929569
 11
-0.0000035887559669
 21
-0.0000038138929569
  0
LINE
  8
_0-2_body
  6
CONTINUOUS
 62
    7
 10
-0.0000035887559669
 20
-0.0000038138929569
 11
-0.0000035887559669
 21
-0.0000046579413508
  0
LINE
  8
_0-2_body
  6
CONTINUOUS
 62
    7
 10
-0.0000035887559669
 20
-0.0000046579413508
 11
-0.000004600580511
 21
-0.0000046579413508
  0
LINE
  8
_0-2_body
  6
CONTINUOUS
 62
    7
 10
-0.000004600580511
 20
-0.0000046579413508
 11
-0.000004600580511
 21
0.0000047716295018
  0
LINE
  8
_0-2_body
  6
CONTINUOUS
 62
    7
 10
-0.0000010431749129
 20
0.0000037491251618
 11
-0.0000035887559669
 21
0.0000037491251618
  0
LINE
  8
_0-2_body
  6
CONTINUOUS
 62
    7
 10
-0.0000035887559669
 20
0.0000037491251618
 11
-0.0000035887559669
 21
0.0000010063123912
  0
LINE
  8
_0-2_body
  6
CONTINUOUS
 62
    7
 10
-0.0000035887559669
 20
0.0000010063123912
 11
-0.0000010431749129
 21
0.0000010063123912
  0
LINE
  8
_0-2_body
  6
CONTINUOUS
 62
    7
 10
-0.0000010431749129
 20
0.0000010063123912
 11
-0.0000010431749129
 21
0.0000037491251618
  0
LINE
  8
_0-2_body
  6
CONTINUOUS
 62
    7
 10
-0.0000035887559669
 20
-0.0000028077528204
 11
-0.0000010431749129
 21
-0.0000028077528204
  0
LINE
  8
_0-2_body
  6
CONTINUOUS
 62
    7
 10
-0.0000010431749129
 20
-0.0000028077528204
 11
-0.0000010431749129
 21
0
  0
LINE
  8
_0-2_body
  6
CONTINUOUS
 62
    7
 10
-0.0000010431749129
 20
0
 11
-0.0000035887559669
 21
0
  0
LINE
  8
_0-2_body
  6
CONTINUOUS
 62
    7
 10
-0.0000035887559669
 20
0
 11
-0.0000035887559669
 21
-0.0000028077528204
  0
LINE
  8
_0-2_body
  6
CONTINUOUS
 62
    7
 10
0.0000025772759325
 20
0.0000010063123912
 11
0.0000025772759325
 21
0.0000037491251618
  0
LINE
  8
_0-2_body
  6
CONTINUOUS
 62
    7
 10
0.0000025772759325
 20
0.0000037491251618
 11
0
 21
0.0000037491251618
  0
LINE
  8
_0-2_body
  6
CONTINUOUS
 62
    7
 10
0
 20
0.0000037491251618
 11
0
 21
0.0000010063123912
  0
LINE
  8
_0-2_body
  6
CONTINUOUS
 62
    7
 10
0
 20
0.0000010063123912
 11
0.0000025772759325
 21
0.0000010063123912
  0
LINE
  8
_0-2_body
  6
CONTINUOUS
 62
    7
 10
0
 20
-0.0000028077528204
 11
0.0000025772759325
 21
-0.0000028077528204
  0
LINE
  8
_0-2_body
  6
CONTINUOUS
 62
    7
 10
0.0000025772759325
 20
-0.0000028077528204
 11
0.0000025772759325
 21
0
  0
LINE
  8
_0-2_body
  6
CONTINUOUS
 62
    7
 10
0.0000025772759325
 20
0
 11
0
 21
0
  0
LINE
  8
_0-2_body
  6
CONTINUOUS
 62
    7
 10
0
 20
0
 11
0
 21
-0.0000028077528204
  0
ENDBLK
  0
BLOCK
  2
-011-block_13
 70
   64
 10
0
 20
0
 30
0
  0
ENDBLK
  0
BLOCK
  2
-012-block_14
 70
   64
 10
0
 20
0
 30
0
  0
ENDBLK
  0
BLOCK
  2
-013-block_15
 70
   64
 10
0
 20
0
 30
0
  0
ENDBLK
  0
BLOCK
  2
-014-block_16
 70
   64
 10
0
 20
0
 30
0
  0
ENDBLK
  0
BLOCK
  2
-015-block_17
 70
   64
 10
0
 20
0
 30
0
  0
ENDBLK
  0
BLOCK
  2
-016-block_18
 70
   64
 10
0
 20
0
 30
0
  0
LINE
  8
_0-2_body
  6
CONTINUOUS
 62
    7
 10
0
 20
-0.0000067100124766
 11
-0.0000007131347654
 21
-0.0000067100124766
  0
LINE
  8
_0-2_body
  6
CONTINUOUS
 62
    7
 10
-0.0000007131347654
 20
-0.0000067100124766
 11
-0.0000007131347654
 21
-0.0000035005615225
  0
LINE
  8
_0-2_body
  6
CONTINUOUS
 62
    7
 10
-0.0000007131347654
 20
-0.0000035005615225
 11
-0.0000038402479374
 21
-0.0000035005615225
  0
LINE
  8
_0-2_body
  6
CONTINUOUS
 62
    7
 10
-0.0000038402479374
 20
-0.0000035005615225
 11
-0.0000038402479374
 21
-0.0000067100124766
  0
LINE
  8
_0-2_body
  6
CONTINUOUS
 62
    7
 10
-0.0000038402479374
 20
-0.0000067100124766
 11
-0.0000045533827028
 21
-0.0000067100124766
  0
LINE
  8
_0-2_body
  6
CONTINUOUS
 62
    7
 10
-0.0000045533827028
 20
-0.0000067100124766
 11
-0.0000045533827028
 21
0
  0
LINE
  8
_0-2_body
  6
CONTINUOUS
 62
    7
 10
-0.0000045533827028
 20
0
 11
-0.0000038402479374
 21
0
  0
LINE
  8
_0-2_body
  6
CONTINUOUS
 62
    7
 10
-0.0000038402479374
 20
0
 11
-0.0000038402479374
 21
-0.0000028656304246
  0
LINE
  8
_0-2_body
  6
CONTINUOUS
 62
    7
 10
-0.0000038402479374
 20
-0.0000028656304246
 11
-0.0000007131347654
 21
-0.0000028656304246
  0
LINE
  8
_0-2_body
  6
CONTINUOUS
 62
    7
 10
-0.0000007131347654
 20
-0.0000028656304246
 11
-0.0000007131347654
 21
0
  0
LINE
  8
_0-2_body
  6
CONTINUOUS
 62
    7
 10
-0.0000007131347654
 20
0
 11
0
 21
0
  0
LINE
  8
_0-2_body
  6
CONTINUOUS
 62
    7
 10
0
 20
0
 11
0
 21
-0.0000067100124766
  0
ENDBLK
  0
BLOCK
  2
-017-block_20
 70
   64
 10
0
 20
0
 30
0
  0
LINE
  8
_0-3_unit222
  6
CONTINUOUS
 62
    7
 10
-0.0000027574544263
 20
-0.0000019637044265
 11
-0.0000027574544263
 21
-0.0000011162109372
  0
LINE
  8
_0-3_unit222
  6
CONTINUOUS
 62
    7
 10
-0.0000027574544263
 20
-0.0000011162109372
 11
-0.000001909960937
 21
-0.0000011162109372
  0
LINE
  8
_0-3_unit222
  6
CONTINUOUS
 62
    7
 10
-0.000001909960937
 20
-0.0000011162109372
 11
-0.000001909960937
 21
-0.0000019637044265
  0
LINE
  8
_0-3_unit222
  6
CONTINUOUS
 62
    7
 10
-0.000001909960937
 20
-0.0000019637044265
 11
-0.0000027574544263
 21
-0.0000019637044265
  0
ENDBLK
  0
BLOCK
  2
-018-block_19
 70
   64
 10
0
 20
0
 30
0
  0
INSERT
  2
-017-block_20
  8
_0-3_unit222
 10
0
 20
0
 41
1
 42
1
 50
0
  0
ENDBLK
  0
BLOCK
  2
-019-block_21
 70
   64
 10
0
 20
0
 30
0
  0
LINE
  8
_0-3_unit222
  6
CONTINUOUS
 62
    7
 10
-0.0000030881835929
 20
-0.000002988964843
 11
-0.0000030881835929
 21
-0.0000015378906246
  0
LINE
  8
_0-3_unit222
  6
CONTINUOUS
 62
    7
 10
-0.0000030881835929
 20
-0.0000015378906246
 11
-0.0000057174804673
 21
-0.0000015378906246
  0
LINE
  8
_0-3_unit222
  6
CONTINUOUS
 62
    7
 10
-0.0000057174804673
 20
-0.0000015378906246
 11
-0.0000057174804673
 21
-0.0000008557617185
  0
LINE
  8
_0-3_unit222
  6
CONTINUOUS
 62
    7
 10
-0.0000057174804673
 20
-0.0000008557617185
 11
-0.0000029517578117
 21
0.0000030716471346
  0
LINE
  8
_0-3_unit222
  6
CONTINUOUS
 62
    7
 10
-0.0000029517578117
 20
0.0000030716471346
 11
-0.0000023440429681
 21
0.0000030716471346
  0
LINE
  8
_0-3_unit222
  6
CONTINUOUS
 62
    7
 10
-0.0000023440429681
 20
0.0000030716471346
 11
-0.0000023440429681
 21
-0.0000008557617185
  0
LINE
  8
_0-3_unit222
  6
CONTINUOUS
 62
    7
 10
-0.0000023440429681
 20
-0.0000008557617185
 11
-0.0000015254882808
 21
-0.0000008557617185
  0
LINE
  8
_0-3_unit222
  6
CONTINUOUS
 62
    7
 10
-0.0000015254882808
 20
-0.0000008557617185
 11
-0.0000015254882808
 21
-0.0000015378906246
  0
LINE
  8
_0-3_unit222
  6
CONTINUOUS
 62
    7
 10
-0.0000015254882808
 20
-0.0000015378906246
 11
-0.0000023440429681
 21
-0.0000015378906246
  0
LINE
  8
_0-3_unit222
  6
CONTINUOUS
 62
    7
 10
-0.0000023440429681
 20
-0.0000015378906246
 11
-0.0000023440429681
 21
-0.000002988964843
  0
LINE
  8
_0-3_unit222
  6
CONTINUOUS
 62
    7
 10
-0.0000023440429681
 20
-0.000002988964843
 11
-0.0000030881835929
 21
-0.000002988964843
  0
LINE
  8
_0-3_unit222
  6
CONTINUOUS
 62
    7
 10
-0.0000030881835929
 20
-0.0000008557617185
 11
-0.0000030881835929
 21
0.0000018768880203
  0
LINE
  8
_0-3_unit222
  6
CONTINUOUS
 62
    7
 10
-0.0000030881835929
 20
0.0000018768880203
 11
-0.0000049857421862
 21
-0.0000008557617185
  0
LINE
  8
_0-3_unit222
  6
CONTINUOUS
 62
    7
 10
-0.0000049857421862
 20
-0.0000008557617185
 11
-0.0000030881835929
 21
-0.0000008557617185
  0
ENDBLK
  0
BLOCK
  2
-021-block_24
 70
   64
 10
0
 20
0
 30
0
  0
LINE
  8
_0-3_unit222
  6
CONTINUOUS
 62
    7
 10
-0.0000022158854161
 20
-0.0000438588216036
 11
-0.0000030716471346
 21
-0.0000438588216036
  0
LINE
  8
_0-3_unit222
  6
CONTINUOUS
 62
    7
 10
-0.0000030716471346
 20
-0.0000438588216036
 11
-0.0000030716471346
 21
-0.0000431146809788
  0
LINE
  8
_0-3_unit222
  6
CONTINUOUS
 62
    7
 10
-0.0000030716471346
 20
-0.0000431146809788
 11
-0.0000022158854161
 21
-0.0000431146809788
  0
LINE
  8
_0-3_unit222
  6
CONTINUOUS
 62
    7
 10
-0.0000022158854161
 20
-0.0000431146809788
 11
-0.0000022158854161
 21
-0.0000438588216036
  0
LINE
  8
_0-3_unit222
  6
CONTINUOUS
 62
    7
 10
0.000002988964843
 20
-0.0000438588216036
 11
-0.0000014014648433
 21
-0.0000438588216036
  0
LINE
  8
_0-3_unit222
  6
CONTINUOUS
 62
    7
 10
-0.0000014014648433
 20
-0.0000438588216036
 11
-0.0000014014648433
 21
-0.0000431146809788
  0
LINE
  8
_0-3_unit222
  6
CONTINUOUS
 62
    7
 10
-0.0000014014648433
 20
-0.0000431146809788
 11
0.000002988964843
 21
-0.0000431146809788
  0
LINE
  8
_0-3_unit222
  6
CONTINUOUS
 62
    7
 10
0.000002988964843
 20
-0.0000431146809788
 11
0.000002988964843
 21
-0.0000438588216036
  0
LINE
  8
_0-3_unit222
  6
CONTINUOUS
 62
    7
 10
-0.0000022158854161
 20
-0.0000254992187436
 11
-0.0000030716471346
 21
-0.0000254992187436
  0
LINE
  8
_0-3_unit222
  6
CONTINUOUS
 62
    7
 10
-0.0000030716471346
 20
-0.0000254992187436
 11
-0.0000030716471346
 21
-0.0000247550781188
  0
LINE
  8
_0-3_unit222
  6
CONTINUOUS
 62
    7
 10
-0.0000030716471346
 20
-0.0000247550781188
 11
-0.0000022158854161
 21
-0.0000247550781188
  0
LINE
  8
_0-3_unit222
  6
CONTINUOUS
 62
    7
 10
-0.0000022158854161
 20
-0.0000247550781188
 11
-0.0000022158854161
 21
-0.0000254992187436
  0
LINE
  8
_0-3_unit222
  6
CONTINUOUS
 62
    7
 10
0.000002988964843
 20
-0.0000254992187436
 11
-0.0000014014648433
 21
-0.0000254992187436
  0
LINE
  8
_0-3_unit222
  6
CONTINUOUS
 62
    7
 10
-0.0000014014648433
 20
-0.0000254992187436
 11
-0.0000014014648433
 21
-0.0000247550781188
  0
LINE
  8
_0-3_unit222
  6
CONTINUOUS
 62
    7
 10
-0.0000014014648433
 20
-0.0000247550781188
 11
0.000002988964843
 21
-0.0000247550781188
  0
LINE
  8
_0-3_unit222
  6
CONTINUOUS
 62
    7
 10
0.000002988964843
 20
-0.0000247550781188
 11
0.000002988964843
 21
-0.0000254992187436
  0
ENDBLK
  0
BLOCK
  2
-022-block_23
 70
   64
 10
0
 20
0
 30
0
  0
INSERT
  2
-021-block_24
  8
_0-3_unit222
 10
0
 20
0
 41
1
 42
1
 50
0
  0
ENDBLK
  0
BLOCK
  2
-023-block_26
 70
   64
 10
0
 20
0
 30
0
  0
LINE
  8
_0-3_unit222
  6
CONTINUOUS
 62
    7
 10
0.0000015999023433
 20
-0.0000023275065098
 11
0.0000001488281249
 21
-0.0000023275065098
  0
LINE
  8
_0-3_unit222
  6
CONTINUOUS
 62
    7
 10
0.0000001488281249
 20
-0.0000023275065098
 11
0.0000001488281249
 21
-0.0000049568033841
  0
LINE
  8
_0-3_unit222
  6
CONTINUOUS
 62
    7
 10
0.0000001488281249
 20
-0.0000049568033841
 11
-0.0000005333007811
 21
-0.0000049568033841
  0
LINE
  8
_0-3_unit222
  6
CONTINUOUS
 62
    7
 10
-0.0000005333007811
 20
-0.0000049568033841
 11
-0.0000044607096343
 21
-0.0000021910807286
  0
LINE
  8
_0-3_unit222
  6
CONTINUOUS
 62
    7
 10
-0.0000044607096343
 20
-0.0000021910807286
 11
-0.0000044607096343
 21
-0.000001583365885
  0
LINE
  8
_0-3_unit222
  6
CONTINUOUS
 62
    7
 10
-0.0000044607096343
 20
-0.000001583365885
 11
-0.0000005333007811
 21
-0.000001583365885
  0
LINE
  8
_0-3_unit222
  6
CONTINUOUS
 62
    7
 10
-0.0000005333007811
 20
-0.000001583365885
 11
-0.0000005333007811
 21
-0.0000007648111977
  0
LINE
  8
_0-3_unit222
  6
CONTINUOUS
 62
    7
 10
-0.0000005333007811
 20
-0.0000007648111977
 11
0.0000001488281249
 21
-0.0000007648111977
  0
LINE
  8
_0-3_unit222
  6
CONTINUOUS
 62
    7
 10
0.0000001488281249
 20
-0.0000007648111977
 11
0.0000001488281249
 21
-0.000001583365885
  0
LINE
  8
_0-3_unit222
  6
CONTINUOUS
 62
    7
 10
0.0000001488281249
 20
-0.000001583365885
 11
0.0000015999023433
 21
-0.000001583365885
  0
LINE
  8
_0-3_unit222
  6
CONTINUOUS
 62
    7
 10
0.0000015999023433
 20
-0.000001583365885
 11
0.0000015999023433
 21
-0.0000023275065098
  0
LINE
  8
_0-3_unit222
  6
CONTINUOUS
 62
    7
 10
-0.0000005333007811
 20
-0.0000023275065098
 11
-0.00000326595052
 21
-0.0000023275065098
  0
LINE
  8
_0-3_unit222
  6
CONTINUOUS
 62
    7
 10
-0.00000326595052
 20
-0.0000023275065098
 11
-0.0000005333007811
 21
-0.0000042250651031
  0
LINE
  8
_0-3_unit222
  6
CONTINUOUS
 62
    7
 10
-0.0000005333007811
 20
-0.0000042250651031
 11
-0.0000005333007811
 21
-0.0000023275065098
  0
ENDBLK
  0
BLOCK
  2
-024-block_25
 70
   64
 10
0
 20
0
 30
0
  0
INSERT
  2
-023-block_26
  8
_0-3_unit222
 10
0
 20
0
 41
1
 42
1
 50
0
  0
ENDBLK
  0
BLOCK
  2
-025-block_28
 70
   64
 10
0
 20
0
 30
0
  0
ENDBLK
  0
BLOCK
  2
-026-block_27
 70
   64
 10
0
 20
0
 30
0
  0
INSERT
  2
-025-block_28
  8
_0-3_unit222
 10
0
 20
0
 41
1
 42
1
 50
0
  0
ENDBLK
  0
BLOCK
  2
-027-block_29
 70
   64
 10
0
 20
0
 30
0
  0
LINE
  8
_0-3_unit222
  6
CONTINUOUS
 62
    7
 10
-0.0000030881835929
 20
-0.000002988964843
 11
-0.0000030881835929
 21
-0.0000015378906246
  0
LINE
  8
_0-3_unit222
  6
CONTINUOUS
 62
    7
 10
-0.0000030881835929
 20
-0.0000015378906246
 11
-0.0000057174804673
 21
-0.0000015378906246
  0
LINE
  8
_0-3_unit222
  6
CONTINUOUS
 62
    7
 10
-0.0000057174804673
 20
-0.0000015378906246
 11
-0.0000057174804673
 21
-0.0000008557617185
  0
LINE
  8
_0-3_unit222
  6
CONTINUOUS
 62
    7
 10
-0.0000057174804673
 20
-0.0000008557617185
 11
-0.0000029517578117
 21
0.0000030716471346
  0
LINE
  8
_0-3_unit222
  6
CONTINUOUS
 62
    7
 10
-0.0000029517578117
 20
0.0000030716471346
 11
-0.0000023440429681
 21
0.0000030716471346
  0
LINE
  8
_0-3_unit222
  6
CONTINUOUS
 62
    7
 10
-0.0000023440429681
 20
0.0000030716471346
 11
-0.0000023440429681
 21
-0.0000008557617185
  0
LINE
  8
_0-3_unit222
  6
CONTINUOUS
 62
    7
 10
-0.0000023440429681
 20
-0.0000008557617185
 11
-0.0000015254882808
 21
-0.0000008557617185
  0
LINE
  8
_0-3_unit222
  6
CONTINUOUS
 62
    7
 10
-0.0000015254882808
 20
-0.0000008557617185
 11
-0.0000015254882808
 21
-0.0000015378906246
  0
LINE
  8
_0-3_unit222
  6
CONTINUOUS
 62
    7
 10
-0.0000015254882808
 20
-0.0000015378906246
 11
-0.0000023440429681
 21
-0.0000015378906246
  0
LINE
  8
_0-3_unit222
  6
CONTINUOUS
 62
    7
 10
-0.0000023440429681
 20
-0.0000015378906246
 11
-0.0000023440429681
 21
-0.000002988964843
  0
LINE
  8
_0-3_unit222
  6
CONTINUOUS
 62
    7
 10
-0.0000023440429681
 20
-0.000002988964843
 11
-0.0000030881835929
 21
-0.000002988964843
  0
LINE
  8
_0-3_unit222
  6
CONTINUOUS
 62
    7
 10
-0.0000030881835929
 20
-0.0000008557617185
 11
-0.0000030881835929
 21
0.0000018768880203
  0
LINE
  8
_0-3_unit222
  6
CONTINUOUS
 62
    7
 10
-0.0000030881835929
 20
0.0000018768880203
 11
-0.0000049857421862
 21
-0.0000008557617185
  0
LINE
  8
_0-3_unit222
  6
CONTINUOUS
 62
    7
 10
-0.0000049857421862
 20
-0.0000008557617185
 11
-0.0000030881835929
 21
-0.0000008557617185
  0
ENDBLK
  0
BLOCK
  2
-028-block_30
 70
   64
 10
0
 20
0
 30
0
  0
LINE
  8
_0-3_unit222
  6
CONTINUOUS
 62
    7
 10
0.0000021332031244
 20
0.0000018975585932
 11
0.000000682128906
 21
0.0000018975585932
  0
LINE
  8
_0-3_unit222
  6
CONTINUOUS
 62
    7
 10
0.000000682128906
 20
0.0000018975585932
 11
0.000000682128906
 21
-0.000000731738281
  0
LINE
  8
_0-3_unit222
  6
CONTINUOUS
 62
    7
 10
0.000000682128906
 20
-0.000000731738281
 11
0
 21
-0.000000731738281
  0
LINE
  8
_0-3_unit222
  6
CONTINUOUS
 62
    7
 10
0
 20
-0.000000731738281
 11
-0.0000039274088531
 21
0.0000020339843744
  0
LINE
  8
_0-3_unit222
  6
CONTINUOUS
 62
    7
 10
-0.0000039274088531
 20
0.0000020339843744
 11
-0.0000039274088531
 21
0.000002641699218
  0
LINE
  8
_0-3_unit222
  6
CONTINUOUS
 62
    7
 10
-0.0000039274088531
 20
0.000002641699218
 11
0
 21
0.000002641699218
  0
LINE
  8
_0-3_unit222
  6
CONTINUOUS
 62
    7
 10
0
 20
0.000002641699218
 11
0
 21
0.0000034602539053
  0
LINE
  8
_0-3_unit222
  6
CONTINUOUS
 62
    7
 10
0
 20
0.0000034602539053
 11
0.000000682128906
 21
0.0000034602539053
  0
LINE
  8
_0-3_unit222
  6
CONTINUOUS
 62
    7
 10
0.000000682128906
 20
0.0000034602539053
 11
0.000000682128906
 21
0.000002641699218
  0
LINE
  8
_0-3_unit222
  6
CONTINUOUS
 62
    7
 10
0.000000682128906
 20
0.000002641699218
 11
0.0000021332031244
 21
0.000002641699218
  0
LINE
  8
_0-3_unit222
  6
CONTINUOUS
 62
    7
 10
0.0000021332031244
 20
0.000002641699218
 11
0.0000021332031244
 21
0.0000018975585932
  0
LINE
  8
_0-3_unit222
  6
CONTINUOUS
 62
    7
 10
0
 20
0.0000018975585932
 11
-0.0000027326497389
 21
0.0000018975585932
  0
LINE
  8
_0-3_unit222
  6
CONTINUOUS
 62
    7
 10
-0.0000027326497389
 20
0.0000018975585932
 11
0
 21
0
  0
LINE
  8
_0-3_unit222
  6
CONTINUOUS
 62
    7
 10
0
 20
0
 11
0
 21
0.0000018975585932
  0
ENDBLK
  0
BLOCK
  2
-029-block_32
 70
   64
 10
0
 20
0
 30
0
  0
LINE
  8
_0-3_unit222
  6
CONTINUOUS
 62
    7
 10
-0.0000022158854161
 20
-0.0000438588216036
 11
-0.0000030716471346
 21
-0.0000438588216036
  0
LINE
  8
_0-3_unit222
  6
CONTINUOUS
 62
    7
 10
-0.0000030716471346
 20
-0.0000438588216036
 11
-0.0000030716471346
 21
-0.0000431146809788
  0
LINE
  8
_0-3_unit222
  6
CONTINUOUS
 62
    7
 10
-0.0000030716471346
 20
-0.0000431146809788
 11
-0.0000022158854161
 21
-0.0000431146809788
  0
LINE
  8
_0-3_unit222
  6
CONTINUOUS
 62
    7
 10
-0.0000022158854161
 20
-0.0000431146809788
 11
-0.0000022158854161
 21
-0.0000438588216036
  0
LINE
  8
_0-3_unit222
  6
CONTINUOUS
 62
    7
 10
0.000002988964843
 20
-0.0000438588216036
 11
-0.0000014014648433
 21
-0.0000438588216036
  0
LINE
  8
_0-3_unit222
  6
CONTINUOUS
 62
    7
 10
-0.0000014014648433
 20
-0.0000438588216036
 11
-0.0000014014648433
 21
-0.0000431146809788
  0
LINE
  8
_0-3_unit222
  6
CONTINUOUS
 62
    7
 10
-0.0000014014648433
 20
-0.0000431146809788
 11
0.000002988964843
 21
-0.0000431146809788
  0
LINE
  8
_0-3_unit222
  6
CONTINUOUS
 62
    7
 10
0.000002988964843
 20
-0.0000431146809788
 11
0.000002988964843
 21
-0.0000438588216036
  0
LINE
  8
_0-3_unit222
  6
CONTINUOUS
 62
    7
 10
-0.0000022158854161
 20
-0.0000254992187436
 11
-0.0000030716471346
 21
-0.0000254992187436
  0
LINE
  8
_0-3_unit222
  6
CONTINUOUS
 62
    7
 10
-0.0000030716471346
 20
-0.0000254992187436
 11
-0.0000030716471346
 21
-0.0000247550781188
  0
LINE
  8
_0-3_unit222
  6
CONTINUOUS
 62
    7
 10
-0.0000030716471346
 20
-0.0000247550781188
 11
-0.0000022158854161
 21
-0.0000247550781188
  0
LINE
  8
_0-3_unit222
  6
CONTINUOUS
 62
    7
 10
-0.0000022158854161
 20
-0.0000247550781188
 11
-0.0000022158854161
 21
-0.0000254992187436
  0
LINE
  8
_0-3_unit222
  6
CONTINUOUS
 62
    7
 10
0.000002988964843
 20
-0.0000254992187436
 11
-0.0000014014648433
 21
-0.0000254992187436
  0
LINE
  8
_0-3_unit222
  6
CONTINUOUS
 62
    7
 10
-0.0000014014648433
 20
-0.0000254992187436
 11
-0.0000014014648433
 21
-0.0000247550781188
  0
LINE
  8
_0-3_unit222
  6
CONTINUOUS
 62
    7
 10
-0.0000014014648433
 20
-0.0000247550781188
 11
0.000002988964843
 21
-0.0000247550781188
  0
LINE
  8
_0-3_unit222
  6
CONTINUOUS
 62
    7
 10
0.000002988964843
 20
-0.0000247550781188
 11
0.000002988964843
 21
-0.0000254992187436
  0
ENDBLK
  0
BLOCK
  2
-030-block_31
 70
   64
 10
0
 20
0
 30
0
  0
INSERT
  2
-029-block_32
  8
_0-3_unit222
 10
0
 20
0
 41
1
 42
1
 50
0
  0
ENDBLK
  0
BLOCK
  2
-031-block_34
 70
   64
 10
0
 20
0
 30
0
  0
LINE
  8
_0-3_unit222
  6
CONTINUOUS
 62
    7
 10
0.0000015999023433
 20
-0.0000023275065098
 11
0.0000001488281249
 21
-0.0000023275065098
  0
LINE
  8
_0-3_unit222
  6
CONTINUOUS
 62
    7
 10
0.0000001488281249
 20
-0.0000023275065098
 11
0.0000001488281249
 21
-0.0000049568033841
  0
LINE
  8
_0-3_unit222
  6
CONTINUOUS
 62
    7
 10
0.0000001488281249
 20
-0.0000049568033841
 11
-0.0000005333007811
 21
-0.0000049568033841
  0
LINE
  8
_0-3_unit222
  6
CONTINUOUS
 62
    7
 10
-0.0000005333007811
 20
-0.0000049568033841
 11
-0.0000044607096343
 21
-0.0000021910807286
  0
LINE
  8
_0-3_unit222
  6
CONTINUOUS
 62
    7
 10
-0.0000044607096343
 20
-0.0000021910807286
 11
-0.0000044607096343
 21
-0.000001583365885
  0
LINE
  8
_0-3_unit222
  6
CONTINUOUS
 62
    7
 10
-0.0000044607096343
 20
-0.000001583365885
 11
-0.0000005333007811
 21
-0.000001583365885
  0
LINE
  8
_0-3_unit222
  6
CONTINUOUS
 62
    7
 10
-0.0000005333007811
 20
-0.000001583365885
 11
-0.0000005333007811
 21
-0.0000007648111977
  0
LINE
  8
_0-3_unit222
  6
CONTINUOUS
 62
    7
 10
-0.0000005333007811
 20
-0.0000007648111977
 11
0.0000001488281249
 21
-0.0000007648111977
  0
LINE
  8
_0-3_unit222
  6
CONTINUOUS
 62
    7
 10
0.0000001488281249
 20
-0.0000007648111977
 11
0.0000001488281249
 21
-0.000001583365885
  0
LINE
  8
_0-3_unit222
  6
CONTINUOUS
 62
    7
 10
0.0000001488281249
 20
-0.000001583365885
 11
0.0000015999023433
 21
-0.000001583365885
  0
LINE
  8
_0-3_unit222
  6
CONTINUOUS
 62
    7
 10
0.0000015999023433
 20
-0.000001583365885
 11
0.0000015999023433
 21
-0.0000023275065098
  0
LINE
  8
_0-3_unit222
  6
CONTINUOUS
 62
    7
 10
-0.0000005333007811
 20
-0.0000023275065098
 11
-0.00000326595052
 21
-0.0000023275065098
  0
LINE
  8
_0-3_unit222
  6
CONTINUOUS
 62
    7
 10
-0.00000326595052
 20
-0.0000023275065098
 11
-0.0000005333007811
 21
-0.0000042250651031
  0
LINE
  8
_0-3_unit222
  6
CONTINUOUS
 62
    7
 10
-0.0000005333007811
 20
-0.0000042250651031
 11
-0.0000005333007811
 21
-0.0000023275065098
  0
ENDBLK
  0
BLOCK
  2
-032-block_33
 70
   64
 10
0
 20
0
 30
0
  0
INSERT
  2
-031-block_34
  8
_0-3_unit222
 10
0
 20
0
 41
1
 42
1
 50
0
  0
ENDBLK
  0
BLOCK
  2
-033-block_35
 70
   64
 10
0
 20
0
 30
0
  0
LINE
  8
_0-3_unit222
  6
CONTINUOUS
 62
    7
 10
-0.0000667411458166
 20
-0.000002826356336
 11
-0.0000684419894577
 21
-0.000002826356336
  0
LINE
  8
_0-3_unit222
  6
CONTINUOUS
 62
    7
 10
-0.0000684419894577
 20
-0.000002826356336
 11
-0.0000684419894577
 21
0.0000003975640189
  0
LINE
  8
_0-3_unit222
  6
CONTINUOUS
 62
    7
 10
-0.0000684419894577
 20
0.0000003975640189
 11
-0.0000668131483122
 21
0.0000003975640189
  0
LINE
  8
_0-3_unit222
  6
CONTINUOUS
 62
    7
 10
-0.0000668131483122
 20
0.0000003975640189
 11
-0.0000668131483122
 21
0.0000001016303168
  0
LINE
  8
_0-3_unit222
  6
CONTINUOUS
 62
    7
 10
-0.0000668131483122
 20
0.0000001016303168
 11
-0.0000680907619729
 21
0.0000001016303168
  0
LINE
  8
_0-3_unit222
  6
CONTINUOUS
 62
    7
 10
-0.0000680907619729
 20
0.0000001016303168
 11
-0.0000680907619729
 21
-0.0000009901204424
  0
LINE
  8
_0-3_unit222
  6
CONTINUOUS
 62
    7
 10
-0.0000680907619729
 20
-0.0000009901204424
 11
-0.0000668892849225
 21
-0.0000009901204424
  0
LINE
  8
_0-3_unit222
  6
CONTINUOUS
 62
    7
 10
-0.0000668892849225
 20
-0.0000009901204424
 11
-0.0000668892849225
 21
-0.00000128192003
  0
LINE
  8
_0-3_unit222
  6
CONTINUOUS
 62
    7
 10
-0.0000668892849225
 20
-0.00000128192003
 11
-0.0000680907619729
 21
-0.00000128192003
  0
LINE
  8
_0-3_unit222
  6
CONTINUOUS
 62
    7
 10
-0.0000680907619729
 20
-0.00000128192003
 11
-0.0000680907619729
 21
-0.0000025300781243
  0
LINE
  8
_0-3_unit222
  6
CONTINUOUS
 62
    7
 10
-0.0000680907619729
 20
-0.0000025300781243
 11
-0.0000667411458166
 21
-0.0000025300781243
  0
LINE
  8
_0-3_unit222
  6
CONTINUOUS
 62
    7
 10
-0.0000667411458166
 20
-0.0000025300781243
 11
-0.0000667411458166
 21
-0.000002826356336
  0
LINE
  8
_0-3_unit222
  6
CONTINUOUS
 62
    7
 10
-0.0000645355956869
 20
-0.000002826356336
 11
-0.0000662195583601
 21
-0.000002826356336
  0
LINE
  8
_0-3_unit222
  6
CONTINUOUS
 62
    7
 10
-0.0000662195583601
 20
-0.000002826356336
 11
-0.0000662195583601
 21
0.0000003975640189
  0
LINE
  8
_0-3_unit222
  6
CONTINUOUS
 62
    7
 10
-0.0000662195583601
 20
0.0000003975640189
 11
-0.0000658683308754
 21
0.0000003975640189
  0
LINE
  8
_0-3_unit222
  6
CONTINUOUS
 62
    7
 10
-0.0000658683308754
 20
0.0000003975640189
 11
-0.0000658683308754
 21
-0.0000025259440097
  0
LINE
  8
_0-3_unit222
  6
CONTINUOUS
 62
    7
 10
-0.0000658683308754
 20
-0.0000025259440097
 11
-0.0000645355956869
 21
-0.0000025259440097
  0
LINE
  8
_0-3_unit222
  6
CONTINUOUS
 62
    7
 10
-0.0000645355956869
 20
-0.0000025259440097
 11
-0.0000645355956869
 21
-0.000002826356336
  0
LINE
  8
_0-3_unit222
  6
CONTINUOUS
 62
    7
 10
-0.0000563052625727
 20
-0.0000014004313147
 11
-0.0000551501220565
 21
-0.0000014004313147
  0
LINE
  8
_0-3_unit222
  6
CONTINUOUS
 62
    7
 10
-0.0000551501220565
 20
-0.0000014004313147
 11
-0.0000551501220565
 21
-0.0000016712158198
  0
LINE
  8
_0-3_unit222
  6
CONTINUOUS
 62
    7
 10
-0.0000551501220565
 20
-0.0000016712158198
 11
-0.0000563052625727
 21
-0.0000016712158198
  0
LINE
  8
_0-3_unit222
  6
CONTINUOUS
 62
    7
 10
-0.0000563052625727
 20
-0.0000016712158198
 11
-0.0000563052625727
 21
-0.0000014004313147
  0
LINE
  8
_0-3_unit222
  6
CONTINUOUS
 62
    7
 10
-0.0000457613755853
 20
0.0000000971516926
 11
-0.0000467134277226
 21
0.0000000971516926
  0
LINE
  8
_0-3_unit222
  6
CONTINUOUS
 62
    7
 10
-0.0000467134277226
 20
0.0000000971516926
 11
-0.0000467134277226
 21
-0.000002826356336
  0
LINE
  8
_0-3_unit222
  6
CONTINUOUS
 62
    7
 10
-0.0000467134277226
 20
-0.000002826356336
 11
-0.0000470646552074
 21
-0.000002826356336
  0
LINE
  8
_0-3_unit222
  6
CONTINUOUS
 62
    7
 10
-0.0000470646552074
 20
-0.000002826356336
 11
-0.0000470646552074
 21
0.0000000971516926
  0
LINE
  8
_0-3_unit222
  6
CONTINUOUS
 62
    7
 10
-0.0000470646552074
 20
0.0000000971516926
 11
-0.0000480124009754
 21
0.0000000971516926
  0
LINE
  8
_0-3_unit222
  6
CONTINUOUS
 62
    7
 10
-0.0000480124009754
 20
0.0000000971516926
 11
-0.0000480124009754
 21
0.0000003934299044
  0
LINE
  8
_0-3_unit222
  6
CONTINUOUS
 62
    7
 10
-0.0000480124009754
 20
0.0000003934299044
 11
-0.0000457613755853
 21
0.0000003934299044
  0
LINE
  8
_0-3_unit222
  6
CONTINUOUS
 62
    7
 10
-0.0000457613755853
 20
0.0000003934299044
 11
-0.0000457613755853
 21
0.0000000971516926
  0
LINE
  8
_0-3_unit222
  6
CONTINUOUS
 62
    7
 10
-0.0000445071885739
 20
-0.0000030168701164
 11
-0.0000447907199323
 21
-0.0000030168701164
  0
LINE
  8
_0-3_unit222
  6
CONTINUOUS
 62
    7
 10
-0.0000447907199323
 20
-0.0000030168701164
 11
-0.0000434495442599
 21
0.0000004485514321
  0
LINE
  8
_0-3_unit222
  6
CONTINUOUS
 62
    7
 10
-0.0000434495442599
 20
0.0000004485514321
 11
-0.0000431575724175
 21
0.0000004485514321
  0
LINE
  8
_0-3_unit222
  6
CONTINUOUS
 62
    7
 10
-0.0000431575724175
 20
0.0000004485514321
 11
-0.0000445071885739
 21
-0.0000030168701164
  0
LINE
  8
_0-3_unit222
  6
CONTINUOUS
 62
    7
 10
-0.0000350374823588
 20
-0.0000014004313147
 11
-0.0000338823418426
 21
-0.0000014004313147
  0
LINE
  8
_0-3_unit222
  6
CONTINUOUS
 62
    7
 10
-0.0000338823418426
 20
-0.0000014004313147
 11
-0.0000338823418426
 21
-0.0000016712158198
  0
LINE
  8
_0-3_unit222
  6
CONTINUOUS
 62
    7
 10
-0.0000338823418426
 20
-0.0000016712158198
 11
-0.0000350374823588
 21
-0.0000016712158198
  0
LINE
  8
_0-3_unit222
  6
CONTINUOUS
 62
    7
 10
-0.0000350374823588
 20
-0.0000016712158198
 11
-0.0000350374823588
 21
-0.0000014004313147
  0
LINE
  8
_0-3_unit222
  6
CONTINUOUS
 62
    7
 10
-0.0000244935953714
 20
0.0000000971516926
 11
-0.0000254456475088
 21
0.0000000971516926
  0
LINE
  8
_0-3_unit222
  6
CONTINUOUS
 62
    7
 10
-0.0000254456475088
 20
0.0000000971516926
 11
-0.0000254456475088
 21
-0.000002826356336
  0
LINE
  8
_0-3_unit222
  6
CONTINUOUS
 62
    7
 10
-0.0000254456475088
 20
-0.000002826356336
 11
-0.0000257968749935
 21
-0.000002826356336
  0
LINE
  8
_0-3_unit222
  6
CONTINUOUS
 62
    7
 10
-0.0000257968749935
 20
-0.000002826356336
 11
-0.0000257968749935
 21
0.0000000971516926
  0
LINE
  8
_0-3_unit222
  6
CONTINUOUS
 62
    7
 10
-0.0000257968749935
 20
0.0000000971516926
 11
-0.0000267446207615
 21
0.0000000971516926
  0
LINE
  8
_0-3_unit222
  6
CONTINUOUS
 62
    7
 10
-0.0000267446207615
 20
0.0000000971516926
 11
-0.0000267446207615
 21
0.0000003934299044
  0
LINE
  8
_0-3_unit222
  6
CONTINUOUS
 62
    7
 10
-0.0000267446207615
 20
0.0000003934299044
 11
-0.0000244935953714
 21
0.0000003934299044
  0
LINE
  8
_0-3_unit222
  6
CONTINUOUS
 62
    7
 10
-0.0000244935953714
 20
0.0000003934299044
 11
-0.0000244935953714
 21
0.0000000971516926
  0
LINE
  8
_0-3_unit222
  6
CONTINUOUS
 62
    7
 10
-0.0000195650417702
 20
-0.0000030168701164
 11
-0.0000198485731287
 21
-0.0000030168701164
  0
LINE
  8
_0-3_unit222
  6
CONTINUOUS
 62
    7
 10
-0.0000198485731287
 20
-0.0000030168701164
 11
-0.0000185073974563
 21
0.0000004485514321
  0
LINE
  8
_0-3_unit222
  6
CONTINUOUS
 62
    7
 10
-0.0000185073974563
 20
0.0000004485514321
 11
-0.0000182154256139
 21
0.0000004485514321
  0
LINE
  8
_0-3_unit222
  6
CONTINUOUS
 62
    7
 10
-0.0000182154256139
 20
0.0000004485514321
 11
-0.0000195650417702
 21
-0.0000030168701164
  0
LINE
  8
_0-3_unit222
  6
CONTINUOUS
 62
    7
 10
-0.0000100953355552
 20
-0.0000014004313147
 11
-0.0000089401950389
 21
-0.0000014004313147
  0
LINE
  8
_0-3_unit222
  6
CONTINUOUS
 62
    7
 10
-0.0000089401950389
 20
-0.0000014004313147
 11
-0.0000089401950389
 21
-0.0000016712158198
  0
LINE
  8
_0-3_unit222
  6
CONTINUOUS
 62
    7
 10
-0.0000089401950389
 20
-0.0000016712158198
 11
-0.0000100953355552
 21
-0.0000016712158198
  0
LINE
  8
_0-3_unit222
  6
CONTINUOUS
 62
    7
 10
-0.0000100953355552
 20
-0.0000016712158198
 11
-0.0000100953355552
 21
-0.0000014004313147
  0
ENDBLK
  0
BLOCK
  2
-034-block_36
 70
   64
 10
0
 20
0
 30
0
  0
LINE
  8
_0-3_unit222
  6
CONTINUOUS
 62
    7
 10
-0.0000220096815266
 20
0.0000027078450514
 11
-0.0000229615614091
 21
0.0000027078450514
  0
LINE
  8
_0-3_unit222
  6
CONTINUOUS
 62
    7
 10
-0.0000229615614091
 20
0.0000027078450514
 11
-0.0000229615614091
 21
-0.0000002156629773
  0
LINE
  8
_0-3_unit222
  6
CONTINUOUS
 62
    7
 10
-0.0000229615614091
 20
-0.0000002156629773
 11
-0.0000233126166391
 21
-0.0000002156629773
  0
LINE
  8
_0-3_unit222
  6
CONTINUOUS
 62
    7
 10
-0.0000233126166391
 20
-0.0000002156629773
 11
-0.0000233126166391
 21
0.0000027078450514
  0
LINE
  8
_0-3_unit222
  6
CONTINUOUS
 62
    7
 10
-0.0000233126166391
 20
0.0000027078450514
 11
-0.0000242607069166
 21
0.0000027078450514
  0
LINE
  8
_0-3_unit222
  6
CONTINUOUS
 62
    7
 10
-0.0000242607069166
 20
0.0000027078450514
 11
-0.0000242607069166
 21
0.0000030041232631
  0
LINE
  8
_0-3_unit222
  6
CONTINUOUS
 62
    7
 10
-0.0000242607069166
 20
0.0000030041232631
 11
-0.0000220096815266
 21
0.0000030041232631
  0
LINE
  8
_0-3_unit222
  6
CONTINUOUS
 62
    7
 10
-0.0000220096815266
 20
0.0000030041232631
 11
-0.0000220096815266
 21
0.0000027078450514
  0
LINE
  8
_0-3_unit222
  6
CONTINUOUS
 62
    7
 10
-0.0000199564046174
 20
-0.0000002156629773
 11
-0.0000216569037489
 21
-0.0000002156629773
  0
LINE
  8
_0-3_unit222
  6
CONTINUOUS
 62
    7
 10
-0.0000216569037489
 20
-0.0000002156629773
 11
-0.0000216569037489
 21
0.0000030082573777
  0
LINE
  8
_0-3_unit222
  6
CONTINUOUS
 62
    7
 10
-0.0000216569037489
 20
0.0000030082573777
 11
-0.0000200280626035
 21
0.0000030082573777
  0
LINE
  8
_0-3_unit222
  6
CONTINUOUS
 62
    7
 10
-0.0000200280626035
 20
0.0000030082573777
 11
-0.0000200280626035
 21
0.0000027123236755
  0
LINE
  8
_0-3_unit222
  6
CONTINUOUS
 62
    7
 10
-0.0000200280626035
 20
0.0000027123236755
 11
-0.0000213061930285
 21
0.0000027123236755
  0
LINE
  8
_0-3_unit222
  6
CONTINUOUS
 62
    7
 10
-0.0000213061930285
 20
0.0000027123236755
 11
-0.0000213061930285
 21
0.0000016205729162
  0
LINE
  8
_0-3_unit222
  6
CONTINUOUS
 62
    7
 10
-0.0000213061930285
 20
0.0000016205729162
 11
-0.0000201045437232
 21
0.0000016205729162
  0
LINE
  8
_0-3_unit222
  6
CONTINUOUS
 62
    7
 10
-0.0000201045437232
 20
0.0000016205729162
 11
-0.0000201045437232
 21
0.0000013287733286
  0
LINE
  8
_0-3_unit222
  6
CONTINUOUS
 62
    7
 10
-0.0000201045437232
 20
0.0000013287733286
 11
-0.0000213061930285
 21
0.0000013287733286
  0
LINE
  8
_0-3_unit222
  6
CONTINUOUS
 62
    7
 10
-0.0000213061930285
 20
0.0000013287733286
 11
-0.0000213061930285
 21
0.0000000806152343
  0
LINE
  8
_0-3_unit222
  6
CONTINUOUS
 62
    7
 10
-0.0000213061930285
 20
0.0000000806152343
 11
-0.0000199564046174
 21
0.0000000806152343
  0
LINE
  8
_0-3_unit222
  6
CONTINUOUS
 62
    7
 10
-0.0000199564046174
 20
0.0000000806152343
 11
-0.0000199564046174
 21
-0.0000002156629773
  0
LINE
  8
_0-3_unit222
  6
CONTINUOUS
 62
    7
 10
-0.0000056013807494
 20
-0.0000002156629773
 11
-0.0000072853434226
 21
-0.0000002156629773
  0
LINE
  8
_0-3_unit222
  6
CONTINUOUS
 62
    7
 10
-0.0000072853434226
 20
-0.0000002156629773
 11
-0.0000072853434226
 21
0.0000030082573777
  0
LINE
  8
_0-3_unit222
  6
CONTINUOUS
 62
    7
 10
-0.0000072853434226
 20
0.0000030082573777
 11
-0.0000069346327022
 21
0.0000030082573777
  0
LINE
  8
_0-3_unit222
  6
CONTINUOUS
 62
    7
 10
-0.0000069346327022
 20
0.0000030082573777
 11
-0.0000069346327022
 21
0.0000000847493489
  0
LINE
  8
_0-3_unit222
  6
CONTINUOUS
 62
    7
 10
-0.0000069346327022
 20
0.0000000847493489
 11
-0.0000056013807494
 21
0.0000000847493489
  0
LINE
  8
_0-3_unit222
  6
CONTINUOUS
 62
    7
 10
-0.0000056013807494
 20
0.0000000847493489
 11
-0.0000056013807494
 21
-0.0000002156629773
  0
LINE
  8
_0-3_unit222
  6
CONTINUOUS
 62
    7
 10
-0.0000032566487622
 20
0.0000027078450514
 11
-0.0000042085286447
 21
0.0000027078450514
  0
LINE
  8
_0-3_unit222
  6
CONTINUOUS
 62
    7
 10
-0.0000042085286447
 20
0.0000027078450514
 11
-0.0000042085286447
 21
-0.0000002156629773
  0
LINE
  8
_0-3_unit222
  6
CONTINUOUS
 62
    7
 10
-0.0000042085286447
 20
-0.0000002156629773
 11
-0.0000045595838747
 21
-0.0000002156629773
  0
LINE
  8
_0-3_unit222
  6
CONTINUOUS
 62
    7
 10
-0.0000045595838747
 20
-0.0000002156629773
 11
-0.0000045595838747
 21
0.0000027078450514
  0
LINE
  8
_0-3_unit222
  6
CONTINUOUS
 62
    7
 10
-0.0000045595838747
 20
0.0000027078450514
 11
-0.0000055076741522
 21
0.0000027078450514
  0
LINE
  8
_0-3_unit222
  6
CONTINUOUS
 62
    7
 10
-0.0000055076741522
 20
0.0000027078450514
 11
-0.0000055076741522
 21
0.0000030041232631
  0
LINE
  8
_0-3_unit222
  6
CONTINUOUS
 62
    7
 10
-0.0000055076741522
 20
0.0000030041232631
 11
-0.0000032566487622
 21
0.0000030041232631
  0
LINE
  8
_0-3_unit222
  6
CONTINUOUS
 62
    7
 10
-0.0000032566487622
 20
0.0000030041232631
 11
-0.0000032566487622
 21
0.0000027078450514
  0
ENDBLK
  0
BLOCK
  2
-035-block_37
 70
   64
 10
0
 20
0
 30
0
  0
ENDBLK
  0
BLOCK
  2
-036-block_38
 70
   64
 10
0
 20
0
 30
0
  0
LINE
  8
_0-3_unit222
  6
CONTINUOUS
 62
    7
 10
-0.000035205947528
 20
0.0000014259250213
 11
-0.0000340508070118
 21
0.0000014259250213
  0
LINE
  8
_0-3_unit222
  6
CONTINUOUS
 62
    7
 10
-0.0000340508070118
 20
0.0000014259250213
 11
-0.0000340508070118
 21
0.0000011551405162
  0
LINE
  8
_0-3_unit222
  6
CONTINUOUS
 62
    7
 10
-0.0000340508070118
 20
0.0000011551405162
 11
-0.000035205947528
 21
0.0000011551405162
  0
LINE
  8
_0-3_unit222
  6
CONTINUOUS
 62
    7
 10
-0.000035205947528
 20
0.0000011551405162
 11
-0.000035205947528
 21
0.0000014259250213
  0
LINE
  8
_0-3_unit222
  6
CONTINUOUS
 62
    7
 10
-0.0000246620605407
 20
0.0000029235080287
 11
-0.000025614112678
 21
0.0000029235080287
  0
LINE
  8
_0-3_unit222
  6
CONTINUOUS
 62
    7
 10
-0.000025614112678
 20
0.0000029235080287
 11
-0.000025614112678
 21
0
  0
LINE
  8
_0-3_unit222
  6
CONTINUOUS
 62
    7
 10
-0.000025614112678
 20
0
 11
-0.0000259653401627
 21
0
  0
LINE
  8
_0-3_unit222
  6
CONTINUOUS
 62
    7
 10
-0.0000259653401627
 20
0
 11
-0.0000259653401627
 21
0.0000029235080287
  0
LINE
  8
_0-3_unit222
  6
CONTINUOUS
 62
    7
 10
-0.0000259653401627
 20
0.0000029235080287
 11
-0.0000269130859307
 21
0.0000029235080287
  0
LINE
  8
_0-3_unit222
  6
CONTINUOUS
 62
    7
 10
-0.0000269130859307
 20
0.0000029235080287
 11
-0.0000269130859307
 21
0.0000032197862405
  0
LINE
  8
_0-3_unit222
  6
CONTINUOUS
 62
    7
 10
-0.0000269130859307
 20
0.0000032197862405
 11
-0.0000246620605407
 21
0.0000032197862405
  0
LINE
  8
_0-3_unit222
  6
CONTINUOUS
 62
    7
 10
-0.0000246620605407
 20
0.0000032197862405
 11
-0.0000246620605407
 21
0.0000029235080287
  0
LINE
  8
_0-3_unit222
  6
CONTINUOUS
 62
    7
 10
-0.0000234078735293
 20
-0.0000001905137803
 11
-0.0000236914048877
 21
-0.0000001905137803
  0
LINE
  8
_0-3_unit222
  6
CONTINUOUS
 62
    7
 10
-0.0000236914048877
 20
-0.0000001905137803
 11
-0.0000223502292153
 21
0.0000032749077682
  0
LINE
  8
_0-3_unit222
  6
CONTINUOUS
 62
    7
 10
-0.0000223502292153
 20
0.0000032749077682
 11
-0.0000220582573729
 21
0.0000032749077682
  0
LINE
  8
_0-3_unit222
  6
CONTINUOUS
 62
    7
 10
-0.0000220582573729
 20
0.0000032749077682
 11
-0.0000234078735293
 21
-0.0000001905137803
  0
LINE
  8
_0-3_unit222
  6
CONTINUOUS
 62
    7
 10
-0.0000139381673142
 20
0.0000014259250213
 11
-0.000012783026798
 21
0.0000014259250213
  0
LINE
  8
_0-3_unit222
  6
CONTINUOUS
 62
    7
 10
-0.000012783026798
 20
0.0000014259250213
 11
-0.000012783026798
 21
0.0000011551405162
  0
LINE
  8
_0-3_unit222
  6
CONTINUOUS
 62
    7
 10
-0.000012783026798
 20
0.0000011551405162
 11
-0.0000139381673142
 21
0.0000011551405162
  0
LINE
  8
_0-3_unit222
  6
CONTINUOUS
 62
    7
 10
-0.0000139381673142
 20
0.0000011551405162
 11
-0.0000139381673142
 21
0.0000014259250213
  0
LINE
  8
_0-3_unit222
  6
CONTINUOUS
 62
    7
 10
-0.0000033942803268
 20
0.0000029235080287
 11
-0.0000043463324641
 21
0.0000029235080287
  0
LINE
  8
_0-3_unit222
  6
CONTINUOUS
 62
    7
 10
-0.0000043463324641
 20
0.0000029235080287
 11
-0.0000043463324641
 21
0
  0
LINE
  8
_0-3_unit222
  6
CONTINUOUS
 62
    7
 10
-0.0000043463324641
 20
0
 11
-0.0000046975599489
 21
0
  0
LINE
  8
_0-3_unit222
  6
CONTINUOUS
 62
    7
 10
-0.0000046975599489
 20
0
 11
-0.0000046975599489
 21
0.0000029235080287
  0
LINE
  8
_0-3_unit222
  6
CONTINUOUS
 62
    7
 10
-0.0000046975599489
 20
0.0000029235080287
 11
-0.0000056453057169
 21
0.0000029235080287
  0
LINE
  8
_0-3_unit222
  6
CONTINUOUS
 62
    7
 10
-0.0000056453057169
 20
0.0000029235080287
 11
-0.0000056453057169
 21
0.0000032197862405
  0
LINE
  8
_0-3_unit222
  6
CONTINUOUS
 62
    7
 10
-0.0000056453057169
 20
0.0000032197862405
 11
-0.0000033942803268
 21
0.0000032197862405
  0
LINE
  8
_0-3_unit222
  6
CONTINUOUS
 62
    7
 10
-0.0000033942803268
 20
0.0000032197862405
 11
-0.0000033942803268
 21
0.0000029235080287
  0
ENDBLK
  0
BLOCK
  2
-037-block_39
 70
   64
 10
0
 20
0
 30
0
  0
LINE
  8
_0-3_unit222
  6
CONTINUOUS
 62
    7
 10
-0.0000100951633004
 20
-0.0000014004313147
 11
-0.0000089403672937
 21
-0.0000014004313147
  0
LINE
  8
_0-3_unit222
  6
CONTINUOUS
 62
    7
 10
-0.0000089403672937
 20
-0.0000014004313147
 11
-0.0000089403672937
 21
-0.0000016712158198
  0
LINE
  8
_0-3_unit222
  6
CONTINUOUS
 62
    7
 10
-0.0000089403672937
 20
-0.0000016712158198
 11
-0.0000100951633004
 21
-0.0000016712158198
  0
LINE
  8
_0-3_unit222
  6
CONTINUOUS
 62
    7
 10
-0.0000100951633004
 20
-0.0000016712158198
 11
-0.0000100951633004
 21
-0.0000014004313147
  0
ENDBLK
  0
BLOCK
  2
-038-block_40
 70
   64
 10
0
 20
0
 30
0
  0
LINE
  8
_0-3_unit222
  6
CONTINUOUS
 62
    7
 10
-0.0000120550781219
 20
0
 11
-0.0000124061333519
 21
0
  0
LINE
  8
_0-3_unit222
  6
CONTINUOUS
 62
    7
 10
-0.0000124061333519
 20
0
 11
-0.0000124061333519
 21
0.0000023058024082
  0
LINE
  8
_0-3_unit222
  6
CONTINUOUS
 62
    7
 10
-0.0000124061333519
 20
0.0000023058024082
 11
-0.0000120550781219
 21
0.0000023058024082
  0
LINE
  8
_0-3_unit222
  6
CONTINUOUS
 62
    7
 10
-0.0000120550781219
 20
0.0000023058024082
 11
-0.0000120550781219
 21
0
  0
ENDBLK
  0
ENDSEC
  0
SECTION
  2
ENTITIES
  0
LINE
  8
_0-1_title_line
  6
CONTINUOUS
 62
    7
 10
210
 20
-137.50011386079177
 11
629.99985883597219
 21
-137.50011386079177
  0
LINE
  8
_0-2_body
  6
CONTINUOUS
 62
    7
 10
263.4701212431429
 20
98.48944364314498
 11
263.78724228256016
 21
98.384884995167667
  0
LINE
  8
_0-2_body
  6
CONTINUOUS
 62
    7
 10
263.78724228256016
 20
98.384884995167667
 11
264.08110892745196
 21
98.228649914911585
  0
LINE
  8
_0-2_body
  6
CONTINUOUS
 62
    7
 10
264.08110892745196
 20
98.228649914911585
 11
264.34517549639634
 21
98.026422809927425
  0
LINE
  8
_0-2_body
  6
CONTINUOUS
 62
    7
 10
264.34517549639634
 20
98.026422809927425
 11
264.57272405319708
 21
97.782854559120267
  0
LINE
  8
_0-2_body
  6
CONTINUOUS
 62
    7
 10
264.57272405319708
 20
97.782854559120267
 11
264.75428058526978
 21
97.504835353460592
  0
LINE
  8
_0-2_body
  6
CONTINUOUS
 62
    7
 10
264.75428058526978
 20
97.504835353460592
 11
264.88984509261434
 21
97.19959989346745
  0
LINE
  8
_0-2_body
  6
CONTINUOUS
 62
    7
 10
264.88984509261434
 20
97.19959989346745
 11
264.97235512948606
 21
96.877827975145109
  0
LINE
  8
_0-2_body
  6
CONTINUOUS
 62
    7
 10
264.97235512948606
 20
96.877827975145109
 11
264.9999158933681
 21
96.544859496495732
  0
LINE
  8
_0-2_body
  6
CONTINUOUS
 62
    7
 10
236.52861327461784
 20
-75.54317214451001
 11
239.85416394652952
 21
-76.243560056661408
  0
LINE
  8
_0-2_body
  6
CONTINUOUS
 62
    7
 10
239.85416394652952
 20
-76.243560056661408
 11
243.21674939490762
 21
-76.746888507056411
  0
LINE
  8
_0-2_body
  6
CONTINUOUS
 62
    7
 10
243.21674939490762
 20
-76.746888507056411
 11
246.60207247348836
 21
-77.050056909758297
  0
LINE
  8
_0-2_body
  6
CONTINUOUS
 62
    7
 10
246.60207247348836
 20
-77.050056909758297
 11
249.99910887671899
 21
-77.150998207476192
  0
LINE
  8
_0-2_body
  6
CONTINUOUS
 62
    7
 10
249.99910887671899
 20
-77.150998207476192
 11
253.39666204427238
 21
-77.050056909758297
  0
LINE
  8
_0-2_body
  6
CONTINUOUS
 62
    7
 10
253.39666204427238
 20
-77.050056909758297
 11
256.78198512285314
 21
-76.746888507056411
  0
LINE
  8
_0-2_body
  6
CONTINUOUS
 62
    7
 10
256.78198512285314
 20
-76.746888507056411
 11
260.14457057123121
 21
-76.243560056661408
  0
LINE
  8
_0-2_body
  6
CONTINUOUS
 62
    7
 10
260.14457057123121
 20
-76.243560056661408
 11
263.4701212431429
 21
-75.54317214451001
  0
LINE
  8
_0-2_body
  6
CONTINUOUS
 62
    7
 10
234.99899087916691
 20
96.544859496495732
 11
235.02637938827465
 21
96.877827975145109
  0
LINE
  8
_0-2_body
  6
CONTINUOUS
 62
    7
 10
235.02637938827465
 20
96.877827975145109
 11
235.10940618946918
 21
97.19959989346745
  0
LINE
  8
_0-2_body
  6
CONTINUOUS
 62
    7
 10
235.10940618946918
 20
97.19959989346745
 11
235.24462618726523
 21
97.504835353460592
  0
LINE
  8
_0-2_body
  6
CONTINUOUS
 62
    7
 10
235.24462618726523
 20
97.504835353460592
 11
235.42721624798347
 21
97.782854559120267
  0
LINE
  8
_0-2_body
  6
CONTINUOUS
 62
    7
 10
235.42721624798347
 20
97.782854559120267
 11
235.65459255000997
 21
98.026422809927425
  0
LINE
  8
_0-2_body
  6
CONTINUOUS
 62
    7
 10
235.65459255000997
 20
98.026422809927425
 11
235.91883137372864
 21
98.228649914911585
  0
LINE
  8
_0-2_body
  6
CONTINUOUS
 62
    7
 10
235.91883137372864
 20
98.228649914911585
 11
236.21269801862044
 21
98.384884995167667
  0
LINE
  8
_0-2_body
  6
CONTINUOUS
 62
    7
 10
236.21269801862044
 20
98.384884995167667
 11
236.52861327461784
 21
98.48944364314498
  0
LINE
  8
_0-2_body
  6
CONTINUOUS
 62
    7
 10
264.9999158933681
 20
-73.59841574308652
 11
264.97235512948606
 21
-73.930178438316091
  0
LINE
  8
_0-2_body
  6
CONTINUOUS
 62
    7
 10
264.97235512948606
 20
-73.930178438316091
 11
264.88984509261434
 21
-74.25298388528401
  0
LINE
  8
_0-2_body
  6
CONTINUOUS
 62
    7
 10
264.88984509261434
 20
-74.25298388528401
 11
264.75428058526978
 21
-74.55718581663146
  0
LINE
  8
_0-2_body
  6
CONTINUOUS
 62
    7
 10
264.75428058526978
 20
-74.55718581663146
 11
264.57272405319708
 21
-74.835549531839717
  0
LINE
  8
_0-2_body
  6
CONTINUOUS
 62
    7
 10
264.57272405319708
 20
-74.835549531839717
 11
264.34517549639634
 21
-75.078773273098392
  0
LINE
  8
_0-2_body
  6
CONTINUOUS
 62
    7
 10
264.34517549639634
 20
-75.078773273098392
 11
264.08110892745196
 21
-75.281344887631093
  0
LINE
  8
_0-2_body
  6
CONTINUOUS
 62
    7
 10
264.08110892745196
 20
-75.281344887631093
 11
263.78724228256016
 21
-75.43740771311289
  0
LINE
  8
_0-2_body
  6
CONTINUOUS
 62
    7
 10
263.78724228256016
 20
-75.43740771311289
 11
263.4701212431429
 21
-75.54317214451001
  0
LINE
  8
_0-2_body
  6
CONTINUOUS
 62
    7
 10
236.52861327461784
 20
-75.54317214451001
 11
236.21269801862044
 21
-75.43740771311289
  0
LINE
  8
_0-2_body
  6
CONTINUOUS
 62
    7
 10
236.21269801862044
 20
-75.43740771311289
 11
235.91883137372864
 21
-75.281344887631093
  0
LINE
  8
_0-2_body
  6
CONTINUOUS
 62
    7
 10
235.91883137372864
 20
-75.281344887631093
 11
235.65459255000997
 21
-75.078773273098392
  0
LINE
  8
_0-2_body
  6
CONTINUOUS
 62
    7
 10
235.65459255000997
 20
-75.078773273098392
 11
235.42721624798347
 21
-74.835549531839717
  0
LINE
  8
_0-2_body
  6
CONTINUOUS
 62
    7
 10
235.42721624798347
 20
-74.835549531839717
 11
235.24462618726523
 21
-74.55718581663146
  0
LINE
  8
_0-2_body
  6
CONTINUOUS
 62
    7
 10
235.24462618726523
 20
-74.55718581663146
 11
235.10940618946918
 21
-74.25298388528401
  0
LINE
  8
_0-2_body
  6
CONTINUOUS
 62
    7
 10
235.10940618946918
 20
-74.25298388528401
 11
235.02637938827465
 21
-73.930178438316091
  0
LINE
  8
_0-2_body
  6
CONTINUOUS
 62
    7
 10
235.02637938827465
 20
-73.930178438316091
 11
234.99899087916691
 21
-73.59841574308652
  0
LINE
  8
_0-2_body
  6
CONTINUOUS
 62
    7
 10
263.4701212431429
 20
98.48944364314498
 11
260.14457057123121
 21
99.191209593490385
  0
LINE
  8
_0-2_body
  6
CONTINUOUS
 62
    7
 10
260.14457057123121
 20
99.191209593490385
 11
256.78198512285314
 21
99.694365789111131
  0
LINE
  8
_0-2_body
  6
CONTINUOUS
 62
    7
 10
256.78198512285314
 20
99.694365789111131
 11
253.39666204427238
 21
99.995294879747703
  0
LINE
  8
_0-2_body
  6
CONTINUOUS
 62
    7
 10
253.39666204427238
 20
99.995294879747703
 11
249.99910887671899
 21
100.09658068701404
  0
LINE
  8
_0-2_body
  6
CONTINUOUS
 62
    7
 10
249.99910887671899
 20
100.09658068701404
 11
246.60207247348836
 21
99.995294879747703
  0
LINE
  8
_0-2_body
  6
CONTINUOUS
 62
    7
 10
246.60207247348836
 20
99.995294879747703
 11
243.21674939490762
 21
99.694365789111131
  0
LINE
  8
_0-2_body
  6
CONTINUOUS
 62
    7
 10
243.21674939490762
 20
99.694365789111131
 11
239.85416394652952
 21
99.191209593490385
  0
LINE
  8
_0-2_body
  6
CONTINUOUS
 62
    7
 10
239.85416394652952
 20
99.191209593490385
 11
236.52861327461784
 21
98.48944364314498
  0
LINE
  8
_0-2_body
  6
CONTINUOUS
 62
    7
 10
264.9999158933681
 20
-73.59841574308652
 11
264.9999158933681
 21
96.544859496495732
  0
LINE
  8
_0-2_body
  6
CONTINUOUS
 62
    7
 10
234.99899087916691
 20
96.544859496495732
 11
234.99899087916691
 21
-73.59841574308652
  0
LINE
  8
_0-2_body
  6
CONTINUOUS
 62
    7
 10
267.55634899819773
 20
106.89668241057444
 11
268.49341497018565
 21
106.5542399193406
  0
LINE
  8
_0-2_body
  6
CONTINUOUS
 62
    7
 10
268.49341497018565
 20
106.5542399193406
 11
269.26494410410737
 21
105.91999784050611
  0
LINE
  8
_0-2_body
  6
CONTINUOUS
 62
    7
 10
269.26494410410737
 20
105.91999784050611
 11
269.78635930579992
 21
105.06544190538989
  0
LINE
  8
_0-2_body
  6
CONTINUOUS
 62
    7
 10
269.78635930579992
 20
105.06544190538989
 11
269.99754365904573
 21
104.08255616344812
  0
LINE
  8
_0-2_body
  6
CONTINUOUS
 62
    7
 10
269.99754365904573
 20
104.08255616344812
 11
269.9999552258854
 21
103.94681940132926
  0
LINE
  8
_0-2_body
  6
CONTINUOUS
 62
    7
 10
232.442385519563
 20
-83.949894147616703
 11
231.50445827370376
 21
-83.606762637285783
  0
LINE
  8
_0-2_body
  6
CONTINUOUS
 62
    7
 10
231.50445827370376
 20
-83.606762637285783
 11
230.73379041365337
 21
-82.972520558451293
  0
LINE
  8
_0-2_body
  6
CONTINUOUS
 62
    7
 10
230.73379041365337
 20
-82.972520558451293
 11
230.21340874060638
 21
-82.118136878109397
  0
LINE
  8
_0-2_body
  6
CONTINUOUS
 62
    7
 10
230.21340874060638
 20
-82.118136878109397
 11
230.00222438736057
 21
-81.135595645716108
  0
LINE
  8
_0-2_body
  6
CONTINUOUS
 62
    7
 10
230.00222438736057
 20
-81.135595645716108
 11
229.99998507529514
 21
-80.999169864500203
  0
LINE
  8
_0-2_body
  6
CONTINUOUS
 62
    7
 10
269.9999552258854
 20
-80.999169864500203
 11
269.83011201846261
 21
-81.998592064771202
  0
LINE
  8
_0-2_body
  6
CONTINUOUS
 62
    7
 10
269.83011201846261
 20
-81.998592064771202
 11
269.33849689271744
 21
-82.885704152223013
  0
LINE
  8
_0-2_body
  6
CONTINUOUS
 62
    7
 10
269.33849689271744
 20
-82.885704152223013
 11
268.5850545100933
 21
-83.553708166812982
  0
LINE
  8
_0-2_body
  6
CONTINUOUS
 62
    7
 10
268.5850545100933
 20
-83.553708166812982
 11
267.55634899819773
 21
-83.949894147616703
  0
LINE
  8
_0-2_body
  6
CONTINUOUS
 62
    7
 10
229.99998507529514
 20
103.94681940132926
 11
230.16879475407239
 21
104.94606934682599
  0
LINE
  8
_0-2_body
  6
CONTINUOUS
 62
    7
 10
230.16879475407239
 20
104.94606934682599
 11
230.66023762504329
 21
105.83163114130946
  0
LINE
  8
_0-2_body
  6
CONTINUOUS
 62
    7
 10
230.66023762504329
 20
105.83163114130946
 11
231.41368000766741
 21
106.50015192022218
  0
LINE
  8
_0-2_body
  6
CONTINUOUS
 62
    7
 10
231.41368000766741
 20
106.50015192022218
 11
232.442385519563
 21
106.89668241057444
  0
LINE
  8
_0-2_body
  6
CONTINUOUS
 62
    7
 10
246.79982095434173
 20
-85.056114307930386
 11
246.9812052316401
 21
-84.921755584005695
  0
LINE
  8
_0-2_body
  6
CONTINUOUS
 62
    7
 10
246.9812052316401
 20
-84.921755584005695
 11
247.50830484088334
 21
-84.813235076220309
  0
LINE
  8
_0-2_body
  6
CONTINUOUS
 62
    7
 10
247.50830484088334
 20
-84.813235076220309
 11
248.31773002514279
 21
-84.737098465996297
  0
LINE
  8
_0-2_body
  6
CONTINUOUS
 62
    7
 10
248.31773002514279
 20
-84.737098465996297
 11
249.31336262038002
 21
-84.698168887012997
  0
LINE
  8
_0-2_body
  6
CONTINUOUS
 62
    7
 10
249.31336262038002
 20
-84.698168887012997
 11
250.38392604242136
 21
-84.691967715139469
  0
LINE
  8
_0-2_body
  6
CONTINUOUS
 62
    7
 10
250.38392604242136
 20
-84.691967715139469
 11
251.40815293018616
 21
-84.722284555409686
  0
LINE
  8
_0-2_body
  6
CONTINUOUS
 62
    7
 10
251.40815293018616
 20
-84.722284555409686
 11
252.27631699246911
 21
-84.787396860080889
  0
LINE
  8
_0-2_body
  6
CONTINUOUS
 62
    7
 10
252.27631699246911
 20
-84.787396860080889
 11
252.88919947929509
 21
-84.885237571862035
  0
LINE
  8
_0-2_body
  6
CONTINUOUS
 62
    7
 10
252.88919947929509
 20
-84.885237571862035
 11
253.18082681212147
 21
-85.010294537976563
  0
LINE
  8
_0-2_body
  6
CONTINUOUS
 62
    7
 10
246.79982095434173
 20
-85.439897944987308
 11
246.79982095434173
 21
-85.056114307930386
  0
LINE
  8
_0-2_body
  6
CONTINUOUS
 62
    7
 10
232.442385519563
 20
-83.949894147616703
 11
234.22246635679161
 21
-84.261675289031814
  0
LINE
  8
_0-2_body
  6
CONTINUOUS
 62
    7
 10
234.22246635679161
 20
-84.261675289031814
 11
236.00840385634513
 21
-84.53866096604591
  0
LINE
  8
_0-2_body
  6
CONTINUOUS
 62
    7
 10
236.00840385634513
 20
-84.53866096604591
 11
237.79761419660963
 21
-84.782918235950092
  0
LINE
  8
_0-2_body
  6
CONTINUOUS
 62
    7
 10
237.79761419660963
 20
-84.782918235950092
 11
239.59233668965052
 21
-84.992035531904804
  0
LINE
  8
_0-2_body
  6
CONTINUOUS
 62
    7
 10
239.59233668965052
 20
-84.992035531904804
 11
241.38981525907963
 21
-85.169802458943707
  0
LINE
  8
_0-2_body
  6
CONTINUOUS
 62
    7
 10
241.38981525907963
 20
-85.169802458943707
 11
243.19160019786528
 21
-85.313462940678562
  0
LINE
  8
_0-2_body
  6
CONTINUOUS
 62
    7
 10
243.19160019786528
 20
-85.313462940678562
 11
244.99459092007081
 21
-85.423705996206593
  0
LINE
  8
_0-2_body
  6
CONTINUOUS
 62
    7
 10
244.99459092007081
 20
-85.423705996206593
 11
246.79982095434173
 21
-85.499842606430605
  0
LINE
  8
_0-2_body
  6
CONTINUOUS
 62
    7
 10
253.19908581819328
 20
-85.499842606430605
 11
255.00448810723847
 21
-85.423705996206593
  0
LINE
  8
_0-2_body
  6
CONTINUOUS
 62
    7
 10
255.00448810723847
 20
-85.423705996206593
 11
256.80747882944399
 21
-85.313462940678562
  0
LINE
  8
_0-2_body
  6
CONTINUOUS
 62
    7
 10
256.80747882944399
 20
-85.313462940678562
 11
258.60788573003555
 21
-85.169802458943707
  0
LINE
  8
_0-2_body
  6
CONTINUOUS
 62
    7
 10
258.60788573003555
 20
-85.169802458943707
 11
260.40622557333597
 21
-84.992035531904804
  0
LINE
  8
_0-2_body
  6
CONTINUOUS
 62
    7
 10
260.40622557333597
 20
-84.992035531904804
 11
262.20232610457094
 21
-84.782918235950092
  0
LINE
  8
_0-2_body
  6
CONTINUOUS
 62
    7
 10
262.20232610457094
 20
-84.782918235950092
 11
263.99170869960972
 21
-84.53866096604591
  0
LINE
  8
_0-2_body
  6
CONTINUOUS
 62
    7
 10
263.99170869960972
 20
-84.53866096604591
 11
265.77626816096915
 21
-84.261675289031814
  0
LINE
  8
_0-2_body
  6
CONTINUOUS
 62
    7
 10
265.77626816096915
 20
-84.261675289031814
 11
267.55634899819773
 21
-83.949894147616703
  0
LINE
  8
_0-2_body
  6
CONTINUOUS
 62
    7
 10
253.19908581819328
 20
-85.056114307930386
 11
253.19908581819328
 21
-85.439897944987308
  0
LINE
  8
_0-2_body
  6
CONTINUOUS
 62
    7
 10
267.55634899819773
 20
106.89668241057444
 11
263.199164483228
 21
107.5972425775
  0
LINE
  8
_0-2_body
  6
CONTINUOUS
 62
    7
 10
263.199164483228
 20
107.5972425775
 11
258.81459145915051
 21
108.09798720628105
  0
LINE
  8
_0-2_body
  6
CONTINUOUS
 62
    7
 10
258.81459145915051
 20
108.09798720628105
 11
254.41175942900122
 21
108.3990885516919
  0
LINE
  8
_0-2_body
  6
CONTINUOUS
 62
    7
 10
254.41175942900122
 20
108.3990885516919
 11
249.99910887671899
 21
108.50002984940971
  0
LINE
  8
_0-2_body
  6
CONTINUOUS
 62
    7
 10
249.99910887671899
 20
108.50002984940971
 11
245.58697508875952
 21
108.3990885516919
  0
LINE
  8
_0-2_body
  6
CONTINUOUS
 62
    7
 10
245.58697508875952
 20
108.3990885516919
 11
241.1841430586102
 21
108.09798720628105
  0
LINE
  8
_0-2_body
  6
CONTINUOUS
 62
    7
 10
241.1841430586102
 20
108.09798720628105
 11
236.79974228930701
 21
107.5972425775
  0
LINE
  8
_0-2_body
  6
CONTINUOUS
 62
    7
 10
236.79974228930701
 20
107.5972425775
 11
232.442385519563
 21
106.89668241057444
  0
LINE
  8
_0-2_body
  6
CONTINUOUS
 62
    7
 10
229.99998507529514
 20
-80.999169864500203
 11
229.99998507529514
 21
103.94681940132926
  0
LINE
  8
_0-2_body
  6
CONTINUOUS
 62
    7
 10
269.9999552258854
 20
103.94681940132926
 11
269.9999552258854
 21
-80.999169864500203
  0
LINE
  8
_0-2_body
  6
CONTINUOUS
 62
    7
 10
264.93566486256816
 20
96.26201715715672
 11
264.90793184391191
 21
96.594124361934803
  0
LINE
  8
_0-2_body
  6
CONTINUOUS
 62
    7
 10
264.90793184391191
 20
96.594124361934803
 11
264.82542180704019
 21
96.916757554128438
  0
LINE
  8
_0-2_body
  6
CONTINUOUS
 62
    7
 10
264.82542180704019
 20
96.916757554128438
 11
264.68985729969563
 21
97.222509778444362
  0
LINE
  8
_0-2_body
  6
CONTINUOUS
 62
    7
 10
264.68985729969563
 20
97.222509778444362
 11
264.5062337103318
 21
97.500356729329766
  0
LINE
  8
_0-2_body
  6
CONTINUOUS
 62
    7
 10
264.5062337103318
 20
97.500356729329766
 11
264.278685153531
 21
97.744097234911195
  0
LINE
  8
_0-2_body
  6
CONTINUOUS
 62
    7
 10
264.278685153531
 20
97.744097234911195
 11
264.01461858458663
 21
97.946152085121099
  0
LINE
  8
_0-2_body
  6
CONTINUOUS
 62
    7
 10
264.01461858458663
 20
97.946152085121099
 11
263.71834037285515
 21
98.102387165377181
  0
LINE
  8
_0-2_body
  6
CONTINUOUS
 62
    7
 10
263.71834037285515
 20
98.102387165377181
 11
263.40139158821216
 21
98.207979342000087
  0
LINE
  8
_0-2_body
  6
CONTINUOUS
 62
    7
 10
264.93566486256816
 20
-73.527102266541789
 11
264.93566486256816
 21
96.26201715715672
  0
LINE
  8
_0-2_body
  6
CONTINUOUS
 62
    7
 10
236.66641709402785
 20
-75.471858667965421
 11
239.96802435231703
 21
-76.163289331855026
  0
LINE
  8
_0-2_body
  6
CONTINUOUS
 62
    7
 10
239.96802435231703
 20
-76.163289331855026
 11
243.30408256545871
 21
-76.659383081731022
  0
LINE
  8
_0-2_body
  6
CONTINUOUS
 62
    7
 10
243.30408256545871
 20
-76.659383081731022
 11
246.66287840880304
 21
-76.957039331656574
  0
LINE
  8
_0-2_body
  6
CONTINUOUS
 62
    7
 10
246.66287840880304
 20
-76.957039331656574
 11
250.03493786976557
 21
-77.057291610277389
  0
LINE
  8
_0-2_body
  6
CONTINUOUS
 62
    7
 10
250.03493786976557
 20
-77.057291610277389
 11
253.40561929253403
 21
-76.957039331656574
  0
LINE
  8
_0-2_body
  6
CONTINUOUS
 62
    7
 10
253.40561929253403
 20
-76.957039331656574
 11
256.76613768362097
 21
-76.659383081731022
  0
LINE
  8
_0-2_body
  6
CONTINUOUS
 62
    7
 10
256.76613768362097
 20
-76.659383081731022
 11
260.10099011334285
 21
-76.163289331855026
  0
LINE
  8
_0-2_body
  6
CONTINUOUS
 62
    7
 10
260.10099011334285
 20
-76.163289331855026
 11
263.40139158821216
 21
-75.471858667965421
  0
LINE
  8
_0-2_body
  6
CONTINUOUS
 62
    7
 10
236.66641709402785
 20
98.207979342000087
 11
236.3506740928047
 21
98.102387165377181
  0
LINE
  8
_0-2_body
  6
CONTINUOUS
 62
    7
 10
236.3506740928047
 20
98.102387165377181
 11
236.05663519313862
 21
97.946152085121099
  0
LINE
  8
_0-2_body
  6
CONTINUOUS
 62
    7
 10
236.05663519313862
 20
97.946152085121099
 11
235.79119058600011
 21
97.744097234911195
  0
LINE
  8
_0-2_body
  6
CONTINUOUS
 62
    7
 10
235.79119058600011
 20
97.744097234911195
 11
235.56381428397364
 21
97.500356729329766
  0
LINE
  8
_0-2_body
  6
CONTINUOUS
 62
    7
 10
235.56381428397364
 20
97.500356729329766
 11
235.37898491118997
 21
97.222509778444362
  0
LINE
  8
_0-2_body
  6
CONTINUOUS
 62
    7
 10
235.37898491118997
 20
97.222509778444362
 11
235.24462618726523
 21
96.916757554128438
  0
LINE
  8
_0-2_body
  6
CONTINUOUS
 62
    7
 10
235.24462618726523
 20
96.916757554128438
 11
235.16194389561923
 21
96.594124361934803
  0
LINE
  8
_0-2_body
  6
CONTINUOUS
 62
    7
 10
235.16194389561923
 20
96.594124361934803
 11
235.13438313173725
 21
96.26201715715672
  0
LINE
  8
_0-2_body
  6
CONTINUOUS
 62
    7
 10
251.53458793449482
 20
92.489982110356678
 11
251.43347438200274
 21
93.032067884960725
  0
LINE
  8
_0-2_body
  6
CONTINUOUS
 62
    7
 10
251.43347438200274
 20
93.032067884960725
 11
251.14288057782193
 21
93.500600870954713
  0
LINE
  8
_0-2_body
  6
CONTINUOUS
 62
    7
 10
251.14288057782193
 20
93.500600870954713
 11
250.70311413912978
 21
93.833052585281308
  0
LINE
  8
_0-2_body
  6
CONTINUOUS
 62
    7
 10
250.70311413912978
 20
93.833052585281308
 11
250.17256943440131
 21
93.983258748438203
  0
LINE
  8
_0-2_body
  6
CONTINUOUS
 62
    7
 10
250.17256943440131
 20
93.983258748438203
 11
249.62359346882675
 21
93.932615844805042
  0
LINE
  8
_0-2_body
  6
CONTINUOUS
 62
    7
 10
249.62359346882675
 20
93.932615844805042
 11
249.13094481443602
 21
93.686808281932457
  0
LINE
  8
_0-2_body
  6
CONTINUOUS
 62
    7
 10
249.13094481443602
 20
93.686808281932457
 11
248.75887450202902
 21
93.280287014672979
  0
LINE
  8
_0-2_body
  6
CONTINUOUS
 62
    7
 10
248.75887450202902
 20
93.280287014672979
 11
248.56043700207863
 21
92.765589749176669
  0
LINE
  8
_0-2_body
  6
CONTINUOUS
 62
    7
 10
248.56043700207863
 20
92.765589749176669
 11
248.56043700207863
 21
92.21420221676243
  0
LINE
  8
_0-2_body
  6
CONTINUOUS
 62
    7
 10
248.56043700207863
 20
92.21420221676243
 11
248.75887450202902
 21
91.699677206040363
  0
LINE
  8
_0-2_body
  6
CONTINUOUS
 62
    7
 10
248.75887450202902
 20
91.699677206040363
 11
249.13094481443602
 21
91.292811429232358
  0
LINE
  8
_0-2_body
  6
CONTINUOUS
 62
    7
 10
249.13094481443602
 20
91.292811429232358
 11
249.62359346882675
 21
91.047176121134044
  0
LINE
  8
_0-2_body
  6
CONTINUOUS
 62
    7
 10
249.62359346882675
 20
91.047176121134044
 11
250.17256943440131
 21
90.995327434081034
  0
LINE
  8
_0-2_body
  6
CONTINUOUS
 62
    7
 10
250.17256943440131
 20
90.995327434081034
 11
250.70311413912978
 21
91.145878106786455
  0
LINE
  8
_0-2_body
  6
CONTINUOUS
 62
    7
 10
250.70311413912978
 20
91.145878106786455
 11
251.14288057782193
 21
91.479018840210102
  0
LINE
  8
_0-2_body
  6
CONTINUOUS
 62
    7
 10
251.14288057782193
 20
91.479018840210102
 11
251.43347438200274
 21
91.947896335752603
  0
LINE
  8
_0-2_body
  6
CONTINUOUS
 62
    7
 10
251.43347438200274
 20
91.947896335752603
 11
251.53458793449482
 21
92.489982110356678
  0
LINE
  8
_0-2_body
  6
CONTINUOUS
 62
    7
 10
263.40139158821216
 20
-75.471858667965421
 11
263.71834037285515
 21
-75.367127765213809
  0
LINE
  8
_0-2_body
  6
CONTINUOUS
 62
    7
 10
263.71834037285515
 20
-75.367127765213809
 11
264.01461858458663
 21
-75.212098468377462
  0
LINE
  8
_0-2_body
  6
CONTINUOUS
 62
    7
 10
264.01461858458663
 20
-75.212098468377462
 11
264.278685153531
 21
-75.009182344296306
  0
LINE
  8
_0-2_body
  6
CONTINUOUS
 62
    7
 10
264.278685153531
 20
-75.009182344296306
 11
264.5062337103318
 21
-74.765269583940608
  0
LINE
  8
_0-2_body
  6
CONTINUOUS
 62
    7
 10
264.5062337103318
 20
-74.765269583940608
 11
264.68985729969563
 21
-74.4858723400869
  0
LINE
  8
_0-2_body
  6
CONTINUOUS
 62
    7
 10
264.68985729969563
 20
-74.4858723400869
 11
264.82542180704019
 21
-74.183048446933441
  0
LINE
  8
_0-2_body
  6
CONTINUOUS
 62
    7
 10
264.82542180704019
 20
-74.183048446933441
 11
264.90793184391191
 21
-73.8592094713199
  0
LINE
  8
_0-2_body
  6
CONTINUOUS
 62
    7
 10
264.90793184391191
 20
-73.8592094713199
 11
264.93566486256816
 21
-73.527102266541789
  0
LINE
  8
_0-2_body
  6
CONTINUOUS
 62
    7
 10
235.13438313173725
 20
-73.527102266541789
 11
235.16194389561923
 21
-73.8592094713199
  0
LINE
  8
_0-2_body
  6
CONTINUOUS
 62
    7
 10
235.16194389561923
 20
-73.8592094713199
 11
235.24462618726523
 21
-74.183048446933441
  0
LINE
  8
_0-2_body
  6
CONTINUOUS
 62
    7
 10
235.24462618726523
 20
-74.183048446933441
 11
235.37898491118997
 21
-74.4858723400869
  0
LINE
  8
_0-2_body
  6
CONTINUOUS
 62
    7
 10
235.37898491118997
 20
-74.4858723400869
 11
235.56381428397364
 21
-74.765269583940608
  0
LINE
  8
_0-2_body
  6
CONTINUOUS
 62
    7
 10
235.56381428397364
 20
-74.765269583940608
 11
235.79119058600011
 21
-75.009182344296306
  0
LINE
  8
_0-2_body
  6
CONTINUOUS
 62
    7
 10
235.79119058600011
 20
-75.009182344296306
 11
236.05663519313862
 21
-75.212098468377462
  0
LINE
  8
_0-2_body
  6
CONTINUOUS
 62
    7
 10
236.05663519313862
 20
-75.212098468377462
 11
236.3506740928047
 21
-75.367127765213809
  0
LINE
  8
_0-2_body
  6
CONTINUOUS
 62
    7
 10
236.3506740928047
 20
-75.367127765213809
 11
236.66641709402785
 21
-75.471858667965421
  0
LINE
  8
_0-2_body
  6
CONTINUOUS
 62
    7
 10
263.40139158821216
 20
98.207979342000087
 11
260.10099011334285
 21
98.89837647724417
  0
LINE
  8
_0-2_body
  6
CONTINUOUS
 62
    7
 10
260.10099011334285
 20
98.89837647724417
 11
256.76613768362097
 21
99.393608953248815
  0
LINE
  8
_0-2_body
  6
CONTINUOUS
 62
    7
 10
256.76613768362097
 20
99.393608953248815
 11
253.40561929253403
 21
99.692126477045719
  0
LINE
  8
_0-2_body
  6
CONTINUOUS
 62
    7
 10
253.40561929253403
 20
99.692126477045719
 11
250.03493786976557
 21
99.790828462698116
  0
LINE
  8
_0-2_body
  6
CONTINUOUS
 62
    7
 10
250.03493786976557
 20
99.790828462698116
 11
246.66287840880304
 21
99.692126477045719
  0
LINE
  8
_0-2_body
  6
CONTINUOUS
 62
    7
 10
246.66287840880304
 20
99.692126477045719
 11
243.30408256545871
 21
99.393608953248815
  0
LINE
  8
_0-2_body
  6
CONTINUOUS
 62
    7
 10
243.30408256545871
 20
99.393608953248815
 11
239.96802435231703
 21
98.89837647724417
  0
LINE
  8
_0-2_body
  6
CONTINUOUS
 62
    7
 10
239.96802435231703
 20
98.89837647724417
 11
236.66641709402785
 21
98.207979342000087
  0
LINE
  8
_0-2_body
  6
CONTINUOUS
 62
    7
 10
251.53458793449482
 20
92.489982110356678
 11
251.43347438200274
 21
93.032067884960725
  0
LINE
  8
_0-2_body
  6
CONTINUOUS
 62
    7
 10
251.43347438200274
 20
93.032067884960725
 11
251.14288057782193
 21
93.500600870954713
  0
LINE
  8
_0-2_body
  6
CONTINUOUS
 62
    7
 10
251.14288057782193
 20
93.500600870954713
 11
250.70311413912978
 21
93.833052585281308
  0
LINE
  8
_0-2_body
  6
CONTINUOUS
 62
    7
 10
250.70311413912978
 20
93.833052585281308
 11
250.17256943440131
 21
93.983258748438203
  0
LINE
  8
_0-2_body
  6
CONTINUOUS
 62
    7
 10
250.17256943440131
 20
93.983258748438203
 11
249.62359346882675
 21
93.932615844805042
  0
LINE
  8
_0-2_body
  6
CONTINUOUS
 62
    7
 10
249.62359346882675
 20
93.932615844805042
 11
249.13094481443602
 21
93.686808281932457
  0
LINE
  8
_0-2_body
  6
CONTINUOUS
 62
    7
 10
249.13094481443602
 20
93.686808281932457
 11
248.75887450202902
 21
93.280287014672979
  0
LINE
  8
_0-2_body
  6
CONTINUOUS
 62
    7
 10
248.75887450202902
 20
93.280287014672979
 11
248.56043700207863
 21
92.765589749176669
  0
LINE
  8
_0-2_body
  6
CONTINUOUS
 62
    7
 10
248.56043700207863
 20
92.765589749176669
 11
248.56043700207863
 21
92.21420221676243
  0
LINE
  8
_0-2_body
  6
CONTINUOUS
 62
    7
 10
248.56043700207863
 20
92.21420221676243
 11
248.75887450202902
 21
91.699677206040363
  0
LINE
  8
_0-2_body
  6
CONTINUOUS
 62
    7
 10
248.75887450202902
 20
91.699677206040363
 11
249.13094481443602
 21
91.292811429232358
  0
LINE
  8
_0-2_body
  6
CONTINUOUS
 62
    7
 10
249.13094481443602
 20
91.292811429232358
 11
249.62359346882675
 21
91.047176121134044
  0
LINE
  8
_0-2_body
  6
CONTINUOUS
 62
    7
 10
249.62359346882675
 20
91.047176121134044
 11
250.17256943440131
 21
90.995327434081034
  0
LINE
  8
_0-2_body
  6
CONTINUOUS
 62
    7
 10
250.17256943440131
 20
90.995327434081034
 11
250.70311413912978
 21
91.145878106786455
  0
LINE
  8
_0-2_body
  6
CONTINUOUS
 62
    7
 10
250.70311413912978
 20
91.145878106786455
 11
251.14288057782193
 21
91.479018840210102
  0
LINE
  8
_0-2_body
  6
CONTINUOUS
 62
    7
 10
251.14288057782193
 20
91.479018840210102
 11
251.43347438200274
 21
91.947896335752603
  0
LINE
  8
_0-2_body
  6
CONTINUOUS
 62
    7
 10
251.43347438200274
 20
91.947896335752603
 11
251.53458793449482
 21
92.489982110356678
  0
LINE
  8
_0-2_body
  6
CONTINUOUS
 62
    7
 10
315.48641219151028
 20
108.50002984940971
 11
302.20367429335533
 21
106.78402778820677
  0
LINE
  8
_0-2_body
  6
CONTINUOUS
 62
    7
 10
302.20367429335533
 20
-83.836205996603496
 11
308.84754093665964
 21
-84.695412810624816
  0
LINE
  8
_0-2_body
  6
CONTINUOUS
 62
    7
 10
300.00001896621529
 20
-81.357804304514701
 11
300.0417046215868
 21
-81.805666717597205
  0
LINE
  8
_0-2_body
  6
CONTINUOUS
 62
    7
 10
300.0417046215868
 20
-81.805666717597205
 11
300.16262747311907
 21
-82.238370710544586
  0
LINE
  8
_0-2_body
  6
CONTINUOUS
 62
    7
 10
300.16262747311907
 20
-82.238370710544586
 11
300.36020369919817
 21
-82.644202958707012
  0
LINE
  8
_0-2_body
  6
CONTINUOUS
 62
    7
 10
300.36020369919817
 20
-82.644202958707012
 11
300.62771536362777
 21
-83.006627003755312
  0
LINE
  8
_0-2_body
  6
CONTINUOUS
 62
    7
 10
300.62771536362777
 20
-83.006627003755312
 11
300.95775551111473
 21
-83.31737461652483
  0
LINE
  8
_0-2_body
  6
CONTINUOUS
 62
    7
 10
300.95775551111473
 20
-83.31737461652483
 11
301.33895532655765
 21
-83.563009924623088
  0
LINE
  8
_0-2_body
  6
CONTINUOUS
 62
    7
 10
301.33895532655765
 20
-83.563009924623088
 11
301.75736217324123
 21
-83.738709794370891
  0
LINE
  8
_0-2_body
  6
CONTINUOUS
 62
    7
 10
301.75736217324123
 20
-83.738709794370891
 11
302.20367429335533
 21
-83.836205996603496
  0
LINE
  8
_0-2_body
  6
CONTINUOUS
 62
    7
 10
302.20367429335533
 20
106.78402778820677
 11
301.75736217324123
 21
106.68532580255436
  0
LINE
  8
_0-2_body
  6
CONTINUOUS
 62
    7
 10
301.75736217324123
 20
106.68532580255436
 11
301.33895532655765
 21
106.51065946145219
  0
LINE
  8
_0-2_body
  6
CONTINUOUS
 62
    7
 10
301.33895532655765
 20
106.51065946145219
 11
300.95775551111473
 21
106.26364611515977
  0
LINE
  8
_0-2_body
  6
CONTINUOUS
 62
    7
 10
300.95775551111473
 20
106.26364611515977
 11
300.62771536362777
 21
105.95462105013289
  0
LINE
  8
_0-2_body
  6
CONTINUOUS
 62
    7
 10
300.62771536362777
 20
105.95462105013289
 11
300.36020369919817
 21
105.59064671211623
  0
LINE
  8
_0-2_body
  6
CONTINUOUS
 62
    7
 10
300.36020369919817
 20
105.59064671211623
 11
300.16262747311907
 21
105.18515897350233
  0
LINE
  8
_0-2_body
  6
CONTINUOUS
 62
    7
 10
300.16262747311907
 20
105.18515897350233
 11
300.0417046215868
 21
104.75193821623213
  0
LINE
  8
_0-2_body
  6
CONTINUOUS
 62
    7
 10
300.0417046215868
 20
104.75193821623213
 11
300.00001896621529
 21
104.30407580314967
  0
LINE
  8
_0-2_body
  6
CONTINUOUS
 62
    7
 10
315.48641219151028
 20
-80.999169864500203
 11
315.48641219151028
 21
-81.99824755522269
  0
LINE
  8
_0-2_body
  6
CONTINUOUS
 62
    7
 10
315.48641219151028
 20
-81.99824755522269
 11
315.48641219151028
 21
-82.885359642674501
  0
LINE
  8
_0-2_body
  6
CONTINUOUS
 62
    7
 10
315.48641219151028
 20
-82.885359642674501
 11
315.48641219151028
 21
-83.553708166812982
  0
LINE
  8
_0-2_body
  6
CONTINUOUS
 62
    7
 10
315.48641219151028
 20
-83.553708166812982
 11
315.48641219151028
 21
-83.949894147616703
  0
LINE
  8
_0-2_body
  6
CONTINUOUS
 62
    7
 10
315.48641219151028
 20
106.89651015580017
 11
315.48641219151028
 21
106.5542399193406
  0
LINE
  8
_0-2_body
  6
CONTINUOUS
 62
    7
 10
315.48641219151028
 20
106.5542399193406
 11
315.48641219151028
 21
105.92017009528037
  0
LINE
  8
_0-2_body
  6
CONTINUOUS
 62
    7
 10
315.48641219151028
 20
105.92017009528037
 11
315.48641219151028
 21
105.06544190538989
  0
LINE
  8
_0-2_body
  6
CONTINUOUS
 62
    7
 10
315.48641219151028
 20
105.06544190538989
 11
315.48641219151028
 21
104.08238390867385
  0
LINE
  8
_0-2_body
  6
CONTINUOUS
 62
    7
 10
315.48641219151028
 20
104.08238390867385
 11
315.48641219151028
 21
103.94699165610353
  0
LINE
  8
_0-2_body
  6
CONTINUOUS
 62
    7
 10
315.48641219151028
 20
103.94699165610353
 11
315.48641219151028
 21
-80.999169864500203
  0
LINE
  8
_0-2_body
  6
CONTINUOUS
 62
    7
 10
300.00001896621529
 20
102.37086047160173
 11
300.00001896621529
 21
102.53622505489372
  0
LINE
  8
_0-2_body
  6
CONTINUOUS
 62
    7
 10
300.00001896621529
 20
102.53622505489372
 11
300.00001896621529
 21
102.68556994417929
  0
LINE
  8
_0-2_body
  6
CONTINUOUS
 62
    7
 10
300.00001896621529
 20
102.68556994417929
 11
300.00001896621529
 21
102.79581299970729
  0
LINE
  8
_0-2_body
  6
CONTINUOUS
 62
    7
 10
300.00001896621529
 20
-79.859532277979611
 11
300.00001896621529
 21
-79.753767846582434
  0
LINE
  8
_0-2_body
  6
CONTINUOUS
 62
    7
 10
300.00001896621529
 20
-79.753767846582434
 11
300.00001896621529
 21
-79.612518931687191
  0
LINE
  8
_0-2_body
  6
CONTINUOUS
 62
    7
 10
300.00001896621529
 20
-79.612518931687191
 11
300.00001896621529
 21
-79.448187877040709
  0
LINE
  8
_0-2_body
  6
CONTINUOUS
 62
    7
 10
300.00001896621529
 20
-79.423038679998399
 11
300.00001896621529
 21
102.37086047160173
  0
LINE
  8
_0-2_body
  6
CONTINUOUS
 62
    7
 10
315.48641219151028
 20
106.89651015580017
 11
315.48641219151028
 21
107.5972425775
  0
LINE
  8
_0-2_body
  6
CONTINUOUS
 62
    7
 10
315.48641219151028
 20
107.5972425775
 11
315.48641219151028
 21
108.09815946105532
  0
LINE
  8
_0-2_body
  6
CONTINUOUS
 62
    7
 10
315.48641219151028
 20
108.09815946105532
 11
315.48641219151028
 21
108.39891629691763
  0
LINE
  8
_0-2_body
  6
CONTINUOUS
 62
    7
 10
315.48641219151028
 20
108.39891629691763
 11
315.48641219151028
 21
108.50002984940971
  0
LINE
  8
_0-2_body
  6
CONTINUOUS
 62
    7
 10
308.82893742103931
 20
-84.691967715139469
 11
309.13572317400082
 21
-84.722284555409686
  0
LINE
  8
_0-2_body
  6
CONTINUOUS
 62
    7
 10
309.13572317400082
 20
-84.722284555409686
 11
309.76807045031842
 21
-84.787396860080889
  0
LINE
  8
_0-2_body
  6
CONTINUOUS
 62
    7
 10
309.76807045031842
 20
-84.787396860080889
 11
310.6538044995761
 21
-84.885237571862035
  0
LINE
  8
_0-2_body
  6
CONTINUOUS
 62
    7
 10
310.6538044995761
 20
-84.885237571862035
 11
311.6974961768326
 21
-85.010294537976563
  0
LINE
  8
_0-2_body
  6
CONTINUOUS
 62
    7
 10
311.6974961768326
 20
-85.010294537976563
 11
312.04372827310021
 21
-85.056114307930386
  0
LINE
  8
_0-2_body
  6
CONTINUOUS
 62
    7
 10
312.04372827310021
 20
-85.056114307930386
 11
315.02149655577591
 21
-85.439897944987308
  0
LINE
  8
_0-2_body
  6
CONTINUOUS
 62
    7
 10
315.02149655577591
 20
-85.439897944987308
 11
315.48641219151028
 21
-85.499842606430605
  0
LINE
  8
_0-2_body
  6
CONTINUOUS
 62
    7
 10
315.48641219151028
 20
-85.423705996206593
 11
315.48641219151028
 21
-85.313462940678562
  0
LINE
  8
_0-2_body
  6
CONTINUOUS
 62
    7
 10
315.48641219151028
 20
-85.313462940678562
 11
315.48641219151028
 21
-85.169802458943707
  0
LINE
  8
_0-2_body
  6
CONTINUOUS
 62
    7
 10
315.48641219151028
 20
-85.169802458943707
 11
315.48641219151028
 21
-84.991691022356292
  0
LINE
  8
_0-2_body
  6
CONTINUOUS
 62
    7
 10
315.48641219151028
 20
-84.991691022356292
 11
315.48641219151028
 21
-84.782918235950092
  0
LINE
  8
_0-2_body
  6
CONTINUOUS
 62
    7
 10
315.48641219151028
 20
-84.782918235950092
 11
315.48641219151028
 21
-84.538316456497398
  0
LINE
  8
_0-2_body
  6
CONTINUOUS
 62
    7
 10
315.48641219151028
 20
-84.538316456497398
 11
315.48641219151028
 21
-84.261330779483302
  0
LINE
  8
_0-2_body
  6
CONTINUOUS
 62
    7
 10
315.48641219151028
 20
-84.261330779483302
 11
315.48641219151028
 21
-83.949894147616703
  0
LINE
  8
_0-2_body
  6
CONTINUOUS
 62
    7
 10
300.00001896621529
 20
-81.266509274155595
 11
300.00001896621529
 21
-80.997102807209075
  0
LINE
  8
_0-2_body
  6
CONTINUOUS
 62
    7
 10
300.00001896621529
 20
-80.997102807209075
 11
300.00001896621529
 21
-80.545450789092797
  0
LINE
  8
_0-2_body
  6
CONTINUOUS
 62
    7
 10
300.00001896621529
 20
-80.545450789092797
 11
300.00001896621529
 21
-79.916031843937674
  0
LINE
  8
_0-2_body
  6
CONTINUOUS
 62
    7
 10
300.00001896621529
 20
102.86247559734687
 11
300.00001896621529
 21
103.49206679727629
  0
LINE
  8
_0-2_body
  6
CONTINUOUS
 62
    7
 10
300.00001896621529
 20
103.49206679727629
 11
300.00001896621529
 21
103.94216852242418
  0
LINE
  8
_0-2_body
  6
CONTINUOUS
 62
    7
 10
300.00001896621529
 20
103.94216852242418
 11
300.00001896621529
 21
104.21329753711335
  0
LINE
  8
_0-2_body
  6
CONTINUOUS
 62
    7
 10
316.19541284237482
 20
102.69814454270046
 11
316.19541284237482
 21
99.696605101176544
  0
LINE
  8
_0-2_body
  6
CONTINUOUS
 62
    7
 10
316.19541284237482
 20
99.696605101176544
 11
316.19541284237482
 21
23.076647980574592
  0
LINE
  8
_0-2_body
  6
CONTINUOUS
 62
    7
 10
316.19541284237482
 20
23.076647980574592
 11
315.48641219151028
 21
23.076647980574592
  0
LINE
  8
_0-2_body
  6
CONTINUOUS
 62
    7
 10
316.19541284237482
 20
-72.349568629683517
 11
316.19541284237482
 21
-73.288701658962594
  0
LINE
  8
_0-2_body
  6
CONTINUOUS
 62
    7
 10
315.48641219151028
 20
14.074613477616822
 11
316.19541284237482
 21
14.074613477616822
  0
LINE
  8
_0-2_body
  6
CONTINUOUS
 62
    7
 10
316.19541284237482
 20
14.074613477616822
 11
316.19541284237482
 21
-72.349568629683517
  0
LINE
  8
_0-2_body
  6
CONTINUOUS
 62
    7
 10
315.48641219151028
 20
103.39767118098044
 11
316.19541284237482
 21
102.69814454270046
  0
LINE
  8
_0-2_body
  6
CONTINUOUS
 62
    7
 10
316.19541284237482
 20
-74.350480087516587
 11
315.48641219151028
 21
-75.049834471022308
  0
LINE
  8
_0-2_body
  6
CONTINUOUS
 62
    7
 10
316.19541284237482
 20
-73.288701658962594
 11
316.19541284237482
 21
-73.647680608525604
  0
LINE
  8
_0-2_body
  6
CONTINUOUS
 62
    7
 10
316.19541284237482
 20
-73.647680608525604
 11
316.19541284237482
 21
-73.944303329805592
  0
LINE
  8
_0-2_body
  6
CONTINUOUS
 62
    7
 10
316.19541284237482
 20
-73.944303329805592
 11
316.19541284237482
 21
-74.166856498152811
  0
LINE
  8
_0-2_body
  6
CONTINUOUS
 62
    7
 10
316.19541284237482
 20
-74.166856498152811
 11
316.19541284237482
 21
-74.302593260271607
  0
LINE
  8
_0-2_body
  6
CONTINUOUS
 62
    7
 10
316.60003930711741
 20
99.696605101176544
 11
316.60003930711741
 21
-72.349568629683517
  0
LINE
  8
_0-2_body
  6
CONTINUOUS
 62
    7
 10
316.60003930711741
 20
101.26808540677325
 11
316.60003930711741
 21
101.11064454309732
  0
LINE
  8
_0-2_body
  6
CONTINUOUS
 62
    7
 10
316.60003930711741
 20
101.11064454309732
 11
316.60003930711741
 21
100.89928793507727
  0
LINE
  8
_0-2_body
  6
CONTINUOUS
 62
    7
 10
316.60003930711741
 20
100.89928793507727
 11
316.60003930711741
 21
100.64211155710336
  0
LINE
  8
_0-2_body
  6
CONTINUOUS
 62
    7
 10
316.60003930711741
 20
100.64211155710336
 11
316.60003930711741
 21
100.34790040266302
  0
LINE
  8
_0-2_body
  6
CONTINUOUS
 62
    7
 10
316.60003930711741
 20
100.34790040266302
 11
316.60003930711741
 21
100.02991808937446
  0
LINE
  8
_0-2_body
  6
CONTINUOUS
 62
    7
 10
316.60003930711741
 20
100.02991808937446
 11
316.60003930711741
 21
99.696605101176544
  0
LINE
  8
_0-2_body
  6
CONTINUOUS
 62
    7
 10
316.60003930711741
 20
101.39675972314734
 11
316.54887963916138
 21
101.56436361850474
  0
LINE
  8
_0-2_body
  6
CONTINUOUS
 62
    7
 10
316.54887963916138
 20
101.56436361850474
 11
316.29532061144698
 21
101.69768881378391
  0
LINE
  8
_0-2_body
  6
CONTINUOUS
 62
    7
 10
316.60003930711741
 20
-72.349568629683517
 11
316.60003930711741
 21
-72.680297796267411
  0
LINE
  8
_0-2_body
  6
CONTINUOUS
 62
    7
 10
316.60003930711741
 20
-72.680297796267411
 11
316.60003930711741
 21
-73.000002657298609
  0
LINE
  8
_0-2_body
  6
CONTINUOUS
 62
    7
 10
316.60003930711741
 20
-73.000002657298609
 11
316.60003930711741
 21
-73.293869302190387
  0
LINE
  8
_0-2_body
  6
CONTINUOUS
 62
    7
 10
316.60003930711741
 20
-73.293869302190387
 11
316.60003930711741
 21
-73.551217934938592
  0
LINE
  8
_0-2_body
  6
CONTINUOUS
 62
    7
 10
316.60003930711741
 20
-73.551217934938592
 11
316.60003930711741
 21
-73.762402288184404
  0
LINE
  8
_0-2_body
  6
CONTINUOUS
 62
    7
 10
316.60003930711741
 20
-73.762402288184404
 11
316.60003930711741
 21
-73.920876680505899
  0
LINE
  8
_0-2_body
  6
CONTINUOUS
 62
    7
 10
316.29532061144698
 20
-74.350480087516587
 11
316.509261041081
 21
-74.261941133545605
  0
LINE
  8
_0-2_body
  6
CONTINUOUS
 62
    7
 10
316.509261041081
 20
-74.261941133545605
 11
316.60003930711741
 21
-74.050067761202797
  0
LINE
  8
_0-2_body
  6
CONTINUOUS
 62
    7
 10
246.79982095434173
 20
-108.40042582553178
 11
246.9812052316401
 21
-107.33830288742931
  0
LINE
  8
_0-2_body
  6
CONTINUOUS
 62
    7
 10
246.9812052316401
 20
-107.33830288742931
 11
247.50830484088334
 21
-106.39227966717974
  0
LINE
  8
_0-2_body
  6
CONTINUOUS
 62
    7
 10
247.50830484088334
 20
-106.39227966717974
 11
248.31773002514279
 21
-105.6781113730874
  0
LINE
  8
_0-2_body
  6
CONTINUOUS
 62
    7
 10
248.31773002514279
 20
-105.6781113730874
 11
249.31336262038002
 21
-105.2746906917647
  0
LINE
  8
_0-2_body
  6
CONTINUOUS
 62
    7
 10
249.31336262038002
 20
-105.2746906917647
 11
250.38392604242136
 21
-105.22404778813151
  0
LINE
  8
_0-2_body
  6
CONTINUOUS
 62
    7
 10
250.38392604242136
 20
-105.22404778813151
 11
251.40815293018616
 21
-105.52721619083351
  0
LINE
  8
_0-2_body
  6
CONTINUOUS
 62
    7
 10
251.40815293018616
 20
-105.52721619083351
 11
252.27631699246911
 21
-106.15112298321219
  0
LINE
  8
_0-2_body
  6
CONTINUOUS
 62
    7
 10
252.27631699246911
 20
-106.15112298321219
 11
252.88919947929509
 21
-107.02617723646568
  0
LINE
  8
_0-2_body
  6
CONTINUOUS
 62
    7
 10
252.88919947929509
 20
-107.02617723646568
 11
253.18082681212147
 21
-108.05832784384648
  0
LINE
  8
_0-2_body
  6
CONTINUOUS
 62
    7
 10
253.18082681212147
 20
-108.05832784384648
 11
253.19908581819328
 21
-108.40042582553178
  0
LINE
  8
_0-2_body
  6
CONTINUOUS
 62
    7
 10
246.79982095434173
 20
-111.80107957902197
 11
246.79982095434173
 21
-111.34150384128958
  0
LINE
  8
_0-2_body
  6
CONTINUOUS
 62
    7
 10
246.79982095434173
 20
-111.34150384128958
 11
246.79982095434173
 21
-108.40042582553178
  0
LINE
  8
_0-2_body
  6
CONTINUOUS
 62
    7
 10
232.442385519563
 20
-111.80107957902197
 11
234.22246635679161
 21
-111.80107957902197
  0
LINE
  8
_0-2_body
  6
CONTINUOUS
 62
    7
 10
234.22246635679161
 20
-111.80107957902197
 11
236.00840385634513
 21
-111.80107957902197
  0
LINE
  8
_0-2_body
  6
CONTINUOUS
 62
    7
 10
236.00840385634513
 20
-111.80107957902197
 11
237.79761419660963
 21
-111.80107957902197
  0
LINE
  8
_0-2_body
  6
CONTINUOUS
 62
    7
 10
237.79761419660963
 20
-111.80107957902197
 11
239.59233668965052
 21
-111.80107957902197
  0
LINE
  8
_0-2_body
  6
CONTINUOUS
 62
    7
 10
239.59233668965052
 20
-111.80107957902197
 11
241.38981525907963
 21
-111.80107957902197
  0
LINE
  8
_0-2_body
  6
CONTINUOUS
 62
    7
 10
241.38981525907963
 20
-111.80107957902197
 11
243.19160019786528
 21
-111.80107957902197
  0
LINE
  8
_0-2_body
  6
CONTINUOUS
 62
    7
 10
243.19160019786528
 20
-111.80107957902197
 11
244.99459092007081
 21
-111.80107957902197
  0
LINE
  8
_0-2_body
  6
CONTINUOUS
 62
    7
 10
244.99459092007081
 20
-111.80107957902197
 11
246.79982095434173
 21
-111.80107957902197
  0
LINE
  8
_0-2_body
  6
CONTINUOUS
 62
    7
 10
253.19908581819328
 20
-111.80107957902197
 11
255.00448810723847
 21
-111.80107957902197
  0
LINE
  8
_0-2_body
  6
CONTINUOUS
 62
    7
 10
255.00448810723847
 20
-111.80107957902197
 11
256.80747882944399
 21
-111.80107957902197
  0
LINE
  8
_0-2_body
  6
CONTINUOUS
 62
    7
 10
256.80747882944399
 20
-111.80107957902197
 11
258.60788573003555
 21
-111.80107957902197
  0
LINE
  8
_0-2_body
  6
CONTINUOUS
 62
    7
 10
258.60788573003555
 20
-111.80107957902197
 11
260.40622557333597
 21
-111.80107957902197
  0
LINE
  8
_0-2_body
  6
CONTINUOUS
 62
    7
 10
260.40622557333597
 20
-111.80107957902197
 11
262.20232610457094
 21
-111.80107957902197
  0
LINE
  8
_0-2_body
  6
CONTINUOUS
 62
    7
 10
262.20232610457094
 20
-111.80107957902197
 11
263.99170869960972
 21
-111.80107957902197
  0
LINE
  8
_0-2_body
  6
CONTINUOUS
 62
    7
 10
263.99170869960972
 20
-111.80107957902197
 11
265.77626816096915
 21
-111.80107957902197
  0
LINE
  8
_0-2_body
  6
CONTINUOUS
 62
    7
 10
265.77626816096915
 20
-111.80107957902197
 11
267.55634899819773
 21
-111.80107957902197
  0
LINE
  8
_0-2_body
  6
CONTINUOUS
 62
    7
 10
253.19908581819328
 20
-108.40042582553178
 11
253.19908581819328
 21
-111.34150384128958
  0
LINE
  8
_0-2_body
  6
CONTINUOUS
 62
    7
 10
253.19908581819328
 20
-111.34150384128958
 11
253.19908581819328
 21
-111.80107957902197
  0
LINE
  8
_0-2_body
  6
CONTINUOUS
 62
    7
 10
269.19621444917664
 20
-98.845108987642902
 11
269.54296330976706
 21
-104.4444226798195
  0
LINE
  8
_0-2_body
  6
CONTINUOUS
 62
    7
 10
269.54296330976706
 20
-104.4444226798195
 11
269.9999552258854
 21
-111.80107957902197
  0
LINE
  8
_0-2_body
  6
CONTINUOUS
 62
    7
 10
269.9999552258854
 20
-111.80107957902197
 11
269.83011201846261
 21
-111.80107957902197
  0
LINE
  8
_0-2_body
  6
CONTINUOUS
 62
    7
 10
269.83011201846261
 20
-111.80107957902197
 11
269.33849689271744
 21
-111.80107957902197
  0
LINE
  8
_0-2_body
  6
CONTINUOUS
 62
    7
 10
269.33849689271744
 20
-111.80107957902197
 11
268.5850545100933
 21
-111.80107957902197
  0
LINE
  8
_0-2_body
  6
CONTINUOUS
 62
    7
 10
268.5850545100933
 20
-111.80107957902197
 11
267.55634899819773
 21
-111.80107957902197
  0
LINE
  8
_0-2_body
  6
CONTINUOUS
 62
    7
 10
229.99998507529514
 20
-111.80107957902197
 11
230.45577120799371
 21
-104.4444226798195
  0
LINE
  8
_0-2_body
  6
CONTINUOUS
 62
    7
 10
230.45577120799371
 20
-104.4444226798195
 11
230.80389810677818
 21
-98.845108987642902
  0
LINE
  8
_0-2_body
  6
CONTINUOUS
 62
    7
 10
232.442385519563
 20
-111.80107957902197
 11
231.50445827370376
 21
-111.80107957902197
  0
LINE
  8
_0-2_body
  6
CONTINUOUS
 62
    7
 10
231.50445827370376
 20
-111.80107957902197
 11
230.73379041365337
 21
-111.80107957902197
  0
LINE
  8
_0-2_body
  6
CONTINUOUS
 62
    7
 10
230.73379041365337
 20
-111.80107957902197
 11
230.21340874060638
 21
-111.80107957902197
  0
LINE
  8
_0-2_body
  6
CONTINUOUS
 62
    7
 10
230.21340874060638
 20
-111.80107957902197
 11
230.00222438736057
 21
-111.80107957902197
  0
LINE
  8
_0-2_body
  6
CONTINUOUS
 62
    7
 10
233.70914712948939
 20
-96.50003249083332
 11
237.75386148394693
 21
-96.50003249083332
  0
LINE
  8
_0-2_body
  6
CONTINUOUS
 62
    7
 10
237.75386148394693
 20
-96.50003249083332
 11
241.82286376157555
 21
-96.50003249083332
  0
LINE
  8
_0-2_body
  6
CONTINUOUS
 62
    7
 10
241.82286376157555
 20
-96.50003249083332
 11
245.90754122366201
 21
-96.50003249083332
  0
LINE
  8
_0-2_body
  6
CONTINUOUS
 62
    7
 10
245.90754122366201
 20
-96.50003249083332
 11
249.99910887671899
 21
-96.50003249083332
  0
LINE
  8
_0-2_body
  6
CONTINUOUS
 62
    7
 10
249.99910887671899
 20
-96.50003249083332
 11
254.0927435870671
 21
-96.50003249083332
  0
LINE
  8
_0-2_body
  6
CONTINUOUS
 62
    7
 10
254.0927435870671
 20
-96.50003249083332
 11
258.17621526573373
 21
-96.50003249083332
  0
LINE
  8
_0-2_body
  6
CONTINUOUS
 62
    7
 10
258.17621526573373
 20
-96.50003249083332
 11
262.24607881723364
 21
-96.50003249083332
  0
LINE
  8
_0-2_body
  6
CONTINUOUS
 62
    7
 10
262.24607881723364
 20
-96.50003249083332
 11
266.29079317169118
 21
-96.50003249083332
  0
LINE
  8
_0-2_body
  6
CONTINUOUS
 62
    7
 10
253.19908581819328
 20
-111.80107957902197
 11
246.79982095434173
 21
-111.80107957902197
  0
LINE
  8
_0-2_body
  6
CONTINUOUS
 62
    7
 10
230.80389810677818
 20
-98.845108987642902
 11
230.87624511196844
 21
-98.381399135328337
  0
LINE
  8
_0-2_body
  6
CONTINUOUS
 62
    7
 10
230.87624511196844
 20
-98.381399135328337
 11
231.0357530329355
 21
-97.93767083682809
  0
LINE
  8
_0-2_body
  6
CONTINUOUS
 62
    7
 10
231.0357530329355
 20
-97.93767083682809
 11
231.27587618825743
 21
-97.532527607762688
  0
LINE
  8
_0-2_body
  6
CONTINUOUS
 62
    7
 10
231.27587618825743
 20
-97.532527607762688
 11
231.58593478192989
 21
-97.180094339621689
  0
LINE
  8
_0-2_body
  6
CONTINUOUS
 62
    7
 10
231.58593478192989
 20
-97.180094339621689
 11
231.95921087775673
 21
-96.890361809312139
  0
LINE
  8
_0-2_body
  6
CONTINUOUS
 62
    7
 10
231.95921087775673
 20
-96.890361809312139
 11
232.37847899831164
 21
-96.676765889226715
  0
LINE
  8
_0-2_body
  6
CONTINUOUS
 62
    7
 10
232.37847899831164
 20
-96.676765889226715
 11
232.82944199733083
 21
-96.545163241690062
  0
LINE
  8
_0-2_body
  6
CONTINUOUS
 62
    7
 10
232.82944199733083
 20
-96.545163241690062
 11
233.29918076674466
 21
-96.50003249083332
  0
LINE
  8
_0-2_body
  6
CONTINUOUS
 62
    7
 10
233.40839029362706
 20
-96.50003249083332
 11
233.53482529793575
 21
-96.50003249083332
  0
LINE
  8
_0-2_body
  6
CONTINUOUS
 62
    7
 10
233.53482529793575
 20
-96.50003249083332
 11
233.68968233999772
 21
-96.50003249083332
  0
LINE
  8
_0-2_body
  6
CONTINUOUS
 62
    7
 10
266.29079317169118
 20
-96.50003249083332
 11
266.44685599717303
 21
-96.50003249083332
  0
LINE
  8
_0-2_body
  6
CONTINUOUS
 62
    7
 10
266.44685599717303
 20
-96.50003249083332
 11
266.57553031354712
 21
-96.50003249083332
  0
LINE
  8
_0-2_body
  6
CONTINUOUS
 62
    7
 10
266.69955375101608
 20
-96.50003249083332
 11
267.16808673701007
 21
-96.545163241690062
  0
LINE
  8
_0-2_body
  6
CONTINUOUS
 62
    7
 10
267.16808673701007
 20
-96.545163241690062
 11
267.62042777422334
 21
-96.676765889226715
  0
LINE
  8
_0-2_body
  6
CONTINUOUS
 62
    7
 10
267.62042777422334
 20
-96.676765889226715
 11
268.04107393297238
 21
-96.890361809312139
  0
LINE
  8
_0-2_body
  6
CONTINUOUS
 62
    7
 10
268.04107393297238
 20
-96.890361809312139
 11
268.41297199060512
 21
-97.180094339621689
  0
LINE
  8
_0-2_body
  6
CONTINUOUS
 62
    7
 10
268.41297199060512
 20
-97.180094339621689
 11
268.72285832950331
 21
-97.532527607762688
  0
LINE
  8
_0-2_body
  6
CONTINUOUS
 62
    7
 10
268.72285832950331
 20
-97.532527607762688
 11
268.96177570140537
 21
-97.93767083682809
  0
LINE
  8
_0-2_body
  6
CONTINUOUS
 62
    7
 10
268.96177570140537
 20
-97.93767083682809
 11
269.12248940579229
 21
-98.381399135328337
  0
LINE
  8
_0-2_body
  6
CONTINUOUS
 62
    7
 10
269.12248940579229
 20
-98.381399135328337
 11
269.19621444917664
 21
-98.845108987642902
  0
LINE
  8
_0-2_body
  6
CONTINUOUS
 62
    7
 10
250.56858316043076
 20
-109.8211832036489
 11
250.65264349027086
 21
-109.76606167588488
  0
LINE
  8
_0-2_body
  6
CONTINUOUS
 62
    7
 10
250.65264349027086
 20
-109.76606167588488
 11
250.73653156533669
 21
-109.71128465766941
  0
LINE
  8
_0-2_body
  6
CONTINUOUS
 62
    7
 10
250.90292967727427
 20
-109.60173062123852
 11
250.98785128098569
 21
-109.54798713166849
  0
LINE
  8
_0-2_body
  6
CONTINUOUS
 62
    7
 10
251.07053357263166
 20
-109.49321011345307
 11
251.15424939292325
 21
-109.43808858568912
  0
LINE
  8
_0-2_body
  6
CONTINUOUS
 62
    7
 10
251.15424939292325
 20
-109.43808858568912
 11
250.82713757659877
 21
-108.9344156257456
  0
LINE
  8
_0-2_body
  6
CONTINUOUS
 62
    7
 10
250.82713757659877
 20
-108.9344156257456
 11
250.76047497895919
 21
-108.78317593394314
  0
LINE
  8
_0-2_body
  6
CONTINUOUS
 62
    7
 10
250.76047497895919
 20
-108.78317593394314
 11
250.74669459701821
 21
-108.61677782200547
  0
LINE
  8
_0-2_body
  6
CONTINUOUS
 62
    7
 10
250.74669459701821
 20
-108.61677782200547
 11
250.78924152626104
 21
-108.45726990103839
  0
LINE
  8
_0-2_body
  6
CONTINUOUS
 62
    7
 10
250.78924152626104
 20
-108.45726990103839
 11
250.8812255757172
 21
-108.31912157208001
  0
LINE
  8
_0-2_body
  6
CONTINUOUS
 62
    7
 10
250.8812255757172
 20
-108.31912157208001
 11
250.97183158697925
 21
-108.24367398095296
  0
LINE
  8
_0-2_body
  6
CONTINUOUS
 62
    7
 10
250.97183158697925
 20
-108.24367398095296
 11
251.47360974440591
 21
-107.91501187166023
  0
LINE
  8
_0-2_body
  6
CONTINUOUS
 62
    7
 10
251.41969400006175
 20
-107.83232958001418
 11
251.36457247229774
 21
-107.74723572152851
  0
LINE
  8
_0-2_body
  6
CONTINUOUS
 62
    7
 10
251.25553520018957
 20
-107.5808376095909
 11
251.20024141765131
 21
-107.4967772797508
  0
LINE
  8
_0-2_body
  6
CONTINUOUS
 62
    7
 10
251.14649792808143
 20
-107.41271694991067
 11
251.09120414554317
 21
-107.32934563916774
  0
LINE
  8
_0-2_body
  6
CONTINUOUS
 62
    7
 10
251.09120414554317
 20
-107.32934563916774
 11
251.03608261777919
 21
-107.24562981887607
  0
LINE
  8
_0-2_body
  6
CONTINUOUS
 62
    7
 10
251.03608261777919
 20
-107.24562981887607
 11
250.53430446035253
 21
-107.57360290907189
  0
LINE
  8
_0-2_body
  6
CONTINUOUS
 62
    7
 10
250.53430446035253
 20
-107.57360290907189
 11
250.38168673035597
 21
-107.63905972329161
  0
LINE
  8
_0-2_body
  6
CONTINUOUS
 62
    7
 10
250.38168673035597
 20
-107.63905972329161
 11
250.21511636364414
 21
-107.65318461478114
  0
LINE
  8
_0-2_body
  6
CONTINUOUS
 62
    7
 10
250.21511636364414
 20
-107.65318461478114
 11
250.05405814970871
 21
-107.61046543076412
  0
LINE
  8
_0-2_body
  6
CONTINUOUS
 62
    7
 10
250.05405814970871
 20
-107.61046543076412
 11
249.91746011371856
 21
-107.51985941950198
  0
LINE
  8
_0-2_body
  6
CONTINUOUS
 62
    7
 10
249.91746011371856
 20
-107.51985941950198
 11
249.8418402678173
 21
-107.42821987959428
  0
LINE
  8
_0-2_body
  6
CONTINUOUS
 62
    7
 10
249.8418402678173
 20
-107.42821987959428
 11
249.51317815852448
 21
-106.9259249578449
  0
LINE
  8
_0-2_body
  6
CONTINUOUS
 62
    7
 10
249.430840376427
 20
-106.98001295696326
 11
249.3467800465869
 21
-107.03547899427593
  0
LINE
  8
_0-2_body
  6
CONTINUOUS
 62
    7
 10
249.3467800465869
 20
-107.03547899427593
 11
249.26306422629534
 21
-107.09060052203989
  0
LINE
  8
_0-2_body
  6
CONTINUOUS
 62
    7
 10
249.26306422629534
 20
-107.09060052203989
 11
249.17917615122951
 21
-107.14537754025534
  0
LINE
  8
_0-2_body
  6
CONTINUOUS
 62
    7
 10
249.17917615122951
 20
-107.14537754025534
 11
249.09546033093795
 21
-107.20084357756792
  0
LINE
  8
_0-2_body
  6
CONTINUOUS
 62
    7
 10
248.84500188916027
 20
-107.36379659402019
 11
249.17228596025902
 21
-107.86678053486668
  0
LINE
  8
_0-2_body
  6
CONTINUOUS
 62
    7
 10
249.17228596025902
 20
-107.86678053486668
 11
249.23912081267287
 21
-108.01836473621762
  0
LINE
  8
_0-2_body
  6
CONTINUOUS
 62
    7
 10
249.23912081267287
 20
-108.01836473621762
 11
249.25135090164548
 21
-108.18614088634928
  0
LINE
  8
_0-2_body
  6
CONTINUOUS
 62
    7
 10
249.25135090164548
 20
-108.18614088634928
 11
249.21035426537102
 21
-108.34564880731642
  0
LINE
  8
_0-2_body
  6
CONTINUOUS
 62
    7
 10
249.21035426537102
 20
-108.34564880731642
 11
249.11716443249503
 21
-108.48241909808081
  0
LINE
  8
_0-2_body
  6
CONTINUOUS
 62
    7
 10
249.11716443249503
 20
-108.48241909808081
 11
249.02776420465278
 21
-108.55821119875628
  0
LINE
  8
_0-2_body
  6
CONTINUOUS
 62
    7
 10
249.02776420465278
 20
-108.55821119875628
 11
248.64983722992088
 21
-108.80350199730606
  0
LINE
  8
_0-2_body
  6
CONTINUOUS
 62
    7
 10
248.64983722992088
 20
-108.80350199730606
 11
248.52460800903205
 21
-108.88618428895211
  0
LINE
  8
_0-2_body
  6
CONTINUOUS
 62
    7
 10
248.52460800903205
 20
-108.88618428895211
 11
248.57955728202177
 21
-108.97058912834069
  0
LINE
  8
_0-2_body
  6
CONTINUOUS
 62
    7
 10
248.57955728202177
 20
-108.97058912834069
 11
248.63467880978578
 21
-109.05430494863231
  0
LINE
  8
_0-2_body
  6
CONTINUOUS
 62
    7
 10
248.68876680890421
 20
-109.13664273072982
 11
248.74388833666819
 21
-109.22173658921542
  0
LINE
  8
_0-2_body
  6
CONTINUOUS
 62
    7
 10
248.79814859056088
 20
-109.30476339041002
 11
248.85309786355063
 21
-109.38951273934708
  0
LINE
  8
_0-2_body
  6
CONTINUOUS
 62
    7
 10
248.90821939131462
 20
-109.47219503099308
 11
248.96213513565877
 21
-109.5569443799302
  0
LINE
  8
_0-2_body
  6
CONTINUOUS
 62
    7
 10
248.96213513565877
 20
-109.5569443799302
 11
249.46494682173099
 21
-109.22828227063741
  0
LINE
  8
_0-2_body
  6
CONTINUOUS
 62
    7
 10
249.46494682173099
 20
-109.22828227063741
 11
249.61670327785626
 21
-109.16179192777207
  0
LINE
  8
_0-2_body
  6
CONTINUOUS
 62
    7
 10
249.61670327785626
 20
-109.16179192777207
 11
249.78310138979381
 21
-109.14835605537962
  0
LINE
  8
_0-2_body
  6
CONTINUOUS
 62
    7
 10
249.78310138979381
 20
-109.14835605537962
 11
249.94415960372925
 21
-109.19176425849372
  0
LINE
  8
_0-2_body
  6
CONTINUOUS
 62
    7
 10
249.94415960372925
 20
-109.19176425849372
 11
250.08196342313926
 21
-109.28271477930429
  0
LINE
  8
_0-2_body
  6
CONTINUOUS
 62
    7
 10
250.08196342313926
 20
-109.28271477930429
 11
250.15758326904046
 21
-109.37332079056637
  0
LINE
  8
_0-2_body
  6
CONTINUOUS
 62
    7
 10
250.15758326904046
 20
-109.37332079056637
 11
250.4848673401392
 21
-109.87492669321881
  0
LINE
  8
_0-2_body
  6
CONTINUOUS
 62
    7
 10
251.46310220317588
 20
-110.64111592913832
 11
250.77304957748035
 21
-110.96288784746071
  0
LINE
  8
_0-2_body
  6
CONTINUOUS
 62
    7
 10
250.77304957748035
 20
-110.96288784746071
 11
250.01977944963048
 21
-111.07657599847391
  0
LINE
  8
_0-2_body
  6
CONTINUOUS
 62
    7
 10
250.01977944963048
 20
-111.07657599847391
 11
249.26530353836077
 21
-110.97425666256203
  0
LINE
  8
_0-2_body
  6
CONTINUOUS
 62
    7
 10
249.26530353836077
 20
-110.97425666256203
 11
248.56956650511455
 21
-110.66316454024388
  0
LINE
  8
_0-2_body
  6
CONTINUOUS
 62
    7
 10
248.56956650511455
 20
-110.66316454024388
 11
247.99061820881832
 21
-110.16810431901348
  0
LINE
  8
_0-2_body
  6
CONTINUOUS
 62
    7
 10
247.99061820881832
 20
-110.16810431901348
 11
247.57376165510308
 21
-109.53076165424227
  0
LINE
  8
_0-2_body
  6
CONTINUOUS
 62
    7
 10
247.57376165510308
 20
-109.53076165424227
 11
247.35327554404711
 21
-108.80143494001487
  0
LINE
  8
_0-2_body
  6
CONTINUOUS
 62
    7
 10
247.35327554404711
 20
-108.80143494001487
 11
247.34862466514201
 21
-108.03903530912908
  0
LINE
  8
_0-2_body
  6
CONTINUOUS
 62
    7
 10
247.34862466514201
 20
-108.03903530912908
 11
247.55653617767683
 21
-107.30764153761064
  0
LINE
  8
_0-2_body
  6
CONTINUOUS
 62
    7
 10
247.55653617767683
 20
-107.30764153761064
 11
247.9640909735819
 21
-106.66306417232039
  0
LINE
  8
_0-2_body
  6
CONTINUOUS
 62
    7
 10
247.9640909735819
 20
-106.66306417232039
 11
248.53614907890761
 21
-106.1600802314739
  0
LINE
  8
_0-2_body
  6
CONTINUOUS
 62
    7
 10
248.53614907890761
 20
-106.1600802314739
 11
249.22637395937744
 21
-105.8389973322486
  0
LINE
  8
_0-2_body
  6
CONTINUOUS
 62
    7
 10
249.22637395937744
 20
-105.8389973322486
 11
249.97964408722731
 21
-105.72496467168679
  0
LINE
  8
_0-2_body
  6
CONTINUOUS
 62
    7
 10
249.97964408722731
 20
-105.72496467168679
 11
250.73429225327129
 21
-105.82728400759868
  0
LINE
  8
_0-2_body
  6
CONTINUOUS
 62
    7
 10
250.73429225327129
 20
-105.82728400759868
 11
251.4286512483234
 21
-106.13940965856241
  0
LINE
  8
_0-2_body
  6
CONTINUOUS
 62
    7
 10
251.4286512483234
 20
-106.13940965856241
 11
252.00897758281371
 21
-106.63309184159874
  0
LINE
  8
_0-2_body
  6
CONTINUOUS
 62
    7
 10
252.00897758281371
 20
-106.63309184159874
 11
252.42462835310911
 21
-107.27077901591838
  0
LINE
  8
_0-2_body
  6
CONTINUOUS
 62
    7
 10
252.42462835310911
 20
-107.27077901591838
 11
252.64580348326217
 21
-108.00010573014578
  0
LINE
  8
_0-2_body
  6
CONTINUOUS
 62
    7
 10
252.64580348326217
 20
-108.00010573014578
 11
252.650282107393
 21
-108.76147183238601
  0
LINE
  8
_0-2_body
  6
CONTINUOUS
 62
    7
 10
252.650282107393
 20
-108.76147183238601
 11
252.44202608530964
 21
-109.4942436420987
  0
LINE
  8
_0-2_body
  6
CONTINUOUS
 62
    7
 10
252.44202608530964
 20
-109.4942436420987
 11
252.03533256327589
 21
-110.13813198829189
  0
LINE
  8
_0-2_body
  6
CONTINUOUS
 62
    7
 10
252.03533256327589
 20
-110.13813198829189
 11
251.46310220317588
 21
-110.64111592913832
  0
LINE
  8
_0-2_body
  6
CONTINUOUS
 62
    7
 10
234.99899087916691
 20
-112.50146749117317
 11
234.29963649566119
 21
-111.80107957902197
  0
LINE
  8
_0-2_body
  6
CONTINUOUS
 62
    7
 10
265.70047606029362
 20
-111.80107957902197
 11
264.9999158933681
 21
-112.50146749117317
  0
LINE
  8
_0-2_body
  6
CONTINUOUS
 62
    7
 10
234.99899087916691
 20
-112.50146749117317
 11
235.58586289507923
 21
-112.90109856746221
  0
LINE
  8
_0-2_body
  6
CONTINUOUS
 62
    7
 10
235.58586289507923
 20
-112.90109856746221
 11
264.41424966087561
 21
-112.90109856746221
  0
LINE
  8
_0-2_body
  6
CONTINUOUS
 62
    7
 10
264.41424966087561
 20
-112.90109856746221
 11
264.9999158933681
 21
-112.50146749117317
  0
LINE
  8
_0-2_body
  6
CONTINUOUS
 62
    7
 10
357.2485486828059
 20
-82.551874399702342
 11
357.32434078348138
 21
-83.399712398622313
  0
LINE
  8
_0-2_body
  6
CONTINUOUS
 62
    7
 10
362.67577985549428
 20
-83.399712398622313
 11
362.74916038933009
 21
-82.551874399702342
  0
LINE
  8
_0-2_body
  6
CONTINUOUS
 62
    7
 10
357.32434078348138
 20
-83.399712398622313
 11
357.34725066845829
 21
-83.547162485390999
  0
LINE
  8
_0-2_body
  6
CONTINUOUS
 62
    7
 10
357.34725066845829
 20
-83.547162485390999
 11
357.39341494796071
 21
-83.689100419383294
  0
LINE
  8
_0-2_body
  6
CONTINUOUS
 62
    7
 10
357.39341494796071
 20
-83.689100419383294
 11
357.45990529082599
 21
-83.824492671953607
  0
LINE
  8
_0-2_body
  6
CONTINUOUS
 62
    7
 10
357.45990529082599
 20
-83.824492671953607
 11
357.54706620660278
 21
-83.946793561680039
  0
LINE
  8
_0-2_body
  6
CONTINUOUS
 62
    7
 10
357.54706620660278
 20
-83.946793561680039
 11
357.65041907116029
 21
-84.054280540819775
  0
LINE
  8
_0-2_body
  6
CONTINUOUS
 62
    7
 10
357.65041907116029
 20
-84.054280540819775
 11
357.76961937495003
 21
-84.146264590275933
  0
LINE
  8
_0-2_body
  6
CONTINUOUS
 62
    7
 10
357.76961937495003
 20
-84.146264590275933
 11
357.89846594609833
 21
-84.220334143208788
  0
LINE
  8
_0-2_body
  6
CONTINUOUS
 62
    7
 10
357.89846594609833
 20
-84.220334143208788
 11
358.03868133234801
 21
-84.272699594584594
  0
LINE
  8
_0-2_body
  6
CONTINUOUS
 62
    7
 10
361.95919999456231
 20
-84.272699594584594
 11
362.09907087126339
 21
-84.220334143208788
  0
LINE
  8
_0-2_body
  6
CONTINUOUS
 62
    7
 10
362.09907087126339
 20
-84.220334143208788
 11
362.23015675447721
 21
-84.146264590275933
  0
LINE
  8
_0-2_body
  6
CONTINUOUS
 62
    7
 10
362.23015675447721
 20
-84.146264590275933
 11
362.3472900009757
 21
-84.054280540819775
  0
LINE
  8
_0-2_body
  6
CONTINUOUS
 62
    7
 10
362.3472900009757
 20
-84.054280540819775
 11
362.45288217759861
 21
-83.946793561680039
  0
LINE
  8
_0-2_body
  6
CONTINUOUS
 62
    7
 10
362.45288217759861
 20
-83.946793561680039
 11
362.53780378131
 21
-83.824492671953607
  0
LINE
  8
_0-2_body
  6
CONTINUOUS
 62
    7
 10
362.53780378131
 20
-83.824492671953607
 11
362.60429412417534
 21
-83.689100419383294
  0
LINE
  8
_0-2_body
  6
CONTINUOUS
 62
    7
 10
362.60429412417534
 20
-83.689100419383294
 11
362.6504584036777
 21
-83.547162485390999
  0
LINE
  8
_0-2_body
  6
CONTINUOUS
 62
    7
 10
362.6504584036777
 20
-83.547162485390999
 11
362.67577985549428
 21
-83.399712398622313
  0
LINE
  8
_0-2_body
  6
CONTINUOUS
 62
    7
 10
360.8267971085607
 20
-84.502487463450791
 11
360.96925180687572
 21
-84.484917476475999
  0
LINE
  8
_0-2_body
  6
CONTINUOUS
 62
    7
 10
360.96925180687572
 20
-84.484917476475999
 11
361.1117065051908
 21
-84.463213374918894
  0
LINE
  8
_0-2_body
  6
CONTINUOUS
 62
    7
 10
361.1117065051908
 20
-84.463213374918894
 11
361.2565727703456
 21
-84.438408687425095
  0
LINE
  8
_0-2_body
  6
CONTINUOUS
 62
    7
 10
361.2565727703456
 20
-84.438408687425095
 11
361.39627139227252
 21
-84.410847923543088
  0
LINE
  8
_0-2_body
  6
CONTINUOUS
 62
    7
 10
361.39627139227252
 20
-84.410847923543088
 11
361.53872609058749
 21
-84.381220102370008
  0
LINE
  8
_0-2_body
  6
CONTINUOUS
 62
    7
 10
361.53872609058749
 20
-84.381220102370008
 11
361.67911373161149
 21
-84.348491695260094
  0
LINE
  8
_0-2_body
  6
CONTINUOUS
 62
    7
 10
361.67911373161149
 20
-84.348491695260094
 11
361.81898460831258
 21
-84.311629173567923
  0
LINE
  8
_0-2_body
  6
CONTINUOUS
 62
    7
 10
361.81898460831258
 20
-84.311629173567923
 11
361.95919999456231
 21
-84.272699594584594
  0
LINE
  8
_0-2_body
  6
CONTINUOUS
 62
    7
 10
358.03868133234801
 20
-84.272699594584594
 11
358.17872446382341
 21
-84.311629173567923
  0
LINE
  8
_0-2_body
  6
CONTINUOUS
 62
    7
 10
358.17872446382341
 20
-84.311629173567923
 11
358.31876759529882
 21
-84.347802676163099
  0
LINE
  8
_0-2_body
  6
CONTINUOUS
 62
    7
 10
358.31876759529882
 20
-84.347802676163099
 11
358.45898298154839
 21
-84.381220102370008
  0
LINE
  8
_0-2_body
  6
CONTINUOUS
 62
    7
 10
358.45898298154839
 20
-84.381220102370008
 11
358.59902611302391
 21
-84.410847923543088
  0
LINE
  8
_0-2_body
  6
CONTINUOUS
 62
    7
 10
358.59902611302391
 20
-84.410847923543088
 11
358.74130855656472
 21
-84.438408687425095
  0
LINE
  8
_0-2_body
  6
CONTINUOUS
 62
    7
 10
358.74130855656472
 20
-84.438408687425095
 11
358.88135168804013
 21
-84.463213374918894
  0
LINE
  8
_0-2_body
  6
CONTINUOUS
 62
    7
 10
358.88135168804013
 20
-84.463213374918894
 11
359.0238063863552
 21
-84.48422845737889
  0
LINE
  8
_0-2_body
  6
CONTINUOUS
 62
    7
 10
359.0238063863552
 20
-84.48422845737889
 11
359.16850039673568
 21
-84.502487463450791
  0
LINE
  8
_0-2_body
  6
CONTINUOUS
 62
    7
 10
361.49962425682997
 20
-81.351603132641287
 11
361.49962425682997
 21
-78.550051484036118
  0
LINE
  8
_0-2_body
  6
CONTINUOUS
 62
    7
 10
361.49962425682997
 20
-77.351158255169196
 11
361.49962425682997
 21
-74.550295625661136
  0
LINE
  8
_0-2_body
  6
CONTINUOUS
 62
    7
 10
358.5001518725972
 20
-74.550295625661136
 11
358.5001518725972
 21
-77.351158255169196
  0
LINE
  8
_0-2_body
  6
CONTINUOUS
 62
    7
 10
358.5001518725972
 20
-78.550051484036118
 11
358.5001518725972
 21
-81.351603132641287
  0
LINE
  8
_0-2_body
  6
CONTINUOUS
 62
    7
 10
359.25359425522129
 20
-84.507310597130072
 11
359.25359425522129
 21
-84.390177350631632
  0
LINE
  8
_0-2_body
  6
CONTINUOUS
 62
    7
 10
377.00048688316309
 20
22.010563182664015
 11
375.67068002585671
 21
22.010563182664015
  0
LINE
  8
_0-2_body
  6
CONTINUOUS
 62
    7
 10
377.00048688316309
 20
22.836524825252695
 11
377.00048688316309
 21
22.712329133009405
  0
LINE
  8
_0-2_body
  6
CONTINUOUS
 62
    7
 10
377.00048688316309
 20
22.712329133009405
 11
377.00048688316309
 21
22.560744931658405
  0
LINE
  8
_0-2_body
  6
CONTINUOUS
 62
    7
 10
377.00048688316309
 20
22.560744931658405
 11
377.00048688316309
 21
22.389523686041514
  0
LINE
  8
_0-2_body
  6
CONTINUOUS
 62
    7
 10
377.00048688316309
 20
22.389523686041514
 11
377.00048688316309
 21
22.205038822806387
  0
LINE
  8
_0-2_body
  6
CONTINUOUS
 62
    7
 10
377.00048688316309
 20
22.205038822806387
 11
377.00048688316309
 21
22.010563182664015
  0
LINE
  8
_0-2_body
  6
CONTINUOUS
 62
    7
 10
375.67068002585671
 20
15.349643316707727
 11
377.00048688316309
 21
15.349643316707727
  0
LINE
  8
_0-2_body
  6
CONTINUOUS
 62
    7
 10
375.67068002585671
 20
22.010563182664015
 11
375.67068002585671
 21
15.349643316707727
  0
LINE
  8
_0-2_body
  6
CONTINUOUS
 62
    7
 10
377.00048688316309
 20
15.349643316707727
 11
377.00048688316309
 21
22.010563182664015
  0
LINE
  8
_0-2_body
  6
CONTINUOUS
 62
    7
 10
377.00048688316309
 20
15.349643316707727
 11
377.00048688316309
 21
15.156545714759488
  0
LINE
  8
_0-2_body
  6
CONTINUOUS
 62
    7
 10
377.00048688316309
 20
15.156545714759488
 11
377.00048688316309
 21
14.970510558555986
  0
LINE
  8
_0-2_body
  6
CONTINUOUS
 62
    7
 10
377.00048688316309
 20
14.970510558555986
 11
377.00048688316309
 21
14.798083529519204
  0
LINE
  8
_0-2_body
  6
CONTINUOUS
 62
    7
 10
377.00048688316309
 20
14.798083529519204
 11
377.00048688316309
 21
14.648910895007901
  0
LINE
  8
_0-2_body
  6
CONTINUOUS
 62
    7
 10
377.00048688316309
 20
14.648910895007901
 11
377.00048688316309
 21
14.523853928893288
  0
LINE
  8
_0-2_body
  6
CONTINUOUS
 62
    7
 10
342.99963375581262
 20
14.523853928893288
 11
342.99963375581262
 21
14.648910895007901
  0
LINE
  8
_0-2_body
  6
CONTINUOUS
 62
    7
 10
342.99963375581262
 20
14.648910895007901
 11
342.99963375581262
 21
14.798083529519204
  0
LINE
  8
_0-2_body
  6
CONTINUOUS
 62
    7
 10
342.99963375581262
 20
14.798083529519204
 11
342.99963375581262
 21
14.970510558555986
  0
LINE
  8
_0-2_body
  6
CONTINUOUS
 62
    7
 10
342.99963375581262
 20
14.970510558555986
 11
342.99963375581262
 21
15.156545714759488
  0
LINE
  8
_0-2_body
  6
CONTINUOUS
 62
    7
 10
342.99963375581262
 20
15.156545714759488
 11
342.99963375581262
 21
15.349643316707727
  0
LINE
  8
_0-2_body
  6
CONTINUOUS
 62
    7
 10
342.99963375581262
 20
15.349643316707727
 11
344.329440613119
 21
15.349643316707727
  0
LINE
  8
_0-2_body
  6
CONTINUOUS
 62
    7
 10
344.329440613119
 20
22.010563182664015
 11
342.99963375581262
 21
22.010563182664015
  0
LINE
  8
_0-2_body
  6
CONTINUOUS
 62
    7
 10
342.99963375581262
 20
22.010563182664015
 11
342.99963375581262
 21
22.205038822806387
  0
LINE
  8
_0-2_body
  6
CONTINUOUS
 62
    7
 10
342.99963375581262
 20
22.205038822806387
 11
342.99963375581262
 21
22.389523686041514
  0
LINE
  8
_0-2_body
  6
CONTINUOUS
 62
    7
 10
342.99963375581262
 20
22.389523686041514
 11
342.99963375581262
 21
22.560744931658405
  0
LINE
  8
_0-2_body
  6
CONTINUOUS
 62
    7
 10
342.99963375581262
 20
22.560744931658405
 11
342.99963375581262
 21
22.712329133009405
  0
LINE
  8
_0-2_body
  6
CONTINUOUS
 62
    7
 10
342.99963375581262
 20
22.712329133009405
 11
342.99963375581262
 21
22.836524825252695
  0
LINE
  8
_0-2_body
  6
CONTINUOUS
 62
    7
 10
344.329440613119
 20
15.349643316707727
 11
344.329440613119
 21
22.010563182664015
  0
LINE
  8
_0-2_body
  6
CONTINUOUS
 62
    7
 10
342.99963375581262
 20
15.349643316707727
 11
342.99963375581262
 21
22.010563182664015
  0
LINE
  8
_0-2_body
  6
CONTINUOUS
 62
    7
 10
364.40056691018458
 20
-77.351158255169196
 11
355.59955372879108
 21
-77.351158255169196
  0
LINE
  8
_0-2_body
  6
CONTINUOUS
 62
    7
 10
364.40056691018458
 20
-83.433474334377792
 11
364.40056691018458
 21
-77.351158255169196
  0
LINE
  8
_0-2_body
  6
CONTINUOUS
 62
    7
 10
373.44979922129028
 20
-82.577368106293193
 11
372.32428652625919
 21
-82.731019364935293
  0
LINE
  8
_0-2_body
  6
CONTINUOUS
 62
    7
 10
372.32428652625919
 20
-82.731019364935293
 11
371.19446746187151
 21
-82.872612789379104
  0
LINE
  8
_0-2_body
  6
CONTINUOUS
 62
    7
 10
371.19446746187151
 20
-82.872612789379104
 11
370.06413163316108
 21
-83.000081322333273
  0
LINE
  8
_0-2_body
  6
CONTINUOUS
 62
    7
 10
370.06413163316108
 20
-83.000081322333273
 11
368.93448482354756
 21
-83.113769473346593
  0
LINE
  8
_0-2_body
  6
CONTINUOUS
 62
    7
 10
368.93448482354756
 20
-83.113769473346593
 11
367.80208193754601
 21
-83.214021751967437
  0
LINE
  8
_0-2_body
  6
CONTINUOUS
 62
    7
 10
367.80208193754601
 20
-83.214021751967437
 11
366.66985130631872
 21
-83.300493648647119
  0
LINE
  8
_0-2_body
  6
CONTINUOUS
 62
    7
 10
366.66985130631872
 20
-83.300493648647119
 11
365.53520910825159
 21
-83.374907711128486
  0
LINE
  8
_0-2_body
  6
CONTINUOUS
 62
    7
 10
365.53520910825159
 20
-83.374907711128486
 11
364.40056691018458
 21
-83.433474334377792
  0
LINE
  8
_0-2_body
  6
CONTINUOUS
 62
    7
 10
373.44979922129028
 20
-77.551318302862228
 11
373.44979922129028
 21
-82.577368106293193
  0
LINE
  8
_0-2_body
  6
CONTINUOUS
 62
    7
 10
374.44887691201279
 20
-77.551318302862228
 11
373.44979922129028
 21
-77.551318302862228
  0
LINE
  8
_0-2_body
  6
CONTINUOUS
 62
    7
 10
374.44887691201279
 20
-82.429229000427398
 11
374.44887691201279
 21
-77.551318302862228
  0
LINE
  8
_0-2_body
  6
CONTINUOUS
 62
    7
 10
377.18204341523574
 20
-81.968275224501014
 11
376.83977317877623
 21
-82.030631452784007
  0
LINE
  8
_0-2_body
  6
CONTINUOUS
 62
    7
 10
376.83977317877623
 20
-82.030631452784007
 11
376.49991450915633
 21
-82.090576114227417
  0
LINE
  8
_0-2_body
  6
CONTINUOUS
 62
    7
 10
376.49991450915633
 20
-82.090576114227417
 11
376.15747201792249
 21
-82.149831756573718
  0
LINE
  8
_0-2_body
  6
CONTINUOUS
 62
    7
 10
376.15747201792249
 20
-82.149831756573718
 11
375.81761334830259
 21
-82.20839837982291
  0
LINE
  8
_0-2_body
  6
CONTINUOUS
 62
    7
 10
375.81761334830259
 20
-82.20839837982291
 11
375.47551536661717
 21
-82.26455343623249
  0
LINE
  8
_0-2_body
  6
CONTINUOUS
 62
    7
 10
375.47551536661717
 20
-82.26455343623249
 11
375.13324513015766
 21
-82.322086530836089
  0
LINE
  8
_0-2_body
  6
CONTINUOUS
 62
    7
 10
375.13324513015766
 20
-82.322086530836089
 11
374.79114714847242
 21
-82.375485510857487
  0
LINE
  8
_0-2_body
  6
CONTINUOUS
 62
    7
 10
374.79114714847242
 20
-82.375485510857487
 11
374.44887691201279
 21
-82.429229000427398
  0
LINE
  8
_0-2_body
  6
CONTINUOUS
 62
    7
 10
377.18204341523574
 20
-81.968275224501014
 11
377.49416906619939
 21
-81.853898054390697
  0
LINE
  8
_0-2_body
  6
CONTINUOUS
 62
    7
 10
377.49416906619939
 20
-81.853898054390697
 11
377.75151769894751
 21
-81.642369191596401
  0
LINE
  8
_0-2_body
  6
CONTINUOUS
 62
    7
 10
377.75151769894751
 20
-81.642369191596401
 11
377.92377247321008
 21
-81.357804304514701
  0
LINE
  8
_0-2_body
  6
CONTINUOUS
 62
    7
 10
377.92377247321008
 20
-81.357804304514701
 11
377.99491369498054
 21
-81.028797685673396
  0
LINE
  8
_0-2_body
  6
CONTINUOUS
 62
    7
 10
377.99491369498054
 20
-80.98401144436508
 11
377.99491369498054
 21
-52.544403704079173
  0
LINE
  8
_0-2_body
  6
CONTINUOUS
 62
    7
 10
377.29917666173424
 20
-52.544403704079173
 11
377.99491369498054
 21
-52.544403704079173
  0
LINE
  8
_0-2_body
  6
CONTINUOUS
 62
    7
 10
377.29917666173424
 20
-50.542803227148994
 11
377.29917666173424
 21
-52.544403704079173
  0
LINE
  8
_0-2_body
  6
CONTINUOUS
 62
    7
 10
377.99491369498054
 20
-50.542803227148994
 11
377.29917666173424
 21
-50.542803227148994
  0
LINE
  8
_0-2_body
  6
CONTINUOUS
 62
    7
 10
377.99491369498054
 20
-50.542803227148994
 11
377.99491369498054
 21
67.488062900027302
  0
LINE
  8
_0-2_body
  6
CONTINUOUS
 62
    7
 10
377.29917666173424
 20
67.488062900027302
 11
377.99491369498054
 21
67.488062900027302
  0
LINE
  8
_0-2_body
  6
CONTINUOUS
 62
    7
 10
377.29917666173424
 20
69.4889743578604
 11
377.29917666173424
 21
67.488062900027302
  0
LINE
  8
_0-2_body
  6
CONTINUOUS
 62
    7
 10
377.99491369498054
 20
69.4889743578604
 11
377.29917666173424
 21
69.4889743578604
  0
LINE
  8
_0-2_body
  6
CONTINUOUS
 62
    7
 10
377.99491369498054
 20
69.4889743578604
 11
377.99491369498054
 21
103.93045519777434
  0
LINE
  8
_0-2_body
  6
CONTINUOUS
 62
    7
 10
377.99491369498054
 20
103.93045519777434
 11
377.93996442199068
 21
104.26376818597225
  0
LINE
  8
_0-2_body
  6
CONTINUOUS
 62
    7
 10
377.93996442199068
 20
104.26376818597225
 11
377.77477209347296
 21
104.56004639770374
  0
LINE
  8
_0-2_body
  6
CONTINUOUS
 62
    7
 10
377.77477209347296
 20
104.56004639770374
 11
377.5241413969211
 21
104.7829440755994
  0
LINE
  8
_0-2_body
  6
CONTINUOUS
 62
    7
 10
377.5241413969211
 20
104.7829440755994
 11
377.18204341523574
 21
104.91402995881316
  0
LINE
  8
_0-2_body
  6
CONTINUOUS
 62
    7
 10
342.81807722373992
 20
104.91402995881316
 11
347.08086612241379
 21
105.5985704317323
  0
LINE
  8
_0-2_body
  6
CONTINUOUS
 62
    7
 10
347.08086612241379
 20
105.5985704317323
 11
351.37362735180943
 21
106.08915202883188
  0
LINE
  8
_0-2_body
  6
CONTINUOUS
 62
    7
 10
351.37362735180943
 20
106.08915202883188
 11
355.68223602043713
 21
106.38422445714352
  0
LINE
  8
_0-2_body
  6
CONTINUOUS
 62
    7
 10
355.68223602043713
 20
106.38422445714352
 11
359.99997419210069
 21
106.48189291415036
  0
LINE
  8
_0-2_body
  6
CONTINUOUS
 62
    7
 10
359.99997419210069
 20
106.48189291415036
 11
364.31805687331291
 21
106.38422445714352
  0
LINE
  8
_0-2_body
  6
CONTINUOUS
 62
    7
 10
364.31805687331291
 20
106.38422445714352
 11
368.62666554194061
 21
106.08915202883188
  0
LINE
  8
_0-2_body
  6
CONTINUOUS
 62
    7
 10
368.62666554194061
 20
106.08915202883188
 11
372.91701520449641
 21
105.5985704317323
  0
LINE
  8
_0-2_body
  6
CONTINUOUS
 62
    7
 10
372.91701520449641
 20
105.5985704317323
 11
377.18204341523574
 21
104.91402995881316
  0
LINE
  8
_0-2_body
  6
CONTINUOUS
 62
    7
 10
342.81807722373992
 20
104.91402995881316
 11
342.505779318002
 21
104.8003418077999
  0
LINE
  8
_0-2_body
  6
CONTINUOUS
 62
    7
 10
342.505779318002
 20
104.8003418077999
 11
342.24843068525388
 21
104.58881294500557
  0
LINE
  8
_0-2_body
  6
CONTINUOUS
 62
    7
 10
342.24843068525388
 20
104.58881294500557
 11
342.07393659892602
 21
104.30407580314967
  0
LINE
  8
_0-2_body
  6
CONTINUOUS
 62
    7
 10
342.07393659892602
 20
104.30407580314967
 11
342.00486243444669
 21
103.97661947727667
  0
LINE
  8
_0-2_body
  6
CONTINUOUS
 62
    7
 10
342.00279537715562
 20
103.93045519777434
 11
342.00279537715562
 21
69.4889743578604
  0
LINE
  8
_0-2_body
  6
CONTINUOUS
 62
    7
 10
342.69870466517602
 20
69.4889743578604
 11
342.00279537715562
 21
69.4889743578604
  0
LINE
  8
_0-2_body
  6
CONTINUOUS
 62
    7
 10
342.69870466517602
 20
67.488062900027302
 11
342.69870466517602
 21
69.4889743578604
  0
LINE
  8
_0-2_body
  6
CONTINUOUS
 62
    7
 10
342.00279537715562
 20
67.488062900027302
 11
342.69870466517602
 21
67.488062900027302
  0
LINE
  8
_0-2_body
  6
CONTINUOUS
 62
    7
 10
342.00279537715562
 20
67.488062900027302
 11
342.00279537715562
 21
-50.542803227148994
  0
LINE
  8
_0-2_body
  6
CONTINUOUS
 62
    7
 10
342.69870466517602
 20
-50.542803227148994
 11
342.00279537715562
 21
-50.542803227148994
  0
LINE
  8
_0-2_body
  6
CONTINUOUS
 62
    7
 10
342.69870466517602
 20
-52.544403704079173
 11
342.69870466517602
 21
-50.542803227148994
  0
LINE
  8
_0-2_body
  6
CONTINUOUS
 62
    7
 10
342.00279537715562
 20
-52.544403704079173
 11
342.69870466517602
 21
-52.544403704079173
  0
LINE
  8
_0-2_body
  6
CONTINUOUS
 62
    7
 10
342.00279537715562
 20
-52.544403704079173
 11
342.00279537715562
 21
-80.98401144436508
  0
LINE
  8
_0-2_body
  6
CONTINUOUS
 62
    7
 10
342.00279537715562
 20
-80.98401144436508
 11
342.06032847175919
 21
-81.317152177788813
  0
LINE
  8
_0-2_body
  6
CONTINUOUS
 62
    7
 10
342.06032847175919
 20
-81.317152177788813
 11
342.2231092334373
 21
-81.612396860874668
  0
LINE
  8
_0-2_body
  6
CONTINUOUS
 62
    7
 10
342.2231092334373
 20
-81.612396860874668
 11
342.47356767521501
 21
-81.834950029221801
  0
LINE
  8
_0-2_body
  6
CONTINUOUS
 62
    7
 10
342.47356767521501
 20
-81.834950029221801
 11
342.81807722373992
 21
-81.968275224501014
  0
LINE
  8
_0-2_body
  6
CONTINUOUS
 62
    7
 10
345.5488321601232
 20
-82.429229000427398
 11
345.2067341784379
 21
-82.375485510857487
  0
LINE
  8
_0-2_body
  6
CONTINUOUS
 62
    7
 10
345.2067341784379
 20
-82.375485510857487
 11
344.86446394197833
 21
-82.322086530836089
  0
LINE
  8
_0-2_body
  6
CONTINUOUS
 62
    7
 10
344.86446394197833
 20
-82.322086530836089
 11
344.52219370551882
 21
-82.26455343623249
  0
LINE
  8
_0-2_body
  6
CONTINUOUS
 62
    7
 10
344.52219370551882
 20
-82.26455343623249
 11
344.18233503589886
 21
-82.20839837982291
  0
LINE
  8
_0-2_body
  6
CONTINUOUS
 62
    7
 10
344.18233503589886
 20
-82.20839837982291
 11
343.83989254466496
 21
-82.149831756573718
  0
LINE
  8
_0-2_body
  6
CONTINUOUS
 62
    7
 10
343.83989254466496
 20
-82.149831756573718
 11
343.50020612981939
 21
-82.090576114227417
  0
LINE
  8
_0-2_body
  6
CONTINUOUS
 62
    7
 10
343.50020612981939
 20
-82.090576114227417
 11
343.15793589335976
 21
-82.030631452784007
  0
LINE
  8
_0-2_body
  6
CONTINUOUS
 62
    7
 10
343.15793589335976
 20
-82.030631452784007
 11
342.81807722373992
 21
-81.968275224501014
  0
LINE
  8
_0-2_body
  6
CONTINUOUS
 62
    7
 10
345.5488321601232
 20
-77.551318302862228
 11
345.5488321601232
 21
-82.429229000427398
  0
LINE
  8
_0-2_body
  6
CONTINUOUS
 62
    7
 10
346.54790985084571
 20
-77.551318302862228
 11
345.5488321601232
 21
-77.551318302862228
  0
LINE
  8
_0-2_body
  6
CONTINUOUS
 62
    7
 10
346.54790985084571
 20
-82.577368106293193
 11
346.54790985084571
 21
-77.551318302862228
  0
LINE
  8
_0-2_body
  6
CONTINUOUS
 62
    7
 10
355.59955372879108
 20
-83.433474334377792
 11
354.4647392759498
 21
-83.374907711128486
  0
LINE
  8
_0-2_body
  6
CONTINUOUS
 62
    7
 10
354.4647392759498
 20
-83.374907711128486
 11
353.330269332657
 21
-83.300493648647119
  0
LINE
  8
_0-2_body
  6
CONTINUOUS
 62
    7
 10
353.330269332657
 20
-83.300493648647119
 11
352.19579938936431
 21
-83.214021751967437
  0
LINE
  8
_0-2_body
  6
CONTINUOUS
 62
    7
 10
352.19579938936431
 20
-83.214021751967437
 11
351.06322424858843
 21
-83.113769473346593
  0
LINE
  8
_0-2_body
  6
CONTINUOUS
 62
    7
 10
351.06322424858843
 20
-83.113769473346593
 11
349.93340518420069
 21
-83.000081322333273
  0
LINE
  8
_0-2_body
  6
CONTINUOUS
 62
    7
 10
349.93340518420069
 20
-83.000081322333273
 11
348.80324161026454
 21
-82.872612789379104
  0
LINE
  8
_0-2_body
  6
CONTINUOUS
 62
    7
 10
348.80324161026454
 20
-82.872612789379104
 11
347.67548960316788
 21
-82.731019364935293
  0
LINE
  8
_0-2_body
  6
CONTINUOUS
 62
    7
 10
347.67548960316788
 20
-82.731019364935293
 11
346.54790985084571
 21
-82.577368106293193
  0
LINE
  8
_0-2_body
  6
CONTINUOUS
 62
    7
 10
355.59955372879108
 20
-77.351158255169196
 11
355.59955372879108
 21
-83.433474334377792
  0
LINE
  8
_0-2_body
  6
CONTINUOUS
 62
    7
 10
363.19943436925223
 20
-78.550051484036118
 11
356.79844695765803
 21
-78.550051484036118
  0
LINE
  8
_0-2_body
  6
CONTINUOUS
 62
    7
 10
356.79844695765803
 20
-78.550051484036118
 11
356.79844695765803
 21
-81.351603132641287
  0
LINE
  8
_0-2_body
  6
CONTINUOUS
 62
    7
 10
356.79844695765803
 20
-81.351603132641287
 11
363.19943436925223
 21
-81.351603132641287
  0
LINE
  8
_0-2_body
  6
CONTINUOUS
 62
    7
 10
363.19943436925223
 20
-81.351603132641287
 11
363.19943436925223
 21
-78.550051484036118
  0
LINE
  8
_0-2_body
  6
CONTINUOUS
 62
    7
 10
339.99998911680564
 20
-80.999169864500203
 11
340.16759301216302
 21
-81.99824755522269
  0
LINE
  8
_0-2_body
  6
CONTINUOUS
 62
    7
 10
340.16759301216302
 20
-81.99824755522269
 11
340.66144744997354
 21
-82.885359642674501
  0
LINE
  8
_0-2_body
  6
CONTINUOUS
 62
    7
 10
340.66144744997354
 20
-82.885359642674501
 11
341.41471757782341
 21
-83.553708166812982
  0
LINE
  8
_0-2_body
  6
CONTINUOUS
 62
    7
 10
341.41471757782341
 20
-83.553708166812982
 11
342.44135603242779
 21
-83.949894147616703
  0
LINE
  8
_0-2_body
  6
CONTINUOUS
 62
    7
 10
339.99998911680564
 20
103.94699165610353
 11
339.99998911680564
 21
-80.999169864500203
  0
LINE
  8
_0-2_body
  6
CONTINUOUS
 62
    7
 10
342.44135603242779
 20
106.89651015580017
 11
341.5044623152142
 21
106.5542399193406
  0
LINE
  8
_0-2_body
  6
CONTINUOUS
 62
    7
 10
341.5044623152142
 20
106.5542399193406
 11
340.73276092651821
 21
105.92017009528037
  0
LINE
  8
_0-2_body
  6
CONTINUOUS
 62
    7
 10
340.73276092651821
 20
105.92017009528037
 11
340.21358503689112
 21
105.06544190538989
  0
LINE
  8
_0-2_body
  6
CONTINUOUS
 62
    7
 10
340.21358503689112
 20
105.06544190538989
 11
340.00222842887104
 21
104.08238390867385
  0
LINE
  8
_0-2_body
  6
CONTINUOUS
 62
    7
 10
340.00222842887104
 20
104.08238390867385
 11
339.99998911680564
 21
103.94699165610353
  0
LINE
  8
_0-2_body
  6
CONTINUOUS
 62
    7
 10
342.44135603242779
 20
106.89651015580017
 11
346.80060760468871
 21
107.5972425775
  0
LINE
  8
_0-2_body
  6
CONTINUOUS
 62
    7
 10
346.80060760468871
 20
107.5972425775
 11
351.1851806287662
 21
108.09815946105532
  0
LINE
  8
_0-2_body
  6
CONTINUOUS
 62
    7
 10
351.1851806287662
 20
108.09815946105532
 11
355.58784040414116
 21
108.39891629691763
  0
LINE
  8
_0-2_body
  6
CONTINUOUS
 62
    7
 10
355.58784040414116
 20
108.39891629691763
 11
359.99997419210069
 21
108.50002984940971
  0
LINE
  8
_0-2_body
  6
CONTINUOUS
 62
    7
 10
359.99997419210069
 20
108.50002984940971
 11
364.41210798006023
 21
108.39891629691763
  0
LINE
  8
_0-2_body
  6
CONTINUOUS
 62
    7
 10
364.41210798006023
 20
108.39891629691763
 11
368.81511226498367
 21
108.09815946105532
  0
LINE
  8
_0-2_body
  6
CONTINUOUS
 62
    7
 10
368.81511226498367
 20
108.09815946105532
 11
373.19934077951268
 21
107.5972425775
  0
LINE
  8
_0-2_body
  6
CONTINUOUS
 62
    7
 10
373.19934077951268
 20
107.5972425775
 11
377.55618078493387
 21
106.89651015580017
  0
LINE
  8
_0-2_body
  6
CONTINUOUS
 62
    7
 10
379.99995926739587
 20
103.94699165610353
 11
379.82977155042454
 21
104.94606934682599
  0
LINE
  8
_0-2_body
  6
CONTINUOUS
 62
    7
 10
379.82977155042454
 20
104.94606934682599
 11
379.33850093422791
 21
105.83163114130946
  0
LINE
  8
_0-2_body
  6
CONTINUOUS
 62
    7
 10
379.33850093422791
 20
105.83163114130946
 11
378.58523080637804
 21
106.50015192022218
  0
LINE
  8
_0-2_body
  6
CONTINUOUS
 62
    7
 10
378.58523080637804
 20
106.50015192022218
 11
377.55618078493387
 21
106.89651015580017
  0
LINE
  8
_0-2_body
  6
CONTINUOUS
 62
    7
 10
379.99995926739587
 20
-80.999169864500203
 11
379.99995926739587
 21
103.94699165610353
  0
LINE
  8
_0-2_body
  6
CONTINUOUS
 62
    7
 10
377.55618078493387
 20
-83.949894147616703
 11
378.49341901169612
 21
-83.606762637285783
  0
LINE
  8
_0-2_body
  6
CONTINUOUS
 62
    7
 10
378.49341901169612
 20
-83.606762637285783
 11
379.26512040039199
 21
-82.972520558451293
  0
LINE
  8
_0-2_body
  6
CONTINUOUS
 62
    7
 10
379.26512040039199
 20
-82.972520558451293
 11
379.78412403524499
 21
-82.118136878109397
  0
LINE
  8
_0-2_body
  6
CONTINUOUS
 62
    7
 10
379.78412403524499
 20
-82.118136878109397
 11
379.99565289803928
 21
-81.135595645716108
  0
LINE
  8
_0-2_body
  6
CONTINUOUS
 62
    7
 10
379.99565289803928
 20
-81.135595645716108
 11
379.99995926739587
 21
-80.999169864500203
  0
LINE
  8
_0-2_body
  6
CONTINUOUS
 62
    7
 10
377.55618078493387
 20
-83.949894147616703
 11
375.77644445725377
 21
-84.261330779483302
  0
LINE
  8
_0-2_body
  6
CONTINUOUS
 62
    7
 10
375.77644445725377
 20
-84.261330779483302
 11
373.99171274112007
 21
-84.538316456497398
  0
LINE
  8
_0-2_body
  6
CONTINUOUS
 62
    7
 10
373.99171274112007
 20
-84.538316456497398
 11
372.20043534356449
 21
-84.782918235950092
  0
LINE
  8
_0-2_body
  6
CONTINUOUS
 62
    7
 10
372.20043534356449
 20
-84.782918235950092
 11
370.40640186962059
 21
-84.991691022356292
  0
LINE
  8
_0-2_body
  6
CONTINUOUS
 62
    7
 10
370.40640186962059
 20
-84.991691022356292
 11
368.6082342810945
 21
-85.169802458943707
  0
LINE
  8
_0-2_body
  6
CONTINUOUS
 62
    7
 10
368.6082342810945
 20
-85.169802458943707
 11
366.80765512572862
 21
-85.313462940678562
  0
LINE
  8
_0-2_body
  6
CONTINUOUS
 62
    7
 10
366.80765512572862
 20
-85.313462940678562
 11
365.00466440352318
 21
-85.423705996206593
  0
LINE
  8
_0-2_body
  6
CONTINUOUS
 62
    7
 10
365.00466440352318
 20
-85.423705996206593
 11
363.19943436925223
 21
-85.499842606430605
  0
LINE
  8
_0-2_body
  6
CONTINUOUS
 62
    7
 10
363.19943436925223
 20
-85.499842606430605
 11
363.19943436925223
 21
-82.551874399702342
  0
LINE
  8
_0-2_body
  6
CONTINUOUS
 62
    7
 10
356.79844695765803
 20
-82.551874399702342
 11
363.19943436925223
 21
-82.551874399702342
  0
LINE
  8
_0-2_body
  6
CONTINUOUS
 62
    7
 10
356.79844695765803
 20
-85.499842606430605
 11
356.79844695765803
 21
-82.551874399702342
  0
LINE
  8
_0-2_body
  6
CONTINUOUS
 62
    7
 10
356.79844695765803
 20
-85.499842606430605
 11
354.99528398067832
 21
-85.423705996206593
  0
LINE
  8
_0-2_body
  6
CONTINUOUS
 62
    7
 10
354.99528398067832
 20
-85.423705996206593
 11
353.19005394640726
 21
-85.313462940678562
  0
LINE
  8
_0-2_body
  6
CONTINUOUS
 62
    7
 10
353.19005394640726
 20
-85.313462940678562
 11
351.38964704581576
 21
-85.169802458943707
  0
LINE
  8
_0-2_body
  6
CONTINUOUS
 62
    7
 10
351.38964704581576
 20
-85.169802458943707
 11
349.59113494774112
 21
-84.991691022356292
  0
LINE
  8
_0-2_body
  6
CONTINUOUS
 62
    7
 10
349.59113494774112
 20
-84.991691022356292
 11
347.79744598334582
 21
-84.782918235950092
  0
LINE
  8
_0-2_body
  6
CONTINUOUS
 62
    7
 10
347.79744598334582
 20
-84.782918235950092
 11
346.00840789785548
 21
-84.538316456497398
  0
LINE
  8
_0-2_body
  6
CONTINUOUS
 62
    7
 10
346.00840789785548
 20
-84.538316456497398
 11
344.22143686965649
 21
-84.261330779483302
  0
LINE
  8
_0-2_body
  6
CONTINUOUS
 62
    7
 10
344.22143686965649
 20
-84.261330779483302
 11
342.44135603242779
 21
-83.949894147616703
  0
LINE
  8
_0-2_body
  6
CONTINUOUS
 62
    7
 10
372.4987806125871
 20
105.61700169257838
 11
372.31308996593219
 21
105.64008383232957
  0
LINE
  8
_0-2_body
  6
CONTINUOUS
 62
    7
 10
372.31308996593219
 20
105.64008383232957
 11
372.12447098811469
 21
105.66523302937188
  0
LINE
  8
_0-2_body
  6
CONTINUOUS
 62
    7
 10
372.12447098811469
 20
105.66523302937188
 11
371.93636877462006
 21
105.68934869776864
  0
LINE
  8
_0-2_body
  6
CONTINUOUS
 62
    7
 10
371.93636877462006
 20
105.68934869776864
 11
371.75016136364229
 21
105.71346436616538
  0
LINE
  8
_0-2_body
  6
CONTINUOUS
 62
    7
 10
371.75016136364229
 20
105.71346436616538
 11
371.56171464059912
 21
105.73654650591655
  0
LINE
  8
_0-2_body
  6
CONTINUOUS
 62
    7
 10
371.56171464059912
 20
105.73654650591655
 11
371.37361242710449
 21
105.75945639089346
  0
LINE
  8
_0-2_body
  6
CONTINUOUS
 62
    7
 10
371.37361242710449
 20
105.75945639089346
 11
371.18723276135256
 21
105.78133274722481
  0
LINE
  8
_0-2_body
  6
CONTINUOUS
 62
    7
 10
371.18723276135256
 20
105.78133274722481
 11
370.99913054785793
 21
105.80303684878189
  0
LINE
  8
_0-2_body
  6
CONTINUOUS
 62
    7
 10
370.99913054785793
 20
105.80303684878189
 11
369.72203365147584
 21
105.94307998025728
  0
LINE
  8
_0-2_body
  6
CONTINUOUS
 62
    7
 10
369.72203365147584
 20
105.94307998025728
 11
368.44528126464206
 21
106.06624214385496
  0
LINE
  8
_0-2_body
  6
CONTINUOUS
 62
    7
 10
368.44528126464206
 20
106.06624214385496
 11
367.16353348935502
 21
106.17166206570361
  0
LINE
  8
_0-2_body
  6
CONTINUOUS
 62
    7
 10
367.16353348935502
 20
106.17166206570361
 11
365.88178571406769
 21
106.26037327444881
  0
LINE
  8
_0-2_body
  6
CONTINUOUS
 62
    7
 10
365.88178571406769
 20
106.26037327444881
 11
364.60038244832913
 21
106.33134224144494
  0
LINE
  8
_0-2_body
  6
CONTINUOUS
 62
    7
 10
364.60038244832913
 20
106.33134224144494
 11
363.31656761575073
 21
106.38422445714352
  0
LINE
  8
_0-2_body
  6
CONTINUOUS
 62
    7
 10
363.31656761575073
 20
106.38422445714352
 11
362.03258052839811
 21
106.4210869788357
  0
LINE
  8
_0-2_body
  6
CONTINUOUS
 62
    7
 10
362.03258052839811
 20
106.4210869788357
 11
360.7485934410455
 21
106.43934598490753
  0
LINE
  8
_0-2_body
  6
CONTINUOUS
 62
    7
 10
360.7485934410455
 20
106.43934598490753
 11
360.56273053961627
 21
106.44175755174719
  0
LINE
  8
_0-2_body
  6
CONTINUOUS
 62
    7
 10
360.56273053961627
 20
106.44175755174719
 11
360.3742838165731
 21
106.44175755174719
  0
LINE
  8
_0-2_body
  6
CONTINUOUS
 62
    7
 10
360.3742838165731
 20
106.44175755174719
 11
360.1860093483042
 21
106.44175755174719
  0
LINE
  8
_0-2_body
  6
CONTINUOUS
 62
    7
 10
360.1860093483042
 20
106.44175755174719
 11
359.99997419210069
 21
106.44296333516704
  0
LINE
  8
_0-2_body
  6
CONTINUOUS
 62
    7
 10
359.99997419210069
 20
106.44296333516704
 11
359.81169972383179
 21
106.44175755174719
  0
LINE
  8
_0-2_body
  6
CONTINUOUS
 62
    7
 10
359.81169972383179
 20
106.44175755174719
 11
359.62325300078874
 21
106.44175755174719
  0
LINE
  8
_0-2_body
  6
CONTINUOUS
 62
    7
 10
359.62325300078874
 20
106.44175755174719
 11
359.43739009935939
 21
106.44175755174719
  0
LINE
  8
_0-2_body
  6
CONTINUOUS
 62
    7
 10
359.43739009935939
 20
106.44175755174719
 11
359.24911563109049
 21
106.43934598490753
  0
LINE
  8
_0-2_body
  6
CONTINUOUS
 62
    7
 10
359.24911563109049
 20
106.43934598490753
 11
357.96495628896361
 21
106.4210869788357
  0
LINE
  8
_0-2_body
  6
CONTINUOUS
 62
    7
 10
357.96495628896361
 20
106.4210869788357
 11
356.68131371115953
 21
106.38422445714352
  0
LINE
  8
_0-2_body
  6
CONTINUOUS
 62
    7
 10
356.68131371115953
 20
106.38422445714352
 11
355.39732662380686
 21
106.33134224144494
  0
LINE
  8
_0-2_body
  6
CONTINUOUS
 62
    7
 10
355.39732662380686
 20
106.33134224144494
 11
354.11592335806819
 21
106.26037327444881
  0
LINE
  8
_0-2_body
  6
CONTINUOUS
 62
    7
 10
354.11592335806819
 20
106.26037327444881
 11
352.83417558278109
 21
106.17166206570361
  0
LINE
  8
_0-2_body
  6
CONTINUOUS
 62
    7
 10
352.83417558278109
 20
106.17166206570361
 11
351.55501162910781
 21
106.06624214385496
  0
LINE
  8
_0-2_body
  6
CONTINUOUS
 62
    7
 10
351.55501162910781
 20
106.06624214385496
 11
350.27550316588599
 21
105.94307998025728
  0
LINE
  8
_0-2_body
  6
CONTINUOUS
 62
    7
 10
350.27550316588599
 20
105.94307998025728
 11
348.99857852427806
 21
105.80303684878189
  0
LINE
  8
_0-2_body
  6
CONTINUOUS
 62
    7
 10
348.99857852427806
 20
105.80303684878189
 11
348.81254336807461
 21
105.78133274722481
  0
LINE
  8
_0-2_body
  6
CONTINUOUS
 62
    7
 10
348.81254336807461
 20
105.78133274722481
 11
348.62426889980571
 21
105.75945639089346
  0
LINE
  8
_0-2_body
  6
CONTINUOUS
 62
    7
 10
348.62426889980571
 20
105.75945639089346
 11
348.4358221767626
 21
105.73654650591655
  0
LINE
  8
_0-2_body
  6
CONTINUOUS
 62
    7
 10
348.4358221767626
 20
105.73654650591655
 11
348.25013153010764
 21
105.71346436616538
  0
LINE
  8
_0-2_body
  6
CONTINUOUS
 62
    7
 10
348.25013153010764
 20
105.71346436616538
 11
348.0615125522902
 21
105.68934869776864
  0
LINE
  8
_0-2_body
  6
CONTINUOUS
 62
    7
 10
348.0615125522902
 20
105.68934869776864
 11
347.8732380840213
 21
105.66523302937188
  0
LINE
  8
_0-2_body
  6
CONTINUOUS
 62
    7
 10
347.8732380840213
 20
105.66523302937188
 11
347.68737518259212
 21
105.64008383232957
  0
LINE
  8
_0-2_body
  6
CONTINUOUS
 62
    7
 10
347.68737518259212
 20
105.64008383232957
 11
347.49875620477462
 21
105.61700169257838
  0
LINE
  8
_0-2_body
  6
CONTINUOUS
 62
    7
 10
348.99857852427806
 20
105.80303684878189
 11
348.99857852427806
 21
103.19768338806169
  0
LINE
  8
_0-2_body
  6
CONTINUOUS
 62
    7
 10
348.99857852427806
 20
103.19768338806169
 11
359.24911563109049
 21
103.19768338806169
  0
LINE
  8
_0-2_body
  6
CONTINUOUS
 62
    7
 10
359.24911563109049
 20
103.19768338806169
 11
359.24911563109049
 21
106.43934598490753
  0
LINE
  8
_0-2_body
  6
CONTINUOUS
 62
    7
 10
360.7485934410455
 20
106.43934598490753
 11
360.7485934410455
 21
103.19768338806169
  0
LINE
  8
_0-2_body
  6
CONTINUOUS
 62
    7
 10
360.7485934410455
 20
103.19768338806169
 11
370.99913054785793
 21
103.19768338806169
  0
LINE
  8
_0-2_body
  6
CONTINUOUS
 62
    7
 10
370.99913054785793
 20
103.19768338806169
 11
370.99913054785793
 21
105.80303684878189
  0
LINE
  8
_0-2_body
  6
CONTINUOUS
 62
    7
 10
347.49875620477462
 20
102.69814454270046
 11
372.4987806125871
 21
102.69814454270046
  0
LINE
  8
_0-2_body
  6
CONTINUOUS
 62
    7
 10
347.49875620477462
 20
102.69814454270046
 11
347.49875620477462
 21
105.61700169257838
  0
LINE
  8
_0-2_body
  6
CONTINUOUS
 62
    7
 10
372.4987806125871
 20
102.69814454270046
 11
372.4987806125871
 21
105.61700169257838
  0
LINE
  8
_0-2_body
  6
CONTINUOUS
 62
    7
 10
372.4987806125871
 20
102.69814454270046
 11
372.4987806125871
 21
101.69768881378391
  0
LINE
  8
_0-2_body
  6
CONTINUOUS
 62
    7
 10
363.19943436925223
 20
-85.056114307930386
 11
363.01787783717964
 21
-84.921755584005695
  0
LINE
  8
_0-2_body
  6
CONTINUOUS
 62
    7
 10
363.01787783717964
 20
-84.921755584005695
 11
362.48940018974224
 21
-84.812890566671769
  0
LINE
  8
_0-2_body
  6
CONTINUOUS
 62
    7
 10
362.48940018974224
 20
-84.812890566671769
 11
361.68118078890257
 21
-84.737098465996297
  0
LINE
  8
_0-2_body
  6
CONTINUOUS
 62
    7
 10
361.68118078890257
 20
-84.737098465996297
 11
360.68434241024556
 21
-84.697824377464514
  0
LINE
  8
_0-2_body
  6
CONTINUOUS
 62
    7
 10
360.68434241024556
 20
-84.697824377464514
 11
359.61429575252703
 21
-84.691967715139469
  0
LINE
  8
_0-2_body
  6
CONTINUOUS
 62
    7
 10
359.61429575252703
 20
-84.691967715139469
 11
358.58989660998799
 21
-84.722284555409686
  0
LINE
  8
_0-2_body
  6
CONTINUOUS
 62
    7
 10
358.58989660998799
 20
-84.722284555409686
 11
357.72397185977036
 21
-84.787396860080889
  0
LINE
  8
_0-2_body
  6
CONTINUOUS
 62
    7
 10
357.72397185977036
 20
-84.787396860080889
 11
357.1085055513305
 21
-84.885237571862035
  0
LINE
  8
_0-2_body
  6
CONTINUOUS
 62
    7
 10
357.1085055513305
 20
-84.885237571862035
 11
356.81687821850409
 21
-85.010294537976563
  0
LINE
  8
_0-2_body
  6
CONTINUOUS
 62
    7
 10
359.46477860846721
 20
-84.482850419184842
 11
359.6163628098181
 21
-84.500075896611094
  0
LINE
  8
_0-2_body
  6
CONTINUOUS
 62
    7
 10
359.6163628098181
 20
-84.500075896611094
 11
359.78413895994981
 21
-84.509722163969798
  0
LINE
  8
_0-2_body
  6
CONTINUOUS
 62
    7
 10
359.78413895994981
 20
-84.509722163969798
 11
359.94261335227134
 21
-84.507310597130072
  0
LINE
  8
_0-2_body
  6
CONTINUOUS
 62
    7
 10
360.53499752096002
 20
-84.482850419184842
 11
360.38134626231789
 21
-84.500075896611094
  0
LINE
  8
_0-2_body
  6
CONTINUOUS
 62
    7
 10
360.38134626231789
 20
-84.500075896611094
 11
360.21580942425157
 21
-84.509722163969798
  0
LINE
  8
_0-2_body
  6
CONTINUOUS
 62
    7
 10
360.21580942425157
 20
-84.509722163969798
 11
360.05509571986471
 21
-84.507310597130072
  0
LINE
  8
_0-2_body
  6
CONTINUOUS
 62
    7
 10
360.05509571986471
 20
-84.507310597130072
 11
359.9172919004547
 21
-84.495941782028808
  0
LINE
  8
_0-2_body
  6
CONTINUOUS
 62
    7
 10
359.1776298997716
 20
-74.550295625661136
 11
359.68750403158856
 21
-74.550295625661136
  0
LINE
  8
_0-2_body
  6
CONTINUOUS
 62
    7
 10
359.68750403158856
 20
-74.550295625661136
 11
360.23889156400281
 21
-74.550295625661136
  0
LINE
  8
_0-2_body
  6
CONTINUOUS
 62
    7
 10
360.23889156400281
 20
-74.550295625661136
 11
360.75789519885569
 21
-74.550295625661136
  0
LINE
  8
_0-2_body
  6
CONTINUOUS
 62
    7
 10
360.75789519885569
 20
-74.550295625661136
 11
361.17371822392533
 21
-74.550295625661136
  0
LINE
  8
_0-2_body
  6
CONTINUOUS
 62
    7
 10
361.17371822392533
 20
-74.550295625661136
 11
361.43089460189924
 21
-74.550295625661136
  0
LINE
  8
_0-2_body
  6
CONTINUOUS
 62
    7
 10
358.54614389732529
 20
-74.550295625661136
 11
358.78041039032229
 21
-74.550295625661136
  0
LINE
  8
_0-2_body
  6
CONTINUOUS
 62
    7
 10
358.78041039032229
 20
-74.550295625661136
 11
359.1776298997716
 21
-74.550295625661136
  0
LINE
  8
_0-2_body
  6
CONTINUOUS
 62
    7
 10
375.00009218965283
 20
99.696605101176544
 11
375.00009218965283
 21
-72.349568629683517
  0
LINE
  8
_0-2_body
  6
CONTINUOUS
 62
    7
 10
372.99952524136813
 20
101.69768881378391
 11
373.39002681462131
 21
101.65875923480058
  0
LINE
  8
_0-2_body
  6
CONTINUOUS
 62
    7
 10
373.39002681462131
 20
101.65875923480058
 11
373.76433643909365
 21
101.54627686720718
  0
LINE
  8
_0-2_body
  6
CONTINUOUS
 62
    7
 10
373.76433643909365
 20
101.54627686720718
 11
374.11108529968396
 21
101.36006945622944
  0
LINE
  8
_0-2_body
  6
CONTINUOUS
 62
    7
 10
374.11108529968396
 20
101.36006945622944
 11
374.41442595716029
 21
101.11185032651717
  0
LINE
  8
_0-2_body
  6
CONTINUOUS
 62
    7
 10
374.41442595716029
 20
101.11185032651717
 11
374.66247283209833
 21
100.80885417858944
  0
LINE
  8
_0-2_body
  6
CONTINUOUS
 62
    7
 10
374.66247283209833
 20
100.80885417858944
 11
374.84609642146211
 21
100.46279433709611
  0
LINE
  8
_0-2_body
  6
CONTINUOUS
 62
    7
 10
374.84609642146211
 20
100.46279433709611
 11
374.96099035589521
 21
100.08727892920389
  0
LINE
  8
_0-2_body
  6
CONTINUOUS
 62
    7
 10
374.96099035589521
 20
100.08727892920389
 11
375.00009218965283
 21
99.696605101176544
  0
LINE
  8
_0-2_body
  6
CONTINUOUS
 62
    7
 10
345.49818925649004
 20
-60.245914661355158
 11
347.49875620477462
 21
-60.245914661355158
  0
LINE
  8
_0-2_body
  6
CONTINUOUS
 62
    7
 10
345.49818925649004
 20
-60.245914661355158
 11
345.49818925649004
 21
-63.046777290863304
  0
LINE
  8
_0-2_body
  6
CONTINUOUS
 62
    7
 10
345.49818925649004
 20
-63.046777290863304
 11
347.49875620477462
 21
-63.046777290863304
  0
LINE
  8
_0-2_body
  6
CONTINUOUS
 62
    7
 10
347.49875620477462
 20
-63.046777290863304
 11
347.49875620477462
 21
-71.348768391218414
  0
LINE
  8
_0-2_body
  6
CONTINUOUS
 62
    7
 10
347.49875620477462
 20
-71.348768391218414
 11
372.4987806125871
 21
-71.348768391218414
  0
LINE
  8
_0-2_body
  6
CONTINUOUS
 62
    7
 10
372.4987806125871
 20
-71.348768391218414
 11
372.4987806125871
 21
-63.046777290863304
  0
LINE
  8
_0-2_body
  6
CONTINUOUS
 62
    7
 10
374.49934756087168
 20
-63.046777290863304
 11
372.4987806125871
 21
-63.046777290863304
  0
LINE
  8
_0-2_body
  6
CONTINUOUS
 62
    7
 10
374.49934756087168
 20
-63.046777290863304
 11
374.49934756087168
 21
-60.245914661355158
  0
LINE
  8
_0-2_body
  6
CONTINUOUS
 62
    7
 10
374.49934756087168
 20
-60.245914661355158
 11
372.4987806125871
 21
-60.245914661355158
  0
LINE
  8
_0-2_body
  6
CONTINUOUS
 62
    7
 10
372.4987806125871
 20
-60.245914661355158
 11
372.4987806125871
 21
96.696443697846718
  0
LINE
  8
_0-2_body
  6
CONTINUOUS
 62
    7
 10
372.4987806125871
 20
96.696443697846718
 11
347.49875620477462
 21
96.696443697846718
  0
LINE
  8
_0-2_body
  6
CONTINUOUS
 62
    7
 10
347.49875620477462
 20
96.696443697846718
 11
347.49875620477462
 21
-60.245914661355158
  0
LINE
  8
_0-2_body
  6
CONTINUOUS
 62
    7
 10
372.99952524136813
 20
-74.350480087516587
 11
347.0004231428332
 21
-74.350480087516587
  0
LINE
  8
_0-2_body
  6
CONTINUOUS
 62
    7
 10
347.0004231428332
 20
101.69768881378391
 11
372.99952524136813
 21
101.69768881378391
  0
LINE
  8
_0-2_body
  6
CONTINUOUS
 62
    7
 10
370.49838591907678
 20
65.488012716065498
 11
370.397444621359
 21
66.192190233250557
  0
LINE
  8
_0-2_body
  6
CONTINUOUS
 62
    7
 10
370.397444621359
 20
66.192190233250557
 11
370.10357797646719
 21
66.840040439251794
  0
LINE
  8
_0-2_body
  6
CONTINUOUS
 62
    7
 10
370.10357797646719
 20
66.840040439251794
 11
369.63711204776428
 21
67.377647589725029
  0
LINE
  8
_0-2_body
  6
CONTINUOUS
 62
    7
 10
369.63711204776428
 20
67.377647589725029
 11
369.03749317855659
 21
67.763670538847293
  0
LINE
  8
_0-2_body
  6
CONTINUOUS
 62
    7
 10
369.03749317855659
 20
67.763670538847293
 11
368.35536427247712
 21
67.963486076991771
  0
LINE
  8
_0-2_body
  6
CONTINUOUS
 62
    7
 10
368.35536427247712
 20
67.963486076991771
 11
367.64343529045027
 21
67.963486076991771
  0
LINE
  8
_0-2_body
  6
CONTINUOUS
 62
    7
 10
367.64343529045027
 20
67.963486076991771
 11
366.9613063843708
 21
67.763670538847293
  0
LINE
  8
_0-2_body
  6
CONTINUOUS
 62
    7
 10
366.9613063843708
 20
67.763670538847293
 11
366.3620320247116
 21
67.377647589725029
  0
LINE
  8
_0-2_body
  6
CONTINUOUS
 62
    7
 10
366.3620320247116
 20
67.377647589725029
 11
365.89573835078301
 21
66.840040439251794
  0
LINE
  8
_0-2_body
  6
CONTINUOUS
 62
    7
 10
365.89573835078301
 20
66.840040439251794
 11
365.5996323938258
 21
66.192190233250557
  0
LINE
  8
_0-2_body
  6
CONTINUOUS
 62
    7
 10
365.5996323938258
 20
66.192190233250557
 11
365.49834658655936
 21
65.488012716065498
  0
LINE
  8
_0-2_body
  6
CONTINUOUS
 62
    7
 10
365.49834658655936
 20
65.488012716065498
 11
365.5996323938258
 21
64.783835198880411
  0
LINE
  8
_0-2_body
  6
CONTINUOUS
 62
    7
 10
365.5996323938258
 20
64.783835198880411
 11
365.89573835078301
 21
64.135984992879187
  0
LINE
  8
_0-2_body
  6
CONTINUOUS
 62
    7
 10
365.89573835078301
 20
64.135984992879187
 11
366.3620320247116
 21
63.598377842405952
  0
LINE
  8
_0-2_body
  6
CONTINUOUS
 62
    7
 10
366.3620320247116
 20
63.598377842405952
 11
366.9613063843708
 21
63.212527148057987
  0
LINE
  8
_0-2_body
  6
CONTINUOUS
 62
    7
 10
366.9613063843708
 20
63.212527148057987
 11
367.64343529045027
 21
63.012711609913481
  0
LINE
  8
_0-2_body
  6
CONTINUOUS
 62
    7
 10
367.64343529045027
 20
63.012711609913481
 11
368.35536427247712
 21
63.012711609913481
  0
LINE
  8
_0-2_body
  6
CONTINUOUS
 62
    7
 10
368.35536427247712
 20
63.012711609913481
 11
369.03749317855659
 21
63.212527148057987
  0
LINE
  8
_0-2_body
  6
CONTINUOUS
 62
    7
 10
369.03749317855659
 20
63.212527148057987
 11
369.63711204776428
 21
63.598377842405952
  0
LINE
  8
_0-2_body
  6
CONTINUOUS
 62
    7
 10
369.63711204776428
 20
63.598377842405952
 11
370.10357797646719
 21
64.135984992879187
  0
LINE
  8
_0-2_body
  6
CONTINUOUS
 62
    7
 10
370.10357797646719
 20
64.135984992879187
 11
370.397444621359
 21
64.783835198880411
  0
LINE
  8
_0-2_body
  6
CONTINUOUS
 62
    7
 10
370.397444621359
 20
64.783835198880411
 11
370.49838591907678
 21
65.488012716065498
  0
LINE
  8
_0-2_body
  6
CONTINUOUS
 62
    7
 10
367.49856902529552
 20
-62.546549426405107
 11
367.49856902529552
 21
-66.548027832522706
  0
LINE
  8
_0-2_body
  6
CONTINUOUS
 62
    7
 10
367.49856902529552
 20
-66.548027832522706
 11
368.1834540077632
 21
-66.427449490539004
  0
LINE
  8
_0-2_body
  6
CONTINUOUS
 62
    7
 10
368.1834540077632
 20
-66.427449490539004
 11
368.78513993426202
 21
-66.08018386562577
  0
LINE
  8
_0-2_body
  6
CONTINUOUS
 62
    7
 10
368.78513993426202
 20
-66.08018386562577
 11
369.23059078050488
 21
-65.547227594057716
  0
LINE
  8
_0-2_body
  6
CONTINUOUS
 62
    7
 10
369.23059078050488
 20
-65.547227594057716
 11
369.46950815240689
 21
-64.894381999602814
  0
LINE
  8
_0-2_body
  6
CONTINUOUS
 62
    7
 10
369.46950815240689
 20
-64.894381999602814
 11
369.46950815240689
 21
-64.199506240227862
  0
LINE
  8
_0-2_body
  6
CONTINUOUS
 62
    7
 10
369.46950815240689
 20
-64.199506240227862
 11
369.23059078050488
 21
-63.547694174418638
  0
LINE
  8
_0-2_body
  6
CONTINUOUS
 62
    7
 10
369.23059078050488
 20
-63.547694174418638
 11
368.78513993426202
 21
-63.015426921947636
  0
LINE
  8
_0-2_body
  6
CONTINUOUS
 62
    7
 10
368.78513993426202
 20
-63.015426921947636
 11
368.1834540077632
 21
-62.667816787485805
  0
LINE
  8
_0-2_body
  6
CONTINUOUS
 62
    7
 10
368.1834540077632
 20
-62.667816787485805
 11
367.49856902529552
 21
-62.546549426405107
  0
LINE
  8
_0-2_body
  6
CONTINUOUS
 62
    7
 10
362.4988742023267
 20
-56.143839467068176
 11
362.39793290460887
 21
-55.441384497625791
  0
LINE
  8
_0-2_body
  6
CONTINUOUS
 62
    7
 10
362.39793290460887
 20
-55.441384497625791
 11
362.10165469287739
 21
-54.793017527301714
  0
LINE
  8
_0-2_body
  6
CONTINUOUS
 62
    7
 10
362.10165469287739
 20
-54.793017527301714
 11
361.63777258578853
 21
-54.255582631602806
  0
LINE
  8
_0-2_body
  6
CONTINUOUS
 62
    7
 10
361.63777258578853
 20
-54.255582631602806
 11
361.03815371658084
 21
-53.869731937254812
  0
LINE
  8
_0-2_body
  6
CONTINUOUS
 62
    7
 10
361.03815371658084
 20
-53.869731937254812
 11
360.35602481050131
 21
-53.669916399110292
  0
LINE
  8
_0-2_body
  6
CONTINUOUS
 62
    7
 10
360.35602481050131
 20
-53.669916399110292
 11
359.64392357370014
 21
-53.669916399110292
  0
LINE
  8
_0-2_body
  6
CONTINUOUS
 62
    7
 10
359.64392357370014
 20
-53.669916399110292
 11
358.96179466762067
 21
-53.869731937254812
  0
LINE
  8
_0-2_body
  6
CONTINUOUS
 62
    7
 10
358.96179466762067
 20
-53.869731937254812
 11
358.36269256273567
 21
-54.255582631602806
  0
LINE
  8
_0-2_body
  6
CONTINUOUS
 62
    7
 10
358.36269256273567
 20
-54.255582631602806
 11
357.89622663403293
 21
-54.793017527301714
  0
LINE
  8
_0-2_body
  6
CONTINUOUS
 62
    7
 10
357.89622663403293
 20
-54.793017527301714
 11
357.5999484223014
 21
-55.441384497625791
  0
LINE
  8
_0-2_body
  6
CONTINUOUS
 62
    7
 10
357.5999484223014
 20
-55.441384497625791
 11
357.49866261503507
 21
-56.143839467068176
  0
LINE
  8
_0-2_body
  6
CONTINUOUS
 62
    7
 10
357.49866261503507
 20
-56.143839467068176
 11
357.5999484223014
 21
-56.849395022447396
  0
LINE
  8
_0-2_body
  6
CONTINUOUS
 62
    7
 10
357.5999484223014
 20
-56.849395022447396
 11
357.89622663403293
 21
-57.497072973674392
  0
LINE
  8
_0-2_body
  6
CONTINUOUS
 62
    7
 10
357.89622663403293
 20
-57.497072973674392
 11
358.36269256273567
 21
-58.0345078693733
  0
LINE
  8
_0-2_body
  6
CONTINUOUS
 62
    7
 10
358.36269256273567
 20
-58.0345078693733
 11
358.96179466762067
 21
-58.419669544624298
  0
LINE
  8
_0-2_body
  6
CONTINUOUS
 62
    7
 10
358.96179466762067
 20
-58.419669544624298
 11
359.64392357370014
 21
-58.620863120962838
  0
LINE
  8
_0-2_body
  6
CONTINUOUS
 62
    7
 10
359.64392357370014
 20
-58.620863120962838
 11
360.35602481050131
 21
-58.620863120962838
  0
LINE
  8
_0-2_body
  6
CONTINUOUS
 62
    7
 10
360.35602481050131
 20
-58.620863120962838
 11
361.03815371658084
 21
-58.419669544624298
  0
LINE
  8
_0-2_body
  6
CONTINUOUS
 62
    7
 10
361.03815371658084
 20
-58.419669544624298
 11
361.63777258578853
 21
-58.0345078693733
  0
LINE
  8
_0-2_body
  6
CONTINUOUS
 62
    7
 10
361.63777258578853
 20
-58.0345078693733
 11
362.10165469287739
 21
-57.497072973674392
  0
LINE
  8
_0-2_body
  6
CONTINUOUS
 62
    7
 10
362.10165469287739
 20
-57.497072973674392
 11
362.39793290460887
 21
-56.849395022447396
  0
LINE
  8
_0-2_body
  6
CONTINUOUS
 62
    7
 10
362.39793290460887
 20
-56.849395022447396
 11
362.4988742023267
 21
-56.143839467068176
  0
LINE
  8
_0-2_body
  6
CONTINUOUS
 62
    7
 10
362.4988742023267
 20
-13.133200371918093
 11
362.39793290460887
 21
-12.429022854733006
  0
LINE
  8
_0-2_body
  6
CONTINUOUS
 62
    7
 10
362.39793290460887
 20
-12.429022854733006
 11
362.10165469287739
 21
-11.781344903506096
  0
LINE
  8
_0-2_body
  6
CONTINUOUS
 62
    7
 10
362.10165469287739
 20
-11.781344903506096
 11
361.63777258578853
 21
-11.24356549825859
  0
LINE
  8
_0-2_body
  6
CONTINUOUS
 62
    7
 10
361.63777258578853
 20
-11.24356549825859
 11
361.03815371658084
 21
-10.858748332556189
  0
LINE
  8
_0-2_body
  6
CONTINUOUS
 62
    7
 10
361.03815371658084
 20
-10.858748332556189
 11
360.35602481050131
 21
-10.658932794411726
  0
LINE
  8
_0-2_body
  6
CONTINUOUS
 62
    7
 10
360.35602481050131
 20
-10.658932794411726
 11
359.64392357370014
 21
-10.658932794411726
  0
LINE
  8
_0-2_body
  6
CONTINUOUS
 62
    7
 10
359.64392357370014
 20
-10.658932794411726
 11
358.96179466762067
 21
-10.858748332556189
  0
LINE
  8
_0-2_body
  6
CONTINUOUS
 62
    7
 10
358.96179466762067
 20
-10.858748332556189
 11
358.36269256273567
 21
-11.24356549825859
  0
LINE
  8
_0-2_body
  6
CONTINUOUS
 62
    7
 10
358.36269256273567
 20
-11.24356549825859
 11
357.89622663403293
 21
-11.781344903506096
  0
LINE
  8
_0-2_body
  6
CONTINUOUS
 62
    7
 10
357.89622663403293
 20
-11.781344903506096
 11
357.5999484223014
 21
-12.429022854733006
  0
LINE
  8
_0-2_body
  6
CONTINUOUS
 62
    7
 10
357.5999484223014
 20
-12.429022854733006
 11
357.49866261503507
 21
-13.133200371918093
  0
LINE
  8
_0-2_body
  6
CONTINUOUS
 62
    7
 10
357.49866261503507
 20
-13.133200371918093
 11
357.5999484223014
 21
-13.838411417748659
  0
LINE
  8
_0-2_body
  6
CONTINUOUS
 62
    7
 10
357.5999484223014
 20
-13.838411417748659
 11
357.89622663403293
 21
-14.485055840330091
  0
LINE
  8
_0-2_body
  6
CONTINUOUS
 62
    7
 10
357.89622663403293
 20
-14.485055840330091
 11
358.36269256273567
 21
-15.023524264674677
  0
LINE
  8
_0-2_body
  6
CONTINUOUS
 62
    7
 10
358.36269256273567
 20
-15.023524264674677
 11
358.96179466762067
 21
-15.407652411280026
  0
LINE
  8
_0-2_body
  6
CONTINUOUS
 62
    7
 10
358.96179466762067
 20
-15.407652411280026
 11
359.64392357370014
 21
-15.60850147807011
  0
LINE
  8
_0-2_body
  6
CONTINUOUS
 62
    7
 10
359.64392357370014
 20
-15.60850147807011
 11
360.35602481050131
 21
-15.60850147807011
  0
LINE
  8
_0-2_body
  6
CONTINUOUS
 62
    7
 10
360.35602481050131
 20
-15.60850147807011
 11
361.03815371658084
 21
-15.407652411280026
  0
LINE
  8
_0-2_body
  6
CONTINUOUS
 62
    7
 10
361.03815371658084
 20
-15.407652411280026
 11
361.63777258578853
 21
-15.023524264674677
  0
LINE
  8
_0-2_body
  6
CONTINUOUS
 62
    7
 10
361.63777258578853
 20
-15.023524264674677
 11
362.10165469287739
 21
-14.485055840330091
  0
LINE
  8
_0-2_body
  6
CONTINUOUS
 62
    7
 10
362.10165469287739
 20
-14.485055840330091
 11
362.39793290460887
 21
-13.838411417748659
  0
LINE
  8
_0-2_body
  6
CONTINUOUS
 62
    7
 10
362.39793290460887
 20
-13.838411417748659
 11
362.4988742023267
 21
-13.133200371918093
  0
LINE
  8
_0-2_body
  6
CONTINUOUS
 62
    7
 10
361.99830182831988
 20
58.786785232931777
 11
361.89012583008298
 21
59.435668967578579
  0
LINE
  8
_0-2_body
  6
CONTINUOUS
 62
    7
 10
361.89012583008298
 20
59.435668967578579
 11
361.57782792434512
 21
60.014445009100569
  0
LINE
  8
_0-2_body
  6
CONTINUOUS
 62
    7
 10
361.57782792434512
 20
60.014445009100569
 11
361.09327524434468
 21
60.461273893537452
  0
LINE
  8
_0-2_body
  6
CONTINUOUS
 62
    7
 10
361.09327524434468
 20
60.461273893537452
 11
360.49141706307159
 21
60.725857226804649
  0
LINE
  8
_0-2_body
  6
CONTINUOUS
 62
    7
 10
360.49141706307159
 20
60.725857226804649
 11
359.83460960880871
 21
60.779428461600261
  0
LINE
  8
_0-2_body
  6
CONTINUOUS
 62
    7
 10
359.83460960880871
 20
60.779428461600261
 11
359.19623341539193
 21
60.618714757213368
  0
LINE
  8
_0-2_body
  6
CONTINUOUS
 62
    7
 10
359.19623341539193
 20
60.618714757213368
 11
358.64501813775189
 21
60.258185514681983
  0
LINE
  8
_0-2_body
  6
CONTINUOUS
 62
    7
 10
358.64501813775189
 20
60.258185514681983
 11
358.2407361825579
 21
59.739009625054848
  0
LINE
  8
_0-2_body
  6
CONTINUOUS
 62
    7
 10
358.2407361825579
 20
59.739009625054848
 11
358.02696800769809
 21
59.116308616095921
  0
LINE
  8
_0-2_body
  6
CONTINUOUS
 62
    7
 10
358.02696800769809
 20
59.116308616095921
 11
358.02696800769809
 21
58.457089594993377
  0
LINE
  8
_0-2_body
  6
CONTINUOUS
 62
    7
 10
358.02696800769809
 20
58.457089594993377
 11
358.2407361825579
 21
57.83438858603445
  0
LINE
  8
_0-2_body
  6
CONTINUOUS
 62
    7
 10
358.2407361825579
 20
57.83438858603445
 11
358.64501813775189
 21
57.315212696407301
  0
LINE
  8
_0-2_body
  6
CONTINUOUS
 62
    7
 10
358.64501813775189
 20
57.315212696407301
 11
359.19623341539193
 21
56.954511199101646
  0
LINE
  8
_0-2_body
  6
CONTINUOUS
 62
    7
 10
359.19623341539193
 20
56.954511199101646
 11
359.83460960880871
 21
56.792591711294904
  0
LINE
  8
_0-2_body
  6
CONTINUOUS
 62
    7
 10
359.83460960880871
 20
56.792591711294904
 11
360.49141706307159
 21
56.84650745563907
  0
LINE
  8
_0-2_body
  6
CONTINUOUS
 62
    7
 10
360.49141706307159
 20
56.84650745563907
 11
361.09327524434468
 21
57.110574024583443
  0
LINE
  8
_0-2_body
  6
CONTINUOUS
 62
    7
 10
361.09327524434468
 20
57.110574024583443
 11
361.57782792434512
 21
57.557402909020368
  0
LINE
  8
_0-2_body
  6
CONTINUOUS
 62
    7
 10
361.57782792434512
 20
57.557402909020368
 11
361.89012583008298
 21
58.136695714865127
  0
LINE
  8
_0-2_body
  6
CONTINUOUS
 62
    7
 10
361.89012583008298
 20
58.136695714865127
 11
361.99830182831988
 21
58.786785232931777
  0
LINE
  8
_0-2_body
  6
CONTINUOUS
 62
    7
 10
354.49936248557663
 20
65.488012716065498
 11
354.39824893308446
 21
66.192190233250557
  0
LINE
  8
_0-2_body
  6
CONTINUOUS
 62
    7
 10
354.39824893308446
 20
66.192190233250557
 11
354.10179846657871
 21
66.840040439251794
  0
LINE
  8
_0-2_body
  6
CONTINUOUS
 62
    7
 10
354.10179846657871
 20
66.840040439251794
 11
353.63567704742439
 21
67.377647589725029
  0
LINE
  8
_0-2_body
  6
CONTINUOUS
 62
    7
 10
353.63567704742439
 20
67.377647589725029
 11
353.03864199983059
 21
67.763670538847293
  0
LINE
  8
_0-2_body
  6
CONTINUOUS
 62
    7
 10
353.03864199983059
 20
67.763670538847293
 11
352.35427378168572
 21
67.963486076991771
  0
LINE
  8
_0-2_body
  6
CONTINUOUS
 62
    7
 10
352.35427378168572
 20
67.963486076991771
 11
351.64441185695
 21
67.963486076991771
  0
LINE
  8
_0-2_body
  6
CONTINUOUS
 62
    7
 10
351.64441185695
 20
67.963486076991771
 11
350.96004363880513
 21
67.763670538847293
  0
LINE
  8
_0-2_body
  6
CONTINUOUS
 62
    7
 10
350.96004363880513
 20
67.763670538847293
 11
350.36266408166284
 21
67.377647589725029
  0
LINE
  8
_0-2_body
  6
CONTINUOUS
 62
    7
 10
350.36266408166284
 20
67.377647589725029
 11
349.89671491728279
 21
66.840040439251794
  0
LINE
  8
_0-2_body
  6
CONTINUOUS
 62
    7
 10
349.89671491728279
 20
66.840040439251794
 11
349.60060896032559
 21
66.192190233250557
  0
LINE
  8
_0-2_body
  6
CONTINUOUS
 62
    7
 10
349.60060896032559
 20
66.192190233250557
 11
349.49932315305921
 21
65.488012716065498
  0
LINE
  8
_0-2_body
  6
CONTINUOUS
 62
    7
 10
349.49932315305921
 20
65.488012716065498
 11
349.60060896032559
 21
64.783835198880411
  0
LINE
  8
_0-2_body
  6
CONTINUOUS
 62
    7
 10
349.60060896032559
 20
64.783835198880411
 11
349.89671491728279
 21
64.135984992879187
  0
LINE
  8
_0-2_body
  6
CONTINUOUS
 62
    7
 10
349.89671491728279
 20
64.135984992879187
 11
350.36266408166284
 21
63.598377842405952
  0
LINE
  8
_0-2_body
  6
CONTINUOUS
 62
    7
 10
350.36266408166284
 20
63.598377842405952
 11
350.96004363880513
 21
63.212527148057987
  0
LINE
  8
_0-2_body
  6
CONTINUOUS
 62
    7
 10
350.96004363880513
 20
63.212527148057987
 11
351.64441185695
 21
63.012711609913481
  0
LINE
  8
_0-2_body
  6
CONTINUOUS
 62
    7
 10
351.64441185695
 20
63.012711609913481
 11
352.35427378168572
 21
63.012711609913481
  0
LINE
  8
_0-2_body
  6
CONTINUOUS
 62
    7
 10
352.35427378168572
 20
63.012711609913481
 11
353.03864199983059
 21
63.212527148057987
  0
LINE
  8
_0-2_body
  6
CONTINUOUS
 62
    7
 10
353.03864199983059
 20
63.212527148057987
 11
353.63567704742439
 21
63.598377842405952
  0
LINE
  8
_0-2_body
  6
CONTINUOUS
 62
    7
 10
353.63567704742439
 20
63.598377842405952
 11
354.10179846657871
 21
64.135984992879187
  0
LINE
  8
_0-2_body
  6
CONTINUOUS
 62
    7
 10
354.10179846657871
 20
64.135984992879187
 11
354.39824893308446
 21
64.783835198880411
  0
LINE
  8
_0-2_body
  6
CONTINUOUS
 62
    7
 10
354.39824893308446
 20
64.783835198880411
 11
354.49936248557663
 21
65.488012716065498
  0
LINE
  8
_0-2_body
  6
CONTINUOUS
 62
    7
 10
352.49879553729204
 20
-62.546549426405107
 11
351.81442731914706
 21
-62.667816787485805
  0
LINE
  8
_0-2_body
  6
CONTINUOUS
 62
    7
 10
351.81442731914706
 20
-62.667816787485805
 11
351.21274139264824
 21
-63.015426921947636
  0
LINE
  8
_0-2_body
  6
CONTINUOUS
 62
    7
 10
351.21274139264824
 20
-63.015426921947636
 11
350.76694603685689
 21
-63.547694174418638
  0
LINE
  8
_0-2_body
  6
CONTINUOUS
 62
    7
 10
350.76694603685689
 20
-63.547694174418638
 11
350.53061248656871
 21
-64.199506240227862
  0
LINE
  8
_0-2_body
  6
CONTINUOUS
 62
    7
 10
350.53061248656871
 20
-64.199506240227862
 11
350.53061248656871
 21
-64.894381999602814
  0
LINE
  8
_0-2_body
  6
CONTINUOUS
 62
    7
 10
350.53061248656871
 20
-64.894381999602814
 11
350.76694603685689
 21
-65.547227594057716
  0
LINE
  8
_0-2_body
  6
CONTINUOUS
 62
    7
 10
350.76694603685689
 20
-65.547227594057716
 11
351.21274139264824
 21
-66.08018386562577
  0
LINE
  8
_0-2_body
  6
CONTINUOUS
 62
    7
 10
351.21274139264824
 20
-66.08018386562577
 11
351.81442731914706
 21
-66.427449490539004
  0
LINE
  8
_0-2_body
  6
CONTINUOUS
 62
    7
 10
351.81442731914706
 20
-66.427449490539004
 11
352.49879553729204
 21
-66.548027832522706
  0
LINE
  8
_0-2_body
  6
CONTINUOUS
 62
    7
 10
352.49879553729204
 20
-66.548027832522706
 11
352.49879553729204
 21
-62.546549426405107
  0
LINE
  8
_0-2_body
  6
CONTINUOUS
 62
    7
 10
345.00002844932294
 20
99.696605101176544
 11
345.03671871624078
 21
100.08727892920389
  0
LINE
  8
_0-2_body
  6
CONTINUOUS
 62
    7
 10
345.03671871624078
 20
100.08727892920389
 11
345.15161265067388
 21
100.46279433709611
  0
LINE
  8
_0-2_body
  6
CONTINUOUS
 62
    7
 10
345.15161265067388
 20
100.46279433709611
 11
345.33523624003772
 21
100.80885417858944
  0
LINE
  8
_0-2_body
  6
CONTINUOUS
 62
    7
 10
345.33523624003772
 20
100.80885417858944
 11
345.58569468181543
 21
101.11185032651717
  0
LINE
  8
_0-2_body
  6
CONTINUOUS
 62
    7
 10
345.58569468181543
 20
101.11185032651717
 11
345.88886308451742
 21
101.36006945622944
  0
LINE
  8
_0-2_body
  6
CONTINUOUS
 62
    7
 10
345.88886308451742
 20
101.36006945622944
 11
346.23320037826807
 21
101.54627686720718
  0
LINE
  8
_0-2_body
  6
CONTINUOUS
 62
    7
 10
346.23320037826807
 20
101.54627686720718
 11
346.60992156958019
 21
101.65875923480058
  0
LINE
  8
_0-2_body
  6
CONTINUOUS
 62
    7
 10
346.60992156958019
 20
101.65875923480058
 11
347.0004231428332
 21
101.69768881378391
  0
LINE
  8
_0-2_body
  6
CONTINUOUS
 62
    7
 10
345.00002844932294
 20
-72.349568629683517
 11
345.00002844932294
 21
99.696605101176544
  0
LINE
  8
_0-2_body
  6
CONTINUOUS
 62
    7
 10
377.00048688316309
 20
102.69814454270046
 11
377.00048688316309
 21
23.076647980574592
  0
LINE
  8
_0-2_body
  6
CONTINUOUS
 62
    7
 10
377.00048688316309
 20
23.076647980574592
 11
375.00009218965283
 21
23.076647980574592
  0
LINE
  8
_0-2_body
  6
CONTINUOUS
 62
    7
 10
377.00048688316309
 20
14.074613477616822
 11
377.00048688316309
 21
-74.850018932877788
  0
LINE
  8
_0-2_body
  6
CONTINUOUS
 62
    7
 10
376.94777692223869
 20
-75.238625703613991
 11
376.97533768612078
 21
-75.111157170659709
  0
LINE
  8
_0-2_body
  6
CONTINUOUS
 62
    7
 10
376.97533768612078
 20
-75.111157170659709
 11
376.99376894696684
 21
-74.980243542220194
  0
LINE
  8
_0-2_body
  6
CONTINUOUS
 62
    7
 10
376.99376894696684
 20
-74.980243542220194
 11
377.00048688316309
 21
-74.850018932877788
  0
LINE
  8
_0-2_body
  6
CONTINUOUS
 62
    7
 10
375.00009218965283
 20
-73.288701658962594
 11
375.00009218965283
 21
-72.349568629683517
  0
LINE
  8
_0-2_body
  6
CONTINUOUS
 62
    7
 10
375.00009218965283
 20
14.074613477616822
 11
377.00048688316309
 21
14.074613477616822
  0
LINE
  8
_0-2_body
  6
CONTINUOUS
 62
    7
 10
372.99952524136813
 20
-74.350480087516587
 11
373.93917503497011
 21
-74.350480087516587
  0
LINE
  8
_0-2_body
  6
CONTINUOUS
 62
    7
 10
375.49859750636841
 20
-76.350358016704092
 11
375.62933888003374
 21
-76.344156844830565
  0
LINE
  8
_0-2_body
  6
CONTINUOUS
 62
    7
 10
375.62933888003374
 20
-76.344156844830565
 11
375.76025250847306
 21
-76.32727587695291
  0
LINE
  8
_0-2_body
  6
CONTINUOUS
 62
    7
 10
375.76025250847306
 20
-76.32727587695291
 11
375.88651525800748
 21
-76.298337074876827
  0
LINE
  8
_0-2_body
  6
CONTINUOUS
 62
    7
 10
375.49859750636841
 20
-76.350358016704092
 11
364.89907222690022
 21
-76.350358016704092
  0
LINE
  8
_0-2_body
  6
CONTINUOUS
 62
    7
 10
362.59981550004454
 20
-74.350480087516587
 11
364.89907222690022
 21
-76.350358016704092
  0
LINE
  8
_0-2_body
  6
CONTINUOUS
 62
    7
 10
373.93917503497011
 20
-74.350480087516587
 11
374.29729271066179
 21
-74.302593260271607
  0
LINE
  8
_0-2_body
  6
CONTINUOUS
 62
    7
 10
374.29729271066179
 20
-74.302593260271607
 11
374.59357092239327
 21
-74.166856498152811
  0
LINE
  8
_0-2_body
  6
CONTINUOUS
 62
    7
 10
374.59357092239327
 20
-74.166856498152811
 11
374.8161240907404
 21
-73.944303329805592
  0
LINE
  8
_0-2_body
  6
CONTINUOUS
 62
    7
 10
374.8161240907404
 20
-73.944303329805592
 11
374.95392791015036
 21
-73.647680608525604
  0
LINE
  8
_0-2_body
  6
CONTINUOUS
 62
    7
 10
374.95392791015036
 20
-73.647680608525604
 11
375.00009218965283
 21
-73.288701658962594
  0
LINE
  8
_0-2_body
  6
CONTINUOUS
 62
    7
 10
355.09880910000999
 20
-76.350358016704092
 11
344.49945607531606
 21
-76.350358016704092
  0
LINE
  8
_0-2_body
  6
CONTINUOUS
 62
    7
 10
344.11119381412851
 20
-76.298337074876827
 11
344.23969587572833
 21
-76.32727587695291
  0
LINE
  8
_0-2_body
  6
CONTINUOUS
 62
    7
 10
344.23969587572833
 20
-76.32727587695291
 11
344.36837019210236
 21
-76.344156844830565
  0
LINE
  8
_0-2_body
  6
CONTINUOUS
 62
    7
 10
344.36837019210236
 20
-76.344156844830565
 11
344.49945607531606
 21
-76.350358016704092
  0
LINE
  8
_0-2_body
  6
CONTINUOUS
 62
    7
 10
346.05870629194021
 20
-74.350480087516587
 11
347.0004231428332
 21
-74.350480087516587
  0
LINE
  8
_0-2_body
  6
CONTINUOUS
 62
    7
 10
355.09880910000999
 20
-76.350358016704092
 11
357.39996062938269
 21
-74.350480087516587
  0
LINE
  8
_0-2_body
  6
CONTINUOUS
 62
    7
 10
345.00002844932294
 20
-73.288701658962594
 11
345.04584821927671
 21
-73.647680608525604
  0
LINE
  8
_0-2_body
  6
CONTINUOUS
 62
    7
 10
345.04584821927671
 20
-73.647680608525604
 11
345.18158498139559
 21
-73.944303329805592
  0
LINE
  8
_0-2_body
  6
CONTINUOUS
 62
    7
 10
345.18158498139559
 20
-73.944303329805592
 11
345.40431040451699
 21
-74.166856498152811
  0
LINE
  8
_0-2_body
  6
CONTINUOUS
 62
    7
 10
345.40431040451699
 20
-74.166856498152811
 11
345.7004163614742
 21
-74.302593260271607
  0
LINE
  8
_0-2_body
  6
CONTINUOUS
 62
    7
 10
345.7004163614742
 20
-74.302593260271607
 11
346.05870629194021
 21
-74.350480087516587
  0
LINE
  8
_0-2_body
  6
CONTINUOUS
 62
    7
 10
345.00002844932294
 20
-72.349568629683517
 11
345.00002844932294
 21
-73.288701658962594
  0
LINE
  8
_0-2_body
  6
CONTINUOUS
 62
    7
 10
342.99963375581262
 20
23.076647980574592
 11
342.99963375581262
 21
102.69814454270046
  0
LINE
  8
_0-2_body
  6
CONTINUOUS
 62
    7
 10
345.00002844932294
 20
23.076647980574592
 11
342.99963375581262
 21
23.076647980574592
  0
LINE
  8
_0-2_body
  6
CONTINUOUS
 62
    7
 10
342.99963375581262
 20
-74.850018932877788
 11
343.00411237994342
 21
-74.980243542220194
  0
LINE
  8
_0-2_body
  6
CONTINUOUS
 62
    7
 10
343.00411237994342
 20
-74.980243542220194
 11
343.02237138601521
 21
-75.111157170659709
  0
LINE
  8
_0-2_body
  6
CONTINUOUS
 62
    7
 10
343.02237138601521
 20
-75.111157170659709
 11
343.05010440467152
 21
-75.238625703613991
  0
LINE
  8
_0-2_body
  6
CONTINUOUS
 62
    7
 10
342.99963375581262
 20
-74.850018932877788
 11
342.99963375581262
 21
14.074613477616822
  0
LINE
  8
_0-2_body
  6
CONTINUOUS
 62
    7
 10
342.99963375581262
 20
14.074613477616822
 11
345.00002844932294
 21
14.074613477616822
  0
LINE
  8
_0-2_body
  6
CONTINUOUS
 62
    7
 10
375.00009218965283
 20
104.69802247188801
 11
377.00048688316309
 21
102.69814454270046
  0
LINE
  8
_0-2_body
  6
CONTINUOUS
 62
    7
 10
375.88651525800748
 20
-76.298337074876827
 11
376.1803819028994
 21
-76.187060490703203
  0
LINE
  8
_0-2_body
  6
CONTINUOUS
 62
    7
 10
376.1803819028994
 20
-76.187060490703203
 11
376.44255366932691
 21
-76.01583924508634
  0
LINE
  8
_0-2_body
  6
CONTINUOUS
 62
    7
 10
376.44255366932691
 20
-76.01583924508634
 11
376.66510683767399
 21
-75.7943196053848
  0
LINE
  8
_0-2_body
  6
CONTINUOUS
 62
    7
 10
376.66510683767399
 20
-75.7943196053848
 11
376.83529455464532
 21
-75.531803329408717
  0
LINE
  8
_0-2_body
  6
CONTINUOUS
 62
    7
 10
376.83529455464532
 20
-75.531803329408717
 11
376.94777692223869
 21
-75.238625703613991
  0
LINE
  8
_0-2_body
  6
CONTINUOUS
 62
    7
 10
372.99952524136813
 20
104.69802247188801
 11
375.00009218965283
 21
104.69802247188801
  0
LINE
  8
_0-2_body
  6
CONTINUOUS
 62
    7
 10
345.00002844932294
 20
104.69802247188801
 11
347.0004231428332
 21
104.69802247188801
  0
LINE
  8
_0-2_body
  6
CONTINUOUS
 62
    7
 10
343.05010440467152
 20
-75.238625703613991
 11
343.16258677226489
 21
-75.531803329408717
  0
LINE
  8
_0-2_body
  6
CONTINUOUS
 62
    7
 10
343.16258677226489
 20
-75.531803329408717
 11
343.33242997968773
 21
-75.7943196053848
  0
LINE
  8
_0-2_body
  6
CONTINUOUS
 62
    7
 10
343.33242997968773
 20
-75.7943196053848
 11
343.5553276575834
 21
-76.01583924508634
  0
LINE
  8
_0-2_body
  6
CONTINUOUS
 62
    7
 10
343.5553276575834
 20
-76.01583924508634
 11
343.81715491446244
 21
-76.187060490703203
  0
LINE
  8
_0-2_body
  6
CONTINUOUS
 62
    7
 10
343.81715491446244
 20
-76.187060490703203
 11
344.11119381412851
 21
-76.298337074876827
  0
LINE
  8
_0-2_body
  6
CONTINUOUS
 62
    7
 10
345.00002844932294
 20
104.69802247188801
 11
342.99963375581262
 21
102.69814454270046
  0
LINE
  8
_0-2_body
  6
CONTINUOUS
 62
    7
 10
367.49856902529552
 20
-62.546549426405107
 11
366.81437306192493
 21
-62.667816787485805
  0
LINE
  8
_0-2_body
  6
CONTINUOUS
 62
    7
 10
366.81437306192493
 20
-62.667816787485805
 11
366.21268713542599
 21
-63.015426921947636
  0
LINE
  8
_0-2_body
  6
CONTINUOUS
 62
    7
 10
366.21268713542599
 20
-63.015426921947636
 11
365.76706403440892
 21
-63.547694174418638
  0
LINE
  8
_0-2_body
  6
CONTINUOUS
 62
    7
 10
365.76706403440892
 20
-63.547694174418638
 11
365.53055822934652
 21
-64.199506240227862
  0
LINE
  8
_0-2_body
  6
CONTINUOUS
 62
    7
 10
365.53055822934652
 20
-64.199506240227862
 11
365.53055822934652
 21
-64.894381999602814
  0
LINE
  8
_0-2_body
  6
CONTINUOUS
 62
    7
 10
365.53055822934652
 20
-64.894381999602814
 11
365.76706403440892
 21
-65.547227594057716
  0
LINE
  8
_0-2_body
  6
CONTINUOUS
 62
    7
 10
365.76706403440892
 20
-65.547227594057716
 11
366.21268713542599
 21
-66.08018386562577
  0
LINE
  8
_0-2_body
  6
CONTINUOUS
 62
    7
 10
366.21268713542599
 20
-66.08018386562577
 11
366.81437306192493
 21
-66.427449490539004
  0
LINE
  8
_0-2_body
  6
CONTINUOUS
 62
    7
 10
366.81437306192493
 20
-66.427449490539004
 11
367.49856902529552
 21
-66.548027832522706
  0
LINE
  8
_0-2_body
  6
CONTINUOUS
 62
    7
 10
357.79959170567162
 20
66.488640699756289
 11
357.79959170567162
 21
64.487556987148949
  0
LINE
  8
_0-2_body
  6
CONTINUOUS
 62
    7
 10
357.79959170567162
 20
64.487556987148949
 11
357.90776770390846
 21
63.807495138360622
  0
LINE
  8
_0-2_body
  6
CONTINUOUS
 62
    7
 10
357.90776770390846
 20
63.807495138360622
 11
358.22023786442071
 21
63.194268141986143
  0
LINE
  8
_0-2_body
  6
CONTINUOUS
 62
    7
 10
358.22023786442071
 20
63.194268141986143
 11
358.70702985648654
 21
62.707131640371827
  0
LINE
  8
_0-2_body
  6
CONTINUOUS
 62
    7
 10
358.70702985648654
 20
62.707131640371827
 11
359.32042910763516
 21
62.394661479859678
  0
LINE
  8
_0-2_body
  6
CONTINUOUS
 62
    7
 10
359.32042910763516
 20
62.394661479859678
 11
359.99997419210069
 21
62.286829991171345
  0
LINE
  8
_0-2_body
  6
CONTINUOUS
 62
    7
 10
359.99997419210069
 20
62.286829991171345
 11
360.67986378611477
 21
62.394661479859678
  0
LINE
  8
_0-2_body
  6
CONTINUOUS
 62
    7
 10
360.67986378611477
 20
62.394661479859678
 11
361.29309078248923
 21
62.707131640371827
  0
LINE
  8
_0-2_body
  6
CONTINUOUS
 62
    7
 10
361.29309078248923
 20
62.707131640371827
 11
361.78005502932933
 21
63.194268141986143
  0
LINE
  8
_0-2_body
  6
CONTINUOUS
 62
    7
 10
361.78005502932933
 20
63.194268141986143
 11
362.0923529350672
 21
63.807495138360622
  0
LINE
  8
_0-2_body
  6
CONTINUOUS
 62
    7
 10
362.0923529350672
 20
63.807495138360622
 11
362.2001844237555
 21
64.487556987148949
  0
LINE
  8
_0-2_body
  6
CONTINUOUS
 62
    7
 10
362.2001844237555
 20
64.487556987148949
 11
362.2001844237555
 21
66.488640699756289
  0
LINE
  8
_0-2_body
  6
CONTINUOUS
 62
    7
 10
362.2001844237555
 20
66.488640699756289
 11
362.0923529350672
 21
67.16870254854463
  0
LINE
  8
_0-2_body
  6
CONTINUOUS
 62
    7
 10
362.0923529350672
 20
67.16870254854463
 11
361.78005502932933
 21
67.782101799693379
  0
LINE
  8
_0-2_body
  6
CONTINUOUS
 62
    7
 10
361.78005502932933
 20
67.782101799693379
 11
361.29309078248923
 21
68.269238301307695
  0
LINE
  8
_0-2_body
  6
CONTINUOUS
 62
    7
 10
361.29309078248923
 20
68.269238301307695
 11
360.67986378611477
 21
68.581536207045588
  0
LINE
  8
_0-2_body
  6
CONTINUOUS
 62
    7
 10
360.67986378611477
 20
68.581536207045588
 11
359.99997419210069
 21
68.689367695733893
  0
LINE
  8
_0-2_body
  6
CONTINUOUS
 62
    7
 10
359.99997419210069
 20
68.689367695733893
 11
359.32042910763516
 21
68.581536207045588
  0
LINE
  8
_0-2_body
  6
CONTINUOUS
 62
    7
 10
359.32042910763516
 20
68.581536207045588
 11
358.70702985648654
 21
68.269238301307695
  0
LINE
  8
_0-2_body
  6
CONTINUOUS
 62
    7
 10
358.70702985648654
 20
68.269238301307695
 11
358.22023786442071
 21
67.782101799693379
  0
LINE
  8
_0-2_body
  6
CONTINUOUS
 62
    7
 10
358.22023786442071
 20
67.782101799693379
 11
357.90776770390846
 21
67.16870254854463
  0
LINE
  8
_0-2_body
  6
CONTINUOUS
 62
    7
 10
357.90776770390846
 20
67.16870254854463
 11
357.79959170567162
 21
66.488640699756289
  0
LINE
  8
_0-2_body
  6
CONTINUOUS
 62
    7
 10
359.09977074180489
 20
-66.6472465824979
 11
360.90034989717071
 21
-66.6472465824979
  0
LINE
  8
_0-2_body
  6
CONTINUOUS
 62
    7
 10
360.90034989717071
 20
-66.6472465824979
 11
361.54802784839774
 21
-66.545616265683009
  0
LINE
  8
_0-2_body
  6
CONTINUOUS
 62
    7
 10
361.54802784839774
 20
-66.545616265683009
 11
362.1335218261159
 21
-66.245548448917759
  0
LINE
  8
_0-2_body
  6
CONTINUOUS
 62
    7
 10
362.1335218261159
 20
-66.245548448917759
 11
362.59757618797909
 21
-65.781494087054568
  0
LINE
  8
_0-2_body
  6
CONTINUOUS
 62
    7
 10
362.59757618797909
 20
-65.781494087054568
 11
362.89609371177596
 21
-65.195827854562168
  0
LINE
  8
_0-2_body
  6
CONTINUOUS
 62
    7
 10
362.89609371177596
 20
-65.195827854562168
 11
362.99961883110768
 21
-64.547805393786689
  0
LINE
  8
_0-2_body
  6
CONTINUOUS
 62
    7
 10
362.99961883110768
 20
-64.547805393786689
 11
362.89609371177596
 21
-63.897715875719996
  0
LINE
  8
_0-2_body
  6
CONTINUOUS
 62
    7
 10
362.89609371177596
 20
-63.897715875719996
 11
362.59757618797909
 21
-63.311705133678998
  0
LINE
  8
_0-2_body
  6
CONTINUOUS
 62
    7
 10
362.59757618797909
 20
-63.311705133678998
 11
362.1335218261159
 21
-62.847995281364405
  0
LINE
  8
_0-2_body
  6
CONTINUOUS
 62
    7
 10
362.1335218261159
 20
-62.847995281364405
 11
361.54802784839774
 21
-62.548960993244691
  0
LINE
  8
_0-2_body
  6
CONTINUOUS
 62
    7
 10
361.54802784839774
 20
-62.548960993244691
 11
360.90034989717071
 21
-62.446986166881288
  0
LINE
  8
_0-2_body
  6
CONTINUOUS
 62
    7
 10
360.90034989717071
 20
-62.446986166881288
 11
359.09977074180489
 21
-62.446986166881288
  0
LINE
  8
_0-2_body
  6
CONTINUOUS
 62
    7
 10
359.09977074180489
 20
-62.446986166881288
 11
358.44968122373831
 21
-62.548960993244691
  0
LINE
  8
_0-2_body
  6
CONTINUOUS
 62
    7
 10
358.44968122373831
 20
-62.548960993244691
 11
357.86418724602009
 21
-62.847995281364405
  0
LINE
  8
_0-2_body
  6
CONTINUOUS
 62
    7
 10
357.86418724602009
 20
-62.847995281364405
 11
357.39996062938269
 21
-63.311705133678998
  0
LINE
  8
_0-2_body
  6
CONTINUOUS
 62
    7
 10
357.39996062938269
 20
-63.311705133678998
 11
357.10161536036003
 21
-63.897715875719996
  0
LINE
  8
_0-2_body
  6
CONTINUOUS
 62
    7
 10
357.10161536036003
 20
-63.897715875719996
 11
356.99826249580246
 21
-64.547805393786689
  0
LINE
  8
_0-2_body
  6
CONTINUOUS
 62
    7
 10
356.99826249580246
 20
-64.547805393786689
 11
357.10161536036003
 21
-65.195827854562168
  0
LINE
  8
_0-2_body
  6
CONTINUOUS
 62
    7
 10
357.10161536036003
 20
-65.195827854562168
 11
357.39996062938269
 21
-65.781494087054568
  0
LINE
  8
_0-2_body
  6
CONTINUOUS
 62
    7
 10
357.39996062938269
 20
-65.781494087054568
 11
357.86418724602009
 21
-66.245548448917759
  0
LINE
  8
_0-2_body
  6
CONTINUOUS
 62
    7
 10
357.86418724602009
 20
-66.245548448917759
 11
358.44968122373831
 21
-66.545616265683009
  0
LINE
  8
_0-2_body
  6
CONTINUOUS
 62
    7
 10
358.44968122373831
 20
-66.545616265683009
 11
359.09977074180489
 21
-66.6472465824979
  0
LINE
  8
_0-2_body
  6
CONTINUOUS
 62
    7
 10
372.20043534356449
 20
-60.245914661355158
 11
372.20043534356449
 21
-63.046777290863304
  0
LINE
  8
_0-2_body
  6
CONTINUOUS
 62
    7
 10
347.79968529541122
 20
-63.046777290863304
 11
347.79968529541122
 21
-60.245914661355158
  0
LINE
  8
_0-2_body
  6
CONTINUOUS
 62
    7
 10
352.49879553729204
 20
-66.548027832522706
 11
353.18333601021106
 21
-66.427449490539004
  0
LINE
  8
_0-2_body
  6
CONTINUOUS
 62
    7
 10
353.18333601021106
 20
-66.427449490539004
 11
353.78502193671
 21
-66.08018386562577
  0
LINE
  8
_0-2_body
  6
CONTINUOUS
 62
    7
 10
353.78502193671
 20
-66.08018386562577
 11
354.23030052817853
 21
-65.547227594057716
  0
LINE
  8
_0-2_body
  6
CONTINUOUS
 62
    7
 10
354.23030052817853
 20
-65.547227594057716
 11
354.46956240962913
 21
-64.894381999602814
  0
LINE
  8
_0-2_body
  6
CONTINUOUS
 62
    7
 10
354.46956240962913
 20
-64.894381999602814
 11
354.46956240962913
 21
-64.199506240227862
  0
LINE
  8
_0-2_body
  6
CONTINUOUS
 62
    7
 10
354.46956240962913
 20
-64.199506240227862
 11
354.23030052817853
 21
-63.547694174418638
  0
LINE
  8
_0-2_body
  6
CONTINUOUS
 62
    7
 10
354.23030052817853
 20
-63.547694174418638
 11
353.78502193671
 21
-63.015426921947636
  0
LINE
  8
_0-2_body
  6
CONTINUOUS
 62
    7
 10
353.78502193671
 20
-63.015426921947636
 11
353.18333601021106
 21
-62.667816787485805
  0
LINE
  8
_0-2_body
  6
CONTINUOUS
 62
    7
 10
353.18333601021106
 20
-62.667816787485805
 11
352.49879553729204
 21
-62.546549426405107
  0
LINE
  8
_0-2_body
  6
CONTINUOUS
 62
    7
 10
347.49875620477462
 20
-63.046777290863304
 11
347.79968529541122
 21
-63.046777290863304
  0
LINE
  8
_0-2_body
  6
CONTINUOUS
 62
    7
 10
347.79968529541122
 20
-60.245914661355158
 11
347.49875620477462
 21
-60.245914661355158
  0
LINE
  8
_0-2_body
  6
CONTINUOUS
 62
    7
 10
372.20043534356449
 20
-63.046777290863304
 11
372.4987806125871
 21
-63.046777290863304
  0
LINE
  8
_0-2_body
  6
CONTINUOUS
 62
    7
 10
372.4987806125871
 20
-60.245914661355158
 11
372.20043534356449
 21
-60.245914661355158
  0
LINE
  8
_0-2_body
  6
CONTINUOUS
 62
    7
 10
372.99952524136813
 20
104.69802247188801
 11
372.4987806125871
 21
104.69802247188801
  0
LINE
  8
_0-2_body
  6
CONTINUOUS
 62
    7
 10
347.49875620477462
 20
104.69802247188801
 11
347.0004231428332
 21
104.69802247188801
  0
LINE
  8
_0-2_body
  6
CONTINUOUS
 62
    7
 10
364.89907222690022
 20
-76.350358016704092
 11
361.49962425682997
 21
-76.350358016704092
  0
LINE
  8
_0-2_body
  6
CONTINUOUS
 62
    7
 10
358.5001518725972
 20
-76.350358016704092
 11
355.09880910000999
 21
-76.350358016704092
  0
LINE
  8
_0-2_body
  6
CONTINUOUS
 62
    7
 10
365.99926347011484
 20
-76.350358016704092
 11
365.99926347011484
 21
-77.850352590981913
  0
LINE
  8
_0-2_body
  6
CONTINUOUS
 62
    7
 10
353.99861785679548
 20
-77.850352590981913
 11
353.99861785679548
 21
-76.350358016704092
  0
LINE
  8
_0-2_body
  6
CONTINUOUS
 62
    7
 10
353.50028479485411
 20
-78.35058045544011
 11
353.8516845343496
 21
-78.204163897316988
  0
LINE
  8
_0-2_body
  6
CONTINUOUS
 62
    7
 10
353.8516845343496
 20
-78.204163897316988
 11
353.99861785679548
 21
-77.850352590981913
  0
LINE
  8
_0-2_body
  6
CONTINUOUS
 62
    7
 10
349.49932315305921
 20
-78.35058045544011
 11
353.50028479485411
 21
-78.35058045544011
  0
LINE
  8
_0-2_body
  6
CONTINUOUS
 62
    7
 10
348.99857852427806
 20
-77.850352590981913
 11
349.14568410149832
 21
-78.204163897316988
  0
LINE
  8
_0-2_body
  6
CONTINUOUS
 62
    7
 10
349.14568410149832
 20
-78.204163897316988
 11
349.49932315305921
 21
-78.35058045544011
  0
LINE
  8
_0-2_body
  6
CONTINUOUS
 62
    7
 10
348.99857852427806
 20
-76.350358016704092
 11
348.99857852427806
 21
-77.850352590981913
  0
LINE
  8
_0-2_body
  6
CONTINUOUS
 62
    7
 10
370.99913054785793
 20
-77.850352590981913
 11
370.99913054785793
 21
-76.350358016704092
  0
LINE
  8
_0-2_body
  6
CONTINUOUS
 62
    7
 10
370.49838591907678
 20
-78.35058045544011
 11
370.91420894414648
 21
-78.128716306190086
  0
LINE
  8
_0-2_body
  6
CONTINUOUS
 62
    7
 10
370.91420894414648
 20
-78.128716306190086
 11
370.99913054785793
 21
-77.850352590981913
  0
LINE
  8
_0-2_body
  6
CONTINUOUS
 62
    7
 10
366.49966358934728
 20
-78.35058045544011
 11
370.49838591907678
 21
-78.35058045544011
  0
LINE
  8
_0-2_body
  6
CONTINUOUS
 62
    7
 10
365.99926347011484
 20
-77.850352590981913
 11
366.14602453778639
 21
-78.204163897316988
  0
LINE
  8
_0-2_body
  6
CONTINUOUS
 62
    7
 10
366.14602453778639
 20
-78.204163897316988
 11
366.49966358934728
 21
-78.35058045544011
  0
LINE
  8
_0-2_body
  6
CONTINUOUS
 62
    7
 10
358.5346028274497
 20
-83.399712398622313
 11
359.22603349133931
 21
-83.399712398622313
  0
LINE
  8
_0-2_body
  6
CONTINUOUS
 62
    7
 10
359.22603349133931
 20
-83.399712398622313
 11
359.97930361918918
 21
-83.399712398622313
  0
LINE
  8
_0-2_body
  6
CONTINUOUS
 62
    7
 10
359.97930361918918
 20
-83.399712398622313
 11
360.73274600181344
 21
-83.399712398622313
  0
LINE
  8
_0-2_body
  6
CONTINUOUS
 62
    7
 10
360.73274600181344
 20
-83.399712398622313
 11
361.42865528983384
 21
-83.399712398622313
  0
LINE
  8
_0-2_body
  6
CONTINUOUS
 62
    7
 10
361.42865528983384
 20
-83.399712398622313
 11
362.0074313313558
 21
-83.399712398622313
  0
LINE
  8
_0-2_body
  6
CONTINUOUS
 62
    7
 10
362.0074313313558
 20
-83.399712398622313
 11
362.42549366849079
 21
-83.399712398622313
  0
LINE
  8
_0-2_body
  6
CONTINUOUS
 62
    7
 10
362.42549366849079
 20
-83.399712398622313
 11
362.64597977954679
 21
-83.399712398622313
  0
LINE
  8
_0-2_body
  6
CONTINUOUS
 62
    7
 10
357.34725066845829
 20
-83.399712398622313
 11
357.5561957096387
 21
-83.399712398622313
  0
LINE
  8
_0-2_body
  6
CONTINUOUS
 62
    7
 10
357.5561957096387
 20
-83.399712398622313
 11
357.96288923167253
 21
-83.399712398622313
  0
LINE
  8
_0-2_body
  6
CONTINUOUS
 62
    7
 10
357.96288923167253
 20
-83.399712398622313
 11
358.5346028274497
 21
-83.399712398622313
  0
LINE
  8
_0-2_body
  6
CONTINUOUS
 62
    7
 10
358.92734371276822
 20
-84.272699594584594
 11
359.51783307893999
 21
-84.272699594584594
  0
LINE
  8
_0-2_body
  6
CONTINUOUS
 62
    7
 10
359.51783307893999
 20
-84.272699594584594
 11
360.16086015126189
 21
-84.272699594584594
  0
LINE
  8
_0-2_body
  6
CONTINUOUS
 62
    7
 10
360.16086015126189
 20
-84.272699594584594
 11
360.78562821751188
 21
-84.272699594584594
  0
LINE
  8
_0-2_body
  6
CONTINUOUS
 62
    7
 10
360.78562821751188
 20
-84.272699594584594
 11
361.32754173734168
 21
-84.272699594584594
  0
LINE
  8
_0-2_body
  6
CONTINUOUS
 62
    7
 10
361.32754173734168
 20
-84.272699594584594
 11
361.72252193472559
 21
-84.272699594584594
  0
LINE
  8
_0-2_body
  6
CONTINUOUS
 62
    7
 10
361.72252193472559
 20
-84.272699594584594
 11
361.93163923068028
 21
-84.272699594584594
  0
LINE
  8
_0-2_body
  6
CONTINUOUS
 62
    7
 10
358.03868133234801
 20
-84.272699594584594
 11
358.14634056626198
 21
-84.272699594584594
  0
LINE
  8
_0-2_body
  6
CONTINUOUS
 62
    7
 10
358.14634056626198
 20
-84.272699594584594
 11
358.45209279057804
 21
-84.272699594584594
  0
LINE
  8
_0-2_body
  6
CONTINUOUS
 62
    7
 10
358.45209279057804
 20
-84.272699594584594
 11
358.92734371276822
 21
-84.272699594584594
  0
LINE
  8
_0-2_body
  6
CONTINUOUS
 62
    7
 10
359.46477860846721
 20
-84.482850419184842
 11
359.46477860846721
 21
-84.381220102370008
  0
INSERT
  2
-000-block_2
  8
_0-2_body
 10
210
 20
148.5
 41
1000000
 42
1000000
 50
0
  0
INSERT
  2
-001-block_3
  8
_0-2_body
 10
210
 20
148.5
 41
1000000
 42
1000000
 50
0
  0
INSERT
  2
-002-block_4
  8
_0-2_body
 10
210
 20
148.5
 41
1000000
 42
1000000
 50
0
  0
INSERT
  2
-003-block_5
  8
_0-2_body
 10
210
 20
148.5
 41
1000000
 42
1000000
 50
0
  0
INSERT
  2
-004-block_6
  8
_0-2_body
 10
210
 20
148.5
 41
1000000
 42
1000000
 50
0
  0
INSERT
  2
-005-block_7
  8
_0-2_body
 10
210
 20
148.5
 41
1000000
 42
1000000
 50
0
  0
INSERT
  2
-006-block_8
  8
_0-2_body
 10
210
 20
148.5
 41
1000000
 42
1000000
 50
0
  0
INSERT
  2
-007-block_9
  8
_0-2_body
 10
210
 20
148.5
 41
1000000
 42
1000000
 50
0
  0
INSERT
  2
-008-block_10
  8
_0-2_body
 10
210
 20
148.5
 41
1000000
 42
1000000
 50
0
  0
LINE
  8
_0-2_body
  6
CONTINUOUS
 62
    7
 10
509.99994838420139
 20
105.20789660370497
 11
509.99994838420139
 21
-82.207709360725886
  0
LINE
  8
_0-2_body
  6
CONTINUOUS
 62
    7
 10
518.80113382036916
 20
103.470879460042
 11
520.00002704923611
 21
102.26940240956112
  0
LINE
  8
_0-2_body
  6
CONTINUOUS
 62
    7
 10
520.00002704923611
 20
-77.27605517359072
 11
520.00002704923611
 21
102.48299832964662
  0
LINE
  8
_0-2_body
  6
CONTINUOUS
 62
    7
 10
518.80113382036916
 20
-85.499842606430605
 11
518.80113382036916
 21
108.50002984940971
  0
LINE
  8
_0-2_body
  6
CONTINUOUS
 62
    7
 10
512.23271476819173
 20
-84.753290414777013
 11
511.34491366164298
 21
-84.466313960855587
  0
LINE
  8
_0-2_body
  6
CONTINUOUS
 62
    7
 10
511.34491366164298
 20
-84.466313960855587
 11
510.63729104897271
 21
-83.901318301274671
  0
LINE
  8
_0-2_body
  6
CONTINUOUS
 62
    7
 10
510.63729104897271
 20
-83.901318301274671
 11
510.16910257252721
 21
-83.12582730754491
  0
LINE
  8
_0-2_body
  6
CONTINUOUS
 62
    7
 10
510.16910257252721
 20
-83.12582730754491
 11
509.99994838420139
 21
-82.207709360725886
  0
LINE
  8
_0-2_body
  6
CONTINUOUS
 62
    7
 10
518.70949428046151
 20
-78.475637421554694
 11
519.91079907616813
 21
-77.27605517359072
  0
LINE
  8
_0-2_body
  6
CONTINUOUS
 62
    7
 10
512.23271476819173
 20
-84.753290414777013
 11
518.80113382036916
 21
-85.499842606430605
  0
LINE
  8
_0-2_body
  6
CONTINUOUS
 62
    7
 10
512.23271476819173
 20
107.75330540298179
 11
511.34491366164298
 21
107.46615669428623
  0
LINE
  8
_0-2_body
  6
CONTINUOUS
 62
    7
 10
511.34491366164298
 20
107.46615669428623
 11
510.63729104897271
 21
106.900988779931
  0
LINE
  8
_0-2_body
  6
CONTINUOUS
 62
    7
 10
510.63729104897271
 20
106.900988779931
 11
510.16910257252721
 21
106.12567004097554
  0
LINE
  8
_0-2_body
  6
CONTINUOUS
 62
    7
 10
510.16910257252721
 20
106.12567004097554
 11
509.99994838420139
 21
105.20789660370497
  0
LINE
  8
_0-2_body
  6
CONTINUOUS
 62
    7
 10
512.23271476819173
 20
107.75330540298179
 11
518.80113382036916
 21
108.50002984940971
  0
LINE
  8
_0-2_body
  6
CONTINUOUS
 62
    7
 10
473.71241312851629
 20
98.879772961623814
 11
470.29591193579409
 21
99.316783323927737
  0
LINE
  8
_0-2_body
  6
CONTINUOUS
 62
    7
 10
470.29591193579409
 20
99.316783323927737
 11
466.86976447571311
 21
99.628908974891374
  0
LINE
  8
_0-2_body
  6
CONTINUOUS
 62
    7
 10
466.86976447571311
 20
99.628908974891374
 11
463.43672682466172
 21
99.816322169288966
  0
LINE
  8
_0-2_body
  6
CONTINUOUS
 62
    7
 10
463.43672682466172
 20
99.816322169288966
 11
460.00024407812498
 21
99.878678397572003
  0
LINE
  8
_0-2_body
  6
CONTINUOUS
 62
    7
 10
460.00024407812498
 20
99.878678397572003
 11
456.56410584113678
 21
99.816322169288966
  0
LINE
  8
_0-2_body
  6
CONTINUOUS
 62
    7
 10
456.56410584113678
 20
99.816322169288966
 11
453.13106819008533
 21
99.628908974891374
  0
LINE
  8
_0-2_body
  6
CONTINUOUS
 62
    7
 10
453.13106819008533
 20
99.628908974891374
 11
449.70492073000429
 21
99.316783323927737
  0
LINE
  8
_0-2_body
  6
CONTINUOUS
 62
    7
 10
449.70492073000429
 20
99.316783323927737
 11
446.2884195372821
 21
98.879772961623814
  0
LINE
  8
_0-2_body
  6
CONTINUOUS
 62
    7
 10
475.0012233495483
 20
97.354801445077953
 11
474.90372714731569
 21
97.901365843812854
  0
LINE
  8
_0-2_body
  6
CONTINUOUS
 62
    7
 10
474.90372714731569
 20
97.901365843812854
 11
474.63363166127209
 21
98.364042167481912
  0
LINE
  8
_0-2_body
  6
CONTINUOUS
 62
    7
 10
474.63363166127209
 20
98.364042167481912
 11
474.22538784627011
 21
98.703211818004746
  0
LINE
  8
_0-2_body
  6
CONTINUOUS
 62
    7
 10
474.22538784627011
 20
98.703211818004746
 11
473.71241312851629
 21
98.879772961623814
  0
LINE
  8
_0-2_body
  6
CONTINUOUS
 62
    7
 10
446.2884195372821
 20
98.879772961623814
 11
445.77544481952839
 21
98.703211818004746
  0
LINE
  8
_0-2_body
  6
CONTINUOUS
 62
    7
 10
445.77544481952839
 20
98.703211818004746
 11
445.36685649497781
 21
98.364042167481912
  0
LINE
  8
_0-2_body
  6
CONTINUOUS
 62
    7
 10
445.36685649497781
 20
98.364042167481912
 11
445.09710551848269
 21
97.901365843812854
  0
LINE
  8
_0-2_body
  6
CONTINUOUS
 62
    7
 10
445.09710551848269
 20
97.901365843812854
 11
444.99960931625009
 21
97.354801445077953
  0
LINE
  8
_0-2_body
  6
CONTINUOUS
 62
    7
 10
444.99960931625009
 20
97.354801445077953
 11
444.99960931625009
 21
8.9453830644025061
  0
LINE
  8
_0-2_body
  6
CONTINUOUS
 62
    7
 10
475.0012233495483
 20
-74.354269692550304
 11
475.0012233495483
 21
8.8594279320454916
  0
LINE
  8
_0-2_body
  6
CONTINUOUS
 62
    7
 10
475.0012233495483
 20
8.8594279320454916
 11
475.0012233495483
 21
97.354801445077953
  0
LINE
  8
_0-2_body
  6
CONTINUOUS
 62
    7
 10
473.71241312851629
 20
-75.878379935224899
 11
474.22538784627011
 21
-75.702680065477125
  0
LINE
  8
_0-2_body
  6
CONTINUOUS
 62
    7
 10
474.22538784627011
 20
-75.702680065477125
 11
474.63363166127209
 21
-75.363338160180035
  0
LINE
  8
_0-2_body
  6
CONTINUOUS
 62
    7
 10
474.63363166127209
 20
-75.363338160180035
 11
474.90372714731569
 21
-74.900661836510892
  0
LINE
  8
_0-2_body
  6
CONTINUOUS
 62
    7
 10
474.90372714731569
 20
-74.900661836510892
 11
475.0012233495483
 21
-74.354269692550304
  0
LINE
  8
_0-2_body
  6
CONTINUOUS
 62
    7
 10
446.2884195372821
 20
-75.878379935224899
 11
447.99511984067476
 21
-76.112646428221808
  0
LINE
  8
_0-2_body
  6
CONTINUOUS
 62
    7
 10
447.99511984067476
 20
-76.112646428221808
 11
449.70492073000429
 21
-76.315562552303135
  0
LINE
  8
_0-2_body
  6
CONTINUOUS
 62
    7
 10
449.70492073000429
 20
-76.315562552303135
 11
451.41713318617349
 21
-76.487472817016993
  0
LINE
  8
_0-2_body
  6
CONTINUOUS
 62
    7
 10
451.41713318617349
 20
-76.487472817016993
 11
453.13106819008533
 21
-76.6276882032667
  0
LINE
  8
_0-2_body
  6
CONTINUOUS
 62
    7
 10
453.13106819008533
 20
-76.6276882032667
 11
454.84707025128819
 21
-76.73689773014911
  0
LINE
  8
_0-2_body
  6
CONTINUOUS
 62
    7
 10
454.84707025128819
 20
-76.73689773014911
 11
456.56410584113678
 21
-76.815101397664307
  0
LINE
  8
_0-2_body
  6
CONTINUOUS
 62
    7
 10
456.56410584113678
 20
-76.815101397664307
 11
458.28217495963088
 21
-76.861954696263695
  0
LINE
  8
_0-2_body
  6
CONTINUOUS
 62
    7
 10
458.28217495963088
 20
-76.861954696263695
 11
460.00024407812498
 21
-76.877457625947329
  0
LINE
  8
_0-2_body
  6
CONTINUOUS
 62
    7
 10
460.00024407812498
 20
-76.877457625947329
 11
461.71865770616762
 21
-76.861954696263695
  0
LINE
  8
_0-2_body
  6
CONTINUOUS
 62
    7
 10
461.71865770616762
 20
-76.861954696263695
 11
463.43672682466172
 21
-76.815101397664307
  0
LINE
  8
_0-2_body
  6
CONTINUOUS
 62
    7
 10
463.43672682466172
 20
-76.815101397664307
 11
465.1537624145102
 21
-76.73689773014911
  0
LINE
  8
_0-2_body
  6
CONTINUOUS
 62
    7
 10
465.1537624145102
 20
-76.73689773014911
 11
466.86976447571311
 21
-76.6276882032667
  0
LINE
  8
_0-2_body
  6
CONTINUOUS
 62
    7
 10
466.86976447571311
 20
-76.6276882032667
 11
468.58404398917338
 21
-76.487472817016993
  0
LINE
  8
_0-2_body
  6
CONTINUOUS
 62
    7
 10
468.58404398917338
 20
-76.487472817016993
 11
470.29591193579409
 21
-76.315562552303135
  0
LINE
  8
_0-2_body
  6
CONTINUOUS
 62
    7
 10
470.29591193579409
 20
-76.315562552303135
 11
472.00571282512362
 21
-76.112646428221808
  0
LINE
  8
_0-2_body
  6
CONTINUOUS
 62
    7
 10
472.00571282512362
 20
-76.112646428221808
 11
473.71241312851629
 21
-75.878379935224899
  0
LINE
  8
_0-2_body
  6
CONTINUOUS
 62
    7
 10
444.99960931625009
 20
-74.354269692550304
 11
445.09710551848269
 21
-74.900661836510892
  0
LINE
  8
_0-2_body
  6
CONTINUOUS
 62
    7
 10
445.09710551848269
 20
-74.900661836510892
 11
445.36685649497781
 21
-75.363338160180035
  0
LINE
  8
_0-2_body
  6
CONTINUOUS
 62
    7
 10
445.36685649497781
 20
-75.363338160180035
 11
445.77544481952839
 21
-75.702680065477125
  0
LINE
  8
_0-2_body
  6
CONTINUOUS
 62
    7
 10
445.77544481952839
 20
-75.702680065477125
 11
446.2884195372821
 21
-75.878379935224899
  0
LINE
  8
_0-2_body
  6
CONTINUOUS
 62
    7
 10
444.99960931625009
 20
-74.354269692550304
 11
444.99960931625009
 21
9.0351278017932941
  0
LINE
  8
_0-2_body
  6
CONTINUOUS
 62
    7
 10
480.00005689864582
 20
103.87740072730148
 11
480.00005689864582
 21
8.9453830644025061
  0
LINE
  8
_0-2_body
  6
CONTINUOUS
 62
    7
 10
480.00005689864582
 20
-80.87583544612832
 11
480.00005689864582
 21
8.9453830644025061
  0
LINE
  8
_0-2_body
  6
CONTINUOUS
 62
    7
 10
440.00008674805548
 20
103.87740072730148
 11
440.00008674805548
 21
8.9453830644025061
  0
LINE
  8
_0-2_body
  6
CONTINUOUS
 62
    7
 10
440.00008674805548
 20
-80.87583544612832
 11
440.00008674805548
 21
8.9453830644025061
  0
LINE
  8
_0-2_body
  6
CONTINUOUS
 62
    7
 10
477.54335930811419
 20
106.85844185068817
 11
473.18152391423928
 21
107.57657200458848
  0
LINE
  8
_0-2_body
  6
CONTINUOUS
 62
    7
 10
473.18152391423928
 20
107.57657200458848
 11
468.79901794745302
 21
108.08954672234219
  0
LINE
  8
_0-2_body
  6
CONTINUOUS
 62
    7
 10
468.79901794745302
 20
108.08954672234219
 11
464.40307610827415
 21
108.39736600394927
  0
LINE
  8
_0-2_body
  6
CONTINUOUS
 62
    7
 10
464.40307610827415
 20
108.39736600394927
 11
460.00024407812498
 21
108.50002984940971
  0
LINE
  8
_0-2_body
  6
CONTINUOUS
 62
    7
 10
460.00024407812498
 20
108.50002984940971
 11
455.59741204797569
 21
108.39736600394927
  0
LINE
  8
_0-2_body
  6
CONTINUOUS
 62
    7
 10
455.59741204797569
 20
108.39736600394927
 11
451.20147020879693
 21
108.08954672234219
  0
LINE
  8
_0-2_body
  6
CONTINUOUS
 62
    7
 10
451.20147020879693
 20
108.08954672234219
 11
446.81896424201051
 21
107.57657200458848
  0
LINE
  8
_0-2_body
  6
CONTINUOUS
 62
    7
 10
446.81896424201051
 20
107.57657200458848
 11
442.45712884813571
 21
106.85844185068817
  0
LINE
  8
_0-2_body
  6
CONTINUOUS
 62
    7
 10
480.00005689864582
 20
103.829169390508
 11
479.81643330928199
 21
104.89163683815903
  0
LINE
  8
_0-2_body
  6
CONTINUOUS
 62
    7
 10
479.81643330928199
 20
104.89163683815903
 11
479.30552564881953
 21
105.80045302716795
  0
LINE
  8
_0-2_body
  6
CONTINUOUS
 62
    7
 10
479.30552564881953
 20
105.80045302716795
 11
478.52762308824998
 21
106.4808593855048
  0
LINE
  8
_0-2_body
  6
CONTINUOUS
 62
    7
 10
478.52762308824998
 20
106.4808593855048
 11
477.54335930811419
 21
106.85844185068817
  0
LINE
  8
_0-2_body
  6
CONTINUOUS
 62
    7
 10
442.45712884813571
 20
106.85844185068817
 11
441.47286506799992
 21
106.4808593855048
  0
LINE
  8
_0-2_body
  6
CONTINUOUS
 62
    7
 10
441.47286506799992
 20
106.4808593855048
 11
440.69496250743043
 21
105.80045302716795
  0
LINE
  8
_0-2_body
  6
CONTINUOUS
 62
    7
 10
440.69496250743043
 20
105.80045302716795
 11
440.18371033741937
 21
104.89163683815903
  0
LINE
  8
_0-2_body
  6
CONTINUOUS
 62
    7
 10
440.18371033741937
 20
104.89163683815903
 11
440.00008674805548
 21
103.829169390508
  0
LINE
  8
_0-2_body
  6
CONTINUOUS
 62
    7
 10
442.45712884813571
 20
-83.859632645903162
 11
444.63511821391069
 21
-84.244105302057136
  0
LINE
  8
_0-2_body
  6
CONTINUOUS
 62
    7
 10
444.63511821391069
 20
-84.244105302057136
 11
446.81896424201051
 21
-84.577246035480698
  0
LINE
  8
_0-2_body
  6
CONTINUOUS
 62
    7
 10
446.81896424201051
 20
-84.577246035480698
 11
449.00797791333832
 21
-84.859399355722701
  0
LINE
  8
_0-2_body
  6
CONTINUOUS
 62
    7
 10
449.00797791333832
 20
-84.859399355722701
 11
451.20147020879693
 21
-85.090220753234405
  0
LINE
  8
_0-2_body
  6
CONTINUOUS
 62
    7
 10
451.20147020879693
 20
-85.090220753234405
 11
453.39806309019218
 21
-85.269710228015924
  0
LINE
  8
_0-2_body
  6
CONTINUOUS
 62
    7
 10
453.39806309019218
 20
-85.269710228015924
 11
455.59741204797569
 21
-85.39752327051869
  0
LINE
  8
_0-2_body
  6
CONTINUOUS
 62
    7
 10
455.59741204797569
 20
-85.39752327051869
 11
457.7984835535018
 21
-85.474693409388294
  0
LINE
  8
_0-2_body
  6
CONTINUOUS
 62
    7
 10
457.7984835535018
 20
-85.474693409388294
 11
460.00024407812498
 21
-85.500187115979088
  0
LINE
  8
_0-2_body
  6
CONTINUOUS
 62
    7
 10
460.00024407812498
 20
-85.500187115979088
 11
462.20200460274816
 21
-85.474693409388294
  0
LINE
  8
_0-2_body
  6
CONTINUOUS
 62
    7
 10
462.20200460274816
 20
-85.474693409388294
 11
464.40307610827415
 21
-85.39752327051869
  0
LINE
  8
_0-2_body
  6
CONTINUOUS
 62
    7
 10
464.40307610827415
 20
-85.39752327051869
 11
466.60242506605778
 21
-85.269710228015924
  0
LINE
  8
_0-2_body
  6
CONTINUOUS
 62
    7
 10
466.60242506605778
 20
-85.269710228015924
 11
468.79901794745302
 21
-85.090220753234405
  0
LINE
  8
_0-2_body
  6
CONTINUOUS
 62
    7
 10
468.79901794745302
 20
-85.090220753234405
 11
470.99251024291158
 21
-84.859399355722701
  0
LINE
  8
_0-2_body
  6
CONTINUOUS
 62
    7
 10
470.99251024291158
 20
-84.859399355722701
 11
473.18152391423928
 21
-84.577246035480698
  0
LINE
  8
_0-2_body
  6
CONTINUOUS
 62
    7
 10
473.18152391423928
 20
-84.577246035480698
 11
475.36536994233921
 21
-84.244105302057136
  0
LINE
  8
_0-2_body
  6
CONTINUOUS
 62
    7
 10
475.36536994233921
 20
-84.244105302057136
 11
477.54335930811419
 21
-83.859632645903162
  0
LINE
  8
_0-2_body
  6
CONTINUOUS
 62
    7
 10
477.54335930811419
 20
-83.859632645903162
 11
478.52762308824998
 21
-83.481705671171312
  0
LINE
  8
_0-2_body
  6
CONTINUOUS
 62
    7
 10
478.52762308824998
 20
-83.481705671171312
 11
479.30552564881953
 21
-82.801299312834374
  0
LINE
  8
_0-2_body
  6
CONTINUOUS
 62
    7
 10
479.30552564881953
 20
-82.801299312834374
 11
479.81643330928199
 21
-81.892483123825514
  0
LINE
  8
_0-2_body
  6
CONTINUOUS
 62
    7
 10
479.81643330928199
 20
-81.892483123825514
 11
480.00005689864582
 21
-80.830015676174412
  0
LINE
  8
_0-2_body
  6
CONTINUOUS
 62
    7
 10
440.00008674805548
 20
-80.830015676174412
 11
440.18371033741937
 21
-81.892483123825514
  0
LINE
  8
_0-2_body
  6
CONTINUOUS
 62
    7
 10
440.18371033741937
 20
-81.892483123825514
 11
440.69496250743043
 21
-82.801299312834374
  0
LINE
  8
_0-2_body
  6
CONTINUOUS
 62
    7
 10
440.69496250743043
 20
-82.801299312834374
 11
441.47286506799992
 21
-83.481705671171312
  0
LINE
  8
_0-2_body
  6
CONTINUOUS
 62
    7
 10
441.47286506799992
 20
-83.481705671171312
 11
442.45712884813571
 21
-83.859632645903162
  0
LINE
  8
_0-2_body
  6
CONTINUOUS
 62
    7
 10
445.29933262346691
 20
97.354801445077953
 11
445.29933262346691
 21
8.9453830644025061
  0
LINE
  8
_0-2_body
  6
CONTINUOUS
 62
    7
 10
446.33079421175069
 20
98.574192992082146
 11
445.91944981081184
 21
98.433116331961173
  0
LINE
  8
_0-2_body
  6
CONTINUOUS
 62
    7
 10
445.91944981081184
 20
98.433116331961173
 11
445.59251024926164
 21
98.161815062497737
  0
LINE
  8
_0-2_body
  6
CONTINUOUS
 62
    7
 10
445.59251024926164
 20
98.161815062497737
 11
445.37719178143351
 21
97.79181180738189
  0
LINE
  8
_0-2_body
  6
CONTINUOUS
 62
    7
 10
445.37719178143351
 20
97.79181180738189
 11
445.29933262346691
 21
97.354801445077953
  0
LINE
  8
_0-2_body
  6
CONTINUOUS
 62
    7
 10
473.66934943495068
 20
98.574192992082146
 11
470.26352803823272
 21
99.010169825740519
  0
LINE
  8
_0-2_body
  6
CONTINUOUS
 62
    7
 10
470.26352803823272
 20
99.010169825740519
 11
466.84771586460761
 21
99.321606457607103
  0
LINE
  8
_0-2_body
  6
CONTINUOUS
 62
    7
 10
466.84771586460761
 20
99.321606457607103
 11
463.42535800956034
 21
99.508330632907644
  0
LINE
  8
_0-2_body
  6
CONTINUOUS
 62
    7
 10
463.42535800956034
 20
99.508330632907644
 11
460.00024407812498
 21
99.570686861190651
  0
LINE
  8
_0-2_body
  6
CONTINUOUS
 62
    7
 10
460.00024407812498
 20
99.570686861190651
 11
456.57478563714102
 21
99.508330632907644
  0
LINE
  8
_0-2_body
  6
CONTINUOUS
 62
    7
 10
456.57478563714102
 20
99.508330632907644
 11
453.15277229164241
 21
99.321606457607103
  0
LINE
  8
_0-2_body
  6
CONTINUOUS
 62
    7
 10
453.15277229164241
 20
99.321606457607103
 11
449.73696011801724
 21
99.010169825740519
  0
LINE
  8
_0-2_body
  6
CONTINUOUS
 62
    7
 10
449.73696011801724
 20
99.010169825740519
 11
446.33079421175069
 21
98.574192992082146
  0
LINE
  8
_0-2_body
  6
CONTINUOUS
 62
    7
 10
474.69908847549192
 20
97.354801445077953
 11
474.62122931752526
 21
97.79181180738189
  0
LINE
  8
_0-2_body
  6
CONTINUOUS
 62
    7
 10
474.62122931752526
 20
97.79181180738189
 11
474.40591084969708
 21
98.161815062497737
  0
LINE
  8
_0-2_body
  6
CONTINUOUS
 62
    7
 10
474.40591084969708
 20
98.161815062497737
 11
474.07966030724401
 21
98.433116331961173
  0
LINE
  8
_0-2_body
  6
CONTINUOUS
 62
    7
 10
474.07966030724401
 20
98.433116331961173
 11
473.66934943495068
 21
98.574192992082146
  0
LINE
  8
_0-2_body
  6
CONTINUOUS
 62
    7
 10
474.69908847549192
 20
-74.354269692550304
 11
474.69908847549192
 21
97.354801445077953
  0
LINE
  8
_0-2_body
  6
CONTINUOUS
 62
    7
 10
473.66934943495068
 20
-75.574178003877307
 11
474.07966030724401
 21
-75.433618108079088
  0
LINE
  8
_0-2_body
  6
CONTINUOUS
 62
    7
 10
474.07966030724401
 20
-75.433618108079088
 11
474.40591084969708
 21
-75.162144583841439
  0
LINE
  8
_0-2_body
  6
CONTINUOUS
 62
    7
 10
474.40591084969708
 20
-75.162144583841439
 11
474.62122931752526
 21
-74.791796819177108
  0
LINE
  8
_0-2_body
  6
CONTINUOUS
 62
    7
 10
474.62122931752526
 20
-74.791796819177108
 11
474.69908847549192
 21
-74.354269692550304
  0
LINE
  8
_0-2_body
  6
CONTINUOUS
 62
    7
 10
446.33079421175069
 20
-75.574178003877307
 11
448.03232687191553
 21
-75.808099987325761
  0
LINE
  8
_0-2_body
  6
CONTINUOUS
 62
    7
 10
448.03232687191553
 20
-75.808099987325761
 11
449.73696011801724
 21
-76.010327092309893
  0
LINE
  8
_0-2_body
  6
CONTINUOUS
 62
    7
 10
449.73696011801724
 20
-76.010327092309893
 11
451.44400493095839
 21
-76.181548337926813
  0
LINE
  8
_0-2_body
  6
CONTINUOUS
 62
    7
 10
451.44400493095839
 20
-76.181548337926813
 11
453.15277229164241
 21
-76.32176372417652
  0
LINE
  8
_0-2_body
  6
CONTINUOUS
 62
    7
 10
453.15277229164241
 20
-76.32176372417652
 11
454.8632622000689
 21
-76.43062874151039
  0
LINE
  8
_0-2_body
  6
CONTINUOUS
 62
    7
 10
454.8632622000689
 20
-76.43062874151039
 11
456.57478563714102
 21
-76.508487899476989
  0
LINE
  8
_0-2_body
  6
CONTINUOUS
 62
    7
 10
456.57478563714102
 20
-76.508487899476989
 11
458.2873426028587
 21
-76.555341198076491
  0
LINE
  8
_0-2_body
  6
CONTINUOUS
 62
    7
 10
458.2873426028587
 20
-76.555341198076491
 11
460.00024407812498
 21
-76.570844127760097
  0
LINE
  8
_0-2_body
  6
CONTINUOUS
 62
    7
 10
460.00024407812498
 20
-76.570844127760097
 11
461.7128010438426
 21
-76.555341198076491
  0
LINE
  8
_0-2_body
  6
CONTINUOUS
 62
    7
 10
461.7128010438426
 20
-76.555341198076491
 11
463.42535800956034
 21
-76.508487899476989
  0
LINE
  8
_0-2_body
  6
CONTINUOUS
 62
    7
 10
463.42535800956034
 20
-76.508487899476989
 11
465.13688144663251
 21
-76.43062874151039
  0
LINE
  8
_0-2_body
  6
CONTINUOUS
 62
    7
 10
465.13688144663251
 20
-76.43062874151039
 11
466.84771586460761
 21
-76.32176372417652
  0
LINE
  8
_0-2_body
  6
CONTINUOUS
 62
    7
 10
466.84771586460761
 20
-76.32176372417652
 11
468.55648322529146
 21
-76.181548337926813
  0
LINE
  8
_0-2_body
  6
CONTINUOUS
 62
    7
 10
468.55648322529146
 20
-76.181548337926813
 11
470.26352803823272
 21
-76.010327092309893
  0
LINE
  8
_0-2_body
  6
CONTINUOUS
 62
    7
 10
470.26352803823272
 20
-76.010327092309893
 11
471.96781677478577
 21
-75.808099987325761
  0
LINE
  8
_0-2_body
  6
CONTINUOUS
 62
    7
 10
471.96781677478577
 20
-75.808099987325761
 11
473.66934943495068
 21
-75.574178003877307
  0
LINE
  8
_0-2_body
  6
CONTINUOUS
 62
    7
 10
445.29933262346691
 20
-74.354269692550304
 11
445.37719178143351
 21
-74.791796819177108
  0
LINE
  8
_0-2_body
  6
CONTINUOUS
 62
    7
 10
445.37719178143351
 20
-74.791796819177108
 11
445.59251024926164
 21
-75.162144583841439
  0
LINE
  8
_0-2_body
  6
CONTINUOUS
 62
    7
 10
445.59251024926164
 20
-75.162144583841439
 11
445.91944981081184
 21
-75.433618108079088
  0
LINE
  8
_0-2_body
  6
CONTINUOUS
 62
    7
 10
445.91944981081184
 20
-75.433618108079088
 11
446.33079421175069
 21
-75.574178003877307
  0
LINE
  8
_0-2_body
  6
CONTINUOUS
 62
    7
 10
445.29933262346691
 20
-74.354269692550304
 11
445.29933262346691
 21
8.9453830644025061
  0
INSERT
  2
-009-block_11
  8
_0-2_body
 10
210
 20
148.5
 41
1000000
 42
1000000
 50
0
  0
INSERT
  2
-010-block_12
  8
_0-2_body
 10
210
 20
148.5
 41
1000000
 42
1000000
 50
0
  0
INSERT
  2
-011-block_13
  8
_0-2_body
 10
210
 20
148.5
 41
1000000
 42
1000000
 50
0
  0
INSERT
  2
-012-block_14
  8
_0-2_body
 10
210
 20
148.5
 41
1000000
 42
1000000
 50
0
  0
INSERT
  2
-013-block_15
  8
_0-2_body
 10
210
 20
148.5
 41
1000000
 42
1000000
 50
0
  0
INSERT
  2
-014-block_16
  8
_0-2_body
 10
210
 20
148.5
 41
1000000
 42
1000000
 50
0
  0
INSERT
  2
-015-block_17
  8
_0-2_body
 10
210
 20
148.5
 41
1000000
 42
1000000
 50
0
  0
INSERT
  2
-016-block_18
  8
_0-2_body
 10
210
 20
148.5
 41
1000000
 42
1000000
 50
0
  0
LINE
  8
_0-2_body
  6
CONTINUOUS
 62
    7
 10
476.80679789336762
 20
-96.50003249083332
 11
443.31392409531736
 21
-96.50003249083332
  0
LINE
  8
_0-2_body
  6
CONTINUOUS
 62
    7
 10
463.21176208947486
 20
-104.96669915538331
 11
463.21176208947486
 21
-101.169514911541
  0
LINE
  8
_0-2_body
  6
CONTINUOUS
 62
    7
 10
463.21176208947486
 20
-101.169514911541
 11
462.96061462860013
 21
-99.924112893623061
  0
LINE
  8
_0-2_body
  6
CONTINUOUS
 62
    7
 10
462.96061462860013
 20
-99.924112893623061
 11
462.27538513658391
 21
-98.906776196828901
  0
LINE
  8
_0-2_body
  6
CONTINUOUS
 62
    7
 10
462.27538513658391
 20
-98.906776196828901
 11
461.25873745888669
 21
-98.220513176167088
  0
LINE
  8
_0-2_body
  6
CONTINUOUS
 62
    7
 10
461.25873745888669
 20
-98.220513176167088
 11
460.01367995051737
 21
-97.9690212057439
  0
LINE
  8
_0-2_body
  6
CONTINUOUS
 62
    7
 10
460.01367995051737
 20
-97.9690212057439
 11
458.76862244214806
 21
-98.220513176167088
  0
LINE
  8
_0-2_body
  6
CONTINUOUS
 62
    7
 10
458.76862244214806
 20
-98.220513176167088
 11
457.75197476445089
 21
-98.906776196828901
  0
LINE
  8
_0-2_body
  6
CONTINUOUS
 62
    7
 10
457.75197476445089
 20
-98.906776196828901
 11
457.06674527243467
 21
-99.924112893623061
  0
LINE
  8
_0-2_body
  6
CONTINUOUS
 62
    7
 10
457.06674527243467
 20
-99.924112893623061
 11
456.81559781156
 21
-101.169514911541
  0
LINE
  8
_0-2_body
  6
CONTINUOUS
 62
    7
 10
456.81559781156
 20
-104.96669915538331
 11
456.81559781156
 21
-101.169514911541
  0
LINE
  8
_0-2_body
  6
CONTINUOUS
 62
    7
 10
460.01367995051737
 20
-104.96669915538331
 11
480.00005689864582
 21
-104.96669915538331
  0
LINE
  8
_0-2_body
  6
CONTINUOUS
 62
    7
 10
460.01367995051737
 20
-104.96669915538331
 11
440.02661398329201
 21
-104.96669915538331
  0
LINE
  8
_0-2_body
  6
CONTINUOUS
 62
    7
 10
445.29140890385077
 20
-106.13424201533454
 11
460.2817083792699
 21
-106.13424201533454
  0
LINE
  8
_0-2_body
  6
CONTINUOUS
 62
    7
 10
474.73353943034442
 20
-106.13424201533454
 11
460.11427673868673
 21
-106.13424201533454
  0
LINE
  8
_0-2_body
  6
CONTINUOUS
 62
    7
 10
445.29140890385077
 20
-106.13424201533454
 11
444.12386604389962
 21
-104.96669915538331
  0
LINE
  8
_0-2_body
  6
CONTINUOUS
 62
    7
 10
474.73353943034442
 20
-106.13424201533454
 11
475.90314934758669
 21
-104.96669915538331
  0
LINE
  8
_0-2_body
  6
CONTINUOUS
 62
    7
 10
462.47830126066509
 20
-106.13424201533454
 11
463.64549961106775
 21
-104.96669915538331
  0
LINE
  8
_0-2_body
  6
CONTINUOUS
 62
    7
 10
457.54905864036971
 20
-106.13424201533454
 11
456.38151578041857
 21
-104.96669915538331
  0
LINE
  8
_0-2_body
  6
CONTINUOUS
 62
    7
 10
462.61231547504144
 20
-101.169514911541
 11
462.4080213127661
 21
-100.15769036752309
  0
LINE
  8
_0-2_body
  6
CONTINUOUS
 62
    7
 10
462.4080213127661
 20
-100.15769036752309
 11
461.85129388234969
 21
-99.331211960611711
  0
LINE
  8
_0-2_body
  6
CONTINUOUS
 62
    7
 10
461.85129388234969
 20
-99.331211960611711
 11
461.02515998498677
 21
-98.77414002064674
  0
LINE
  8
_0-2_body
  6
CONTINUOUS
 62
    7
 10
461.02515998498677
 20
-98.77414002064674
 11
460.01367995051737
 21
-98.569845858371508
  0
LINE
  8
_0-2_body
  6
CONTINUOUS
 62
    7
 10
460.01367995051737
 20
-98.569845858371508
 11
459.00185540649943
 21
-98.77414002064674
  0
LINE
  8
_0-2_body
  6
CONTINUOUS
 62
    7
 10
459.00185540649943
 20
-98.77414002064674
 11
458.17572150913674
 21
-99.331211960611711
  0
LINE
  8
_0-2_body
  6
CONTINUOUS
 62
    7
 10
458.17572150913674
 20
-99.331211960611711
 11
457.61899407872022
 21
-100.15769036752309
  0
LINE
  8
_0-2_body
  6
CONTINUOUS
 62
    7
 10
457.61899407872022
 20
-100.15769036752309
 11
457.41504442599353
 21
-101.169514911541
  0
LINE
  8
_0-2_body
  6
CONTINUOUS
 62
    7
 10
457.41504442599353
 20
-101.169514911541
 11
457.61899407872022
 21
-102.17961690781618
  0
LINE
  8
_0-2_body
  6
CONTINUOUS
 62
    7
 10
457.61899407872022
 20
-102.17961690781618
 11
458.17572150913674
 21
-103.00506178608211
  0
LINE
  8
_0-2_body
  6
CONTINUOUS
 62
    7
 10
458.17572150913674
 20
-103.00506178608211
 11
459.00185540649943
 21
-103.56178921649851
  0
LINE
  8
_0-2_body
  6
CONTINUOUS
 62
    7
 10
459.00185540649943
 20
-103.56178921649851
 11
460.01367995051737
 21
-103.7657388692252
  0
LINE
  8
_0-2_body
  6
CONTINUOUS
 62
    7
 10
460.01367995051737
 20
-103.7657388692252
 11
461.02515998498677
 21
-103.56178921649851
  0
LINE
  8
_0-2_body
  6
CONTINUOUS
 62
    7
 10
461.02515998498677
 20
-103.56178921649851
 11
461.85129388234969
 21
-103.00506178608211
  0
LINE
  8
_0-2_body
  6
CONTINUOUS
 62
    7
 10
461.85129388234969
 20
-103.00506178608211
 11
462.4080213127661
 21
-102.17961690781618
  0
LINE
  8
_0-2_body
  6
CONTINUOUS
 62
    7
 10
462.4080213127661
 20
-102.17961690781618
 11
462.61231547504144
 21
-101.169514911541
  0
LINE
  8
_0-2_body
  6
CONTINUOUS
 62
    7
 10
460.91250536261907
 20
-100.76919481615488
 11
461.51160746750406
 21
-100.76919481615488
  0
LINE
  8
_0-2_body
  6
CONTINUOUS
 62
    7
 10
460.91250536261907
 20
-101.5684569687329
 11
461.51160746750406
 21
-101.5684569687329
  0
LINE
  8
_0-2_body
  6
CONTINUOUS
 62
    7
 10
461.51160746750406
 20
-100.76919481615488
 11
461.51160746750406
 21
-101.5684569687329
  0
LINE
  8
_0-2_body
  6
CONTINUOUS
 62
    7
 10
459.61301534558288
 20
-100.26793342305109
 11
459.61301534558288
 21
-99.669864846811691
  0
LINE
  8
_0-2_body
  6
CONTINUOUS
 62
    7
 10
460.41400004590349
 20
-100.26793342305109
 11
460.41400004590349
 21
-99.669864846811691
  0
LINE
  8
_0-2_body
  6
CONTINUOUS
 62
    7
 10
459.61301534558288
 20
-99.669864846811691
 11
460.41400004590349
 21
-99.669864846811691
  0
LINE
  8
_0-2_body
  6
CONTINUOUS
 62
    7
 10
459.11485453841578
 20
-101.5684569687329
 11
458.51540792398225
 21
-101.5684569687329
  0
LINE
  8
_0-2_body
  6
CONTINUOUS
 62
    7
 10
459.11485453841578
 20
-100.76919481615488
 11
458.51540792398225
 21
-100.76919481615488
  0
LINE
  8
_0-2_body
  6
CONTINUOUS
 62
    7
 10
458.51540792398225
 20
-101.5684569687329
 11
458.51540792398225
 21
-100.76919481615488
  0
LINE
  8
_0-2_body
  6
CONTINUOUS
 62
    7
 10
460.41400004590349
 20
-102.06868483319118
 11
460.41400004590349
 21
-102.66778693807606
  0
LINE
  8
_0-2_body
  6
CONTINUOUS
 62
    7
 10
459.61301534558288
 20
-102.06868483319118
 11
459.61301534558288
 21
-102.66778693807606
  0
LINE
  8
_0-2_body
  6
CONTINUOUS
 62
    7
 10
460.41400004590349
 20
-102.66778693807606
 11
459.61301534558288
 21
-102.66778693807606
  0
LINE
  8
_0-2_body
  6
CONTINUOUS
 62
    7
 10
460.41400004590349
 20
-100.26793342305109
 11
460.45327413443533
 21
-100.46327033706481
  0
LINE
  8
_0-2_body
  6
CONTINUOUS
 62
    7
 10
460.45327413443533
 20
-100.46327033706481
 11
460.56041660402661
 21
-100.62277825803181
  0
LINE
  8
_0-2_body
  6
CONTINUOUS
 62
    7
 10
460.56041660402661
 20
-100.62277825803181
 11
460.71889099634814
 21
-100.72992072762312
  0
LINE
  8
_0-2_body
  6
CONTINUOUS
 62
    7
 10
460.71889099634814
 20
-100.72992072762312
 11
460.91250536261907
 21
-100.76919481615488
  0
LINE
  8
_0-2_body
  6
CONTINUOUS
 62
    7
 10
459.11485453841578
 20
-100.76919481615488
 11
459.30846890468678
 21
-100.72992072762312
  0
LINE
  8
_0-2_body
  6
CONTINUOUS
 62
    7
 10
459.30846890468678
 20
-100.72992072762312
 11
459.46694329700836
 21
-100.62277825803181
  0
LINE
  8
_0-2_body
  6
CONTINUOUS
 62
    7
 10
459.46694329700836
 20
-100.62277825803181
 11
459.57374125705098
 21
-100.46327033706481
  0
LINE
  8
_0-2_body
  6
CONTINUOUS
 62
    7
 10
459.57374125705098
 20
-100.46327033706481
 11
459.61301534558288
 21
-100.26793342305109
  0
LINE
  8
_0-2_body
  6
CONTINUOUS
 62
    7
 10
459.61301534558288
 20
-102.06868483319118
 11
459.57374125705098
 21
-101.87369242872597
  0
LINE
  8
_0-2_body
  6
CONTINUOUS
 62
    7
 10
459.57374125705098
 20
-101.87369242872597
 11
459.46694329700836
 21
-101.71452901730751
  0
LINE
  8
_0-2_body
  6
CONTINUOUS
 62
    7
 10
459.46694329700836
 20
-101.71452901730751
 11
459.30846890468678
 21
-101.60773105726471
  0
LINE
  8
_0-2_body
  6
CONTINUOUS
 62
    7
 10
459.30846890468678
 20
-101.60773105726471
 11
459.11485453841578
 21
-101.5684569687329
  0
LINE
  8
_0-2_body
  6
CONTINUOUS
 62
    7
 10
460.91250536261907
 20
-101.5684569687329
 11
460.71889099634814
 21
-101.60773105726471
  0
LINE
  8
_0-2_body
  6
CONTINUOUS
 62
    7
 10
460.71889099634814
 20
-101.60773105726471
 11
460.56041660402661
 21
-101.71452901730751
  0
LINE
  8
_0-2_body
  6
CONTINUOUS
 62
    7
 10
460.56041660402661
 20
-101.71452901730751
 11
460.45327413443533
 21
-101.87369242872597
  0
LINE
  8
_0-2_body
  6
CONTINUOUS
 62
    7
 10
460.45327413443533
 20
-101.87369242872597
 11
460.41400004590349
 21
-102.06868483319118
  0
LINE
  8
_0-2_body
  6
CONTINUOUS
 62
    7
 10
440.83621142232573
 20
-98.67595479931714
 11
441.11595317572801
 21
-97.811580342067884
  0
LINE
  8
_0-2_body
  6
CONTINUOUS
 62
    7
 10
441.11595317572801
 20
-97.811580342067884
 11
441.66613492472243
 21
-97.121872225920896
  0
LINE
  8
_0-2_body
  6
CONTINUOUS
 62
    7
 10
441.66613492472243
 20
-97.121872225920896
 11
442.42061083599208
 21
-96.665397074125309
  0
LINE
  8
_0-2_body
  6
CONTINUOUS
 62
    7
 10
442.42061083599208
 20
-96.665397074125309
 11
443.31392409531736
 21
-96.50003249083332
  0
LINE
  8
_0-2_body
  6
CONTINUOUS
 62
    7
 10
440.83621142232573
 20
-98.67595479931714
 11
440.00008674805548
 21
-104.96256504080102
  0
LINE
  8
_0-2_body
  6
CONTINUOUS
 62
    7
 10
479.28485507590801
 20
-98.674232251574495
 11
479.00511332250568
 21
-97.809857794325325
  0
LINE
  8
_0-2_body
  6
CONTINUOUS
 62
    7
 10
479.00511332250568
 20
-97.809857794325325
 11
478.45493157351132
 21
-97.12049418772682
  0
LINE
  8
_0-2_body
  6
CONTINUOUS
 62
    7
 10
478.45493157351132
 20
-97.12049418772682
 11
477.70011115269301
 21
-96.664708055028314
  0
LINE
  8
_0-2_body
  6
CONTINUOUS
 62
    7
 10
477.70011115269301
 20
-96.664708055028314
 11
476.80679789336762
 21
-96.50003249083332
  0
LINE
  8
_0-2_body
  6
CONTINUOUS
 62
    7
 10
479.28485507590801
 20
-98.674232251574495
 11
480.00005689864582
 21
-104.96669915538331
  0
LINE
  8
_0-2_body
  6
CONTINUOUS
 62
    7
 10
556.89941126310157
 20
-78.448421167221227
 11
563.10092764609976
 21
-78.448421167221227
  0
LINE
  8
_0-2_body
  6
CONTINUOUS
 62
    7
 10
563.10092764609976
 20
-78.448421167221227
 11
563.10092764609976
 21
-80.950594018158199
  0
LINE
  8
_0-2_body
  6
CONTINUOUS
 62
    7
 10
556.89941126310157
 20
-80.950594018158199
 11
556.89941126310157
 21
-78.448421167221227
  0
LINE
  8
_0-2_body
  6
CONTINUOUS
 62
    7
 10
577.99993209115974
 20
81.992776166800411
 11
577.00050989088879
 21
81.992776166800411
  0
LINE
  8
_0-2_body
  6
CONTINUOUS
 62
    7
 10
577.00050989088879
 20
80.99335396652944
 11
577.99993209115974
 21
80.99335396652944
  0
LINE
  8
_0-2_body
  6
CONTINUOUS
 62
    7
 10
577.99993209115974
 20
71.990113680151779
 11
577.00050989088879
 21
71.990113680151779
  0
LINE
  8
_0-2_body
  6
CONTINUOUS
 62
    7
 10
577.00050989088879
 20
70.990863734655065
 11
577.99993209115974
 21
70.990863734655065
  0
LINE
  8
_0-2_body
  6
CONTINUOUS
 62
    7
 10
542.99982901831254
 20
81.992776166800411
 11
542.0004068180416
 21
81.992776166800411
  0
LINE
  8
_0-2_body
  6
CONTINUOUS
 62
    7
 10
542.0004068180416
 20
80.99335396652944
 11
542.99982901831254
 21
80.99335396652944
  0
LINE
  8
_0-2_body
  6
CONTINUOUS
 62
    7
 10
542.99982901831254
 20
71.990113680151779
 11
542.0004068180416
 21
71.990113680151779
  0
LINE
  8
_0-2_body
  6
CONTINUOUS
 62
    7
 10
542.0004068180416
 20
70.990863734655065
 11
542.99982901831254
 21
70.990863734655065
  0
LINE
  8
_0-2_body
  6
CONTINUOUS
 62
    7
 10
542.0004068180416
 20
-49.041430614677211
 11
542.99982901831254
 21
-49.041430614677211
  0
LINE
  8
_0-2_body
  6
CONTINUOUS
 62
    7
 10
542.99982901831254
 20
-48.04097488576059
 11
542.0004068180416
 21
-48.04097488576059
  0
LINE
  8
_0-2_body
  6
CONTINUOUS
 62
    7
 10
542.0004068180416
 20
-59.044954375197108
 11
542.99982901831254
 21
-59.044954375197108
  0
LINE
  8
_0-2_body
  6
CONTINUOUS
 62
    7
 10
542.99982901831254
 20
-58.04346511763498
 11
542.0004068180416
 21
-58.04346511763498
  0
LINE
  8
_0-2_body
  6
CONTINUOUS
 62
    7
 10
577.00050989088879
 20
-59.044954375197108
 11
577.99993209115974
 21
-59.044954375197108
  0
LINE
  8
_0-2_body
  6
CONTINUOUS
 62
    7
 10
577.99993209115974
 20
-58.04346511763498
 11
577.00050989088879
 21
-58.04346511763498
  0
LINE
  8
_0-2_body
  6
CONTINUOUS
 62
    7
 10
577.99993209115974
 20
-48.04097488576059
 11
577.00050989088879
 21
-48.04097488576059
  0
LINE
  8
_0-2_body
  6
CONTINUOUS
 62
    7
 10
577.00050989088879
 20
-49.041430614677211
 11
577.99993209115974
 21
-49.041430614677211
  0
LINE
  8
_0-2_body
  6
CONTINUOUS
 62
    7
 10
572.00133183224273
 20
-82.820247338003298
 11
572.00133183224273
 21
-79.149153588921109
  0
LINE
  8
_0-2_body
  6
CONTINUOUS
 62
    7
 10
572.00133183224273
 20
-79.149153588921109
 11
571.00190963197178
 21
-79.149153588921109
  0
LINE
  8
_0-2_body
  6
CONTINUOUS
 62
    7
 10
571.00190963197178
 20
-79.149153588921109
 11
571.00190963197178
 21
-82.937725094050336
  0
LINE
  8
_0-2_body
  6
CONTINUOUS
 62
    7
 10
564.40110668223315
 20
-83.452422359546574
 11
564.40110668223315
 21
-78.448421167221227
  0
LINE
  8
_0-2_body
  6
CONTINUOUS
 62
    7
 10
555.59992124606538
 20
-78.448421167221227
 11
555.59992124606538
 21
-83.452422359546574
  0
LINE
  8
_0-2_body
  6
CONTINUOUS
 62
    7
 10
549.00118535361787
 20
-82.937725094050336
 11
549.00118535361787
 21
-79.149153588921109
  0
LINE
  8
_0-2_body
  6
CONTINUOUS
 62
    7
 10
549.00118535361787
 20
-79.149153588921109
 11
547.99969609605569
 21
-79.149153588921109
  0
LINE
  8
_0-2_body
  6
CONTINUOUS
 62
    7
 10
547.99969609605569
 20
-79.149153588921109
 11
547.99969609605569
 21
-82.820247338003298
  0
LINE
  8
_0-2_body
  6
CONTINUOUS
 62
    7
 10
563.20014639607507
 20
-82.45058859243602
 11
563.20014639607507
 21
-85.499842606430605
  0
LINE
  8
_0-2_body
  6
CONTINUOUS
 62
    7
 10
556.80088153222334
 20
-85.499842606430605
 11
556.80088153222334
 21
-82.45058859243602
  0
LINE
  8
_0-2_body
  6
CONTINUOUS
 62
    7
 10
545.99947365731964
 20
102.69883356179751
 11
545.99947365731964
 21
103.19957819057858
  0
LINE
  8
_0-2_body
  6
CONTINUOUS
 62
    7
 10
545.99947365731964
 20
105.5048638345335
 11
545.99947365731964
 21
103.19957819057858
  0
LINE
  8
_0-2_body
  6
CONTINUOUS
 62
    7
 10
574.00155427097866
 20
103.19957819057858
 11
574.00155427097866
 21
102.69883356179751
  0
LINE
  8
_0-2_body
  6
CONTINUOUS
 62
    7
 10
574.00155427097866
 20
103.19957819057858
 11
574.00155427097866
 21
105.5048638345335
  0
LINE
  8
_0-2_body
  6
CONTINUOUS
 62
    7
 10
564.40110668223315
 20
-78.448421167221227
 11
563.39961742467108
 21
-77.448998966950342
  0
LINE
  8
_0-2_body
  6
CONTINUOUS
 62
    7
 10
556.60141050362745
 20
-77.448998966950342
 11
555.59992124606538
 21
-78.448421167221227
  0
LINE
  8
_0-2_body
  6
CONTINUOUS
 62
    7
 10
563.39961742467108
 20
-77.448998966950342
 11
556.60141050362745
 21
-77.448998966950342
  0
LINE
  8
_0-2_body
  6
CONTINUOUS
 62
    7
 10
574.00155427097866
 20
102.69883356179751
 11
545.99947365731964
 21
102.69883356179751
  0
LINE
  8
_0-2_body
  6
CONTINUOUS
 62
    7
 10
563.10092764609976
 20
-80.950594018158199
 11
556.89941126310157
 21
-80.950594018158199
  0
LINE
  8
_0-2_body
  6
CONTINUOUS
 62
    7
 10
577.99993209115974
 20
-49.041430614677211
 11
577.99993209115974
 21
-58.04346511763498
  0
LINE
  8
_0-2_body
  6
CONTINUOUS
 62
    7
 10
577.99993209115974
 20
70.990863734655065
 11
577.99993209115974
 21
-48.04097488576059
  0
LINE
  8
_0-2_body
  6
CONTINUOUS
 62
    7
 10
577.99993209115974
 20
-59.044954375197108
 11
577.99993209115974
 21
-80.193362030500282
  0
LINE
  8
_0-2_body
  6
CONTINUOUS
 62
    7
 10
577.99993209115974
 20
80.99335396652944
 11
577.99993209115974
 21
71.990113680151779
  0
LINE
  8
_0-2_body
  6
CONTINUOUS
 62
    7
 10
577.99993209115974
 20
103.14204509597491
 11
577.99993209115974
 21
81.992776166800411
  0
LINE
  8
_0-2_body
  6
CONTINUOUS
 62
    7
 10
542.0004068180416
 20
-58.04346511763498
 11
542.0004068180416
 21
-49.041430614677211
  0
LINE
  8
_0-2_body
  6
CONTINUOUS
 62
    7
 10
542.0004068180416
 20
-80.193362030500282
 11
542.0004068180416
 21
-59.044954375197108
  0
LINE
  8
_0-2_body
  6
CONTINUOUS
 62
    7
 10
542.0004068180416
 20
-48.04097488576059
 11
542.0004068180416
 21
70.990863734655065
  0
LINE
  8
_0-2_body
  6
CONTINUOUS
 62
    7
 10
542.0004068180416
 20
71.990113680151779
 11
542.0004068180416
 21
80.99335396652944
  0
LINE
  8
_0-2_body
  6
CONTINUOUS
 62
    7
 10
542.0004068180416
 20
81.992776166800411
 11
542.0004068180416
 21
103.14204509597491
  0
LINE
  8
_0-2_body
  6
CONTINUOUS
 62
    7
 10
542.0004068180416
 20
103.14204509597491
 11
542.25534388394999
 21
104.14387886308555
  0
LINE
  8
_0-2_body
  6
CONTINUOUS
 62
    7
 10
542.25534388394999
 20
104.14387886308555
 11
542.45998255577388
 21
104.44463569894786
  0
LINE
  8
_0-2_body
  6
CONTINUOUS
 62
    7
 10
542.45998255577388
 20
104.44463569894786
 11
543.00878626657413
 21
104.91110162765068
  0
LINE
  8
_0-2_body
  6
CONTINUOUS
 62
    7
 10
543.00878626657413
 20
104.91110162765068
 11
543.64991853637912
 21
105.14088949651686
  0
LINE
  8
_0-2_body
  6
CONTINUOUS
 62
    7
 10
543.64991853637912
 20
-82.190828392848061
 11
543.15451380560035
 21
-82.035454586463402
  0
LINE
  8
_0-2_body
  6
CONTINUOUS
 62
    7
 10
543.15451380560035
 20
-82.035454586463402
 11
542.71491962168238
 21
-81.754334794866963
  0
LINE
  8
_0-2_body
  6
CONTINUOUS
 62
    7
 10
542.71491962168238
 20
-81.754334794866963
 11
542.25603290304707
 21
-81.196573835804998
  0
LINE
  8
_0-2_body
  6
CONTINUOUS
 62
    7
 10
542.25603290304707
 20
-81.196573835804998
 11
542.0004068180416
 21
-80.193362030500282
  0
LINE
  8
_0-2_body
  6
CONTINUOUS
 62
    7
 10
576.35110939191918
 20
105.14088949651686
 11
577.28541928751883
 21
104.70422364376144
  0
LINE
  8
_0-2_body
  6
CONTINUOUS
 62
    7
 10
577.28541928751883
 20
104.70422364376144
 11
577.54104537252442
 21
104.44463569894786
  0
LINE
  8
_0-2_body
  6
CONTINUOUS
 62
    7
 10
577.54104537252442
 20
104.44463569894786
 11
577.89244511202003
 21
103.81504449901846
  0
LINE
  8
_0-2_body
  6
CONTINUOUS
 62
    7
 10
577.89244511202003
 20
103.81504449901846
 11
577.99993209115974
 21
103.14204509597491
  0
LINE
  8
_0-2_body
  6
CONTINUOUS
 62
    7
 10
577.99993209115974
 20
-80.193362030500282
 11
577.93619782468261
 21
-80.710126353287791
  0
LINE
  8
_0-2_body
  6
CONTINUOUS
 62
    7
 10
577.93619782468261
 20
-80.710126353287791
 11
577.65059940895537
 21
-81.348847056253078
  0
LINE
  8
_0-2_body
  6
CONTINUOUS
 62
    7
 10
577.65059940895537
 20
-81.348847056253078
 11
577.28645281616446
 21
-81.753645775769911
  0
LINE
  8
_0-2_body
  6
CONTINUOUS
 62
    7
 10
577.28645281616446
 20
-81.753645775769911
 11
576.35110939191918
 21
-82.190828392848061
  0
LINE
  8
_0-2_body
  6
CONTINUOUS
 62
    7
 10
576.69975305502646
 20
-84.159700462668411
 11
577.52760950013203
 21
-83.9237114219288
  0
LINE
  8
_0-2_body
  6
CONTINUOUS
 62
    7
 10
577.52760950013203
 20
-83.9237114219288
 11
578.28484148778989
 21
-83.511333492344392
  0
LINE
  8
_0-2_body
  6
CONTINUOUS
 62
    7
 10
578.28484148778989
 20
-83.511333492344392
 11
578.70927725157276
 21
-83.16854649156204
  0
LINE
  8
_0-2_body
  6
CONTINUOUS
 62
    7
 10
578.70927725157276
 20
-83.16854649156204
 11
579.08203658307673
 21
-82.769948943918592
  0
LINE
  8
_0-2_body
  6
CONTINUOUS
 62
    7
 10
579.08203658307673
 20
-82.769948943918592
 11
579.39726281997707
 21
-82.325187116772895
  0
LINE
  8
_0-2_body
  6
CONTINUOUS
 62
    7
 10
579.39726281997707
 20
-82.325187116772895
 11
579.65151086678861
 21
-81.843218258386401
  0
LINE
  8
_0-2_body
  6
CONTINUOUS
 62
    7
 10
579.65151086678861
 20
-81.843218258386401
 11
579.91264910457039
 21
-81.02294102334838
  0
LINE
  8
_0-2_body
  6
CONTINUOUS
 62
    7
 10
579.91264910457039
 20
-81.02294102334838
 11
580.00015452989578
 21
-80.165801266618303
  0
LINE
  8
_0-2_body
  6
CONTINUOUS
 62
    7
 10
540.00018437930567
 20
-80.165801266618303
 11
540.08768980463083
 21
-81.02294102334838
  0
LINE
  8
_0-2_body
  6
CONTINUOUS
 62
    7
 10
540.08768980463083
 20
-81.02294102334838
 11
540.34882804241283
 21
-81.843218258386401
  0
LINE
  8
_0-2_body
  6
CONTINUOUS
 62
    7
 10
540.34882804241283
 20
-81.843218258386401
 11
540.60307608922437
 21
-82.325187116772895
  0
LINE
  8
_0-2_body
  6
CONTINUOUS
 62
    7
 10
540.60307608922437
 20
-82.325187116772895
 11
540.91933585477022
 21
-82.769948943918592
  0
LINE
  8
_0-2_body
  6
CONTINUOUS
 62
    7
 10
540.91933585477022
 20
-82.769948943918592
 11
541.29175067672577
 21
-83.16854649156204
  0
LINE
  8
_0-2_body
  6
CONTINUOUS
 62
    7
 10
541.29175067672577
 20
-83.16854649156204
 11
541.71549742141133
 21
-83.511333492344392
  0
LINE
  8
_0-2_body
  6
CONTINUOUS
 62
    7
 10
541.71549742141133
 20
-83.511333492344392
 11
542.47204038997234
 21
-83.9237114219288
  0
LINE
  8
_0-2_body
  6
CONTINUOUS
 62
    7
 10
542.47204038997234
 20
-83.9237114219288
 11
543.30058585417487
 21
-84.159700462668411
  0
LINE
  8
_0-2_body
  6
CONTINUOUS
 62
    7
 10
543.30058585417487
 20
107.10958931156287
 11
541.71549742141133
 21
106.46053332214181
  0
LINE
  8
_0-2_body
  6
CONTINUOUS
 62
    7
 10
541.71549742141133
 20
106.46053332214181
 11
540.91933585477022
 21
105.71966553803884
  0
LINE
  8
_0-2_body
  6
CONTINUOUS
 62
    7
 10
540.91933585477022
 20
105.71966553803884
 11
540.34882804241283
 21
104.79155681431253
  0
LINE
  8
_0-2_body
  6
CONTINUOUS
 62
    7
 10
540.34882804241283
 20
104.79155681431253
 11
540.00018437930567
 21
103.11431207731863
  0
LINE
  8
_0-2_body
  6
CONTINUOUS
 62
    7
 10
580.00015452989578
 20
103.11431207731863
 11
579.65151086678861
 21
104.79155681431253
  0
LINE
  8
_0-2_body
  6
CONTINUOUS
 62
    7
 10
579.65151086678861
 20
104.79155681431253
 11
579.08203658307673
 21
105.71966553803884
  0
LINE
  8
_0-2_body
  6
CONTINUOUS
 62
    7
 10
579.08203658307673
 20
105.71966553803884
 11
578.28484148778989
 21
106.46053332214181
  0
LINE
  8
_0-2_body
  6
CONTINUOUS
 62
    7
 10
578.28484148778989
 20
106.46053332214181
 11
576.69975305502646
 21
107.10958931156287
  0
LINE
  8
_0-2_body
  6
CONTINUOUS
 62
    7
 10
580.00015452989578
 20
103.11431207731863
 11
580.00015452989578
 21
-80.165801266618303
  0
LINE
  8
_0-2_body
  6
CONTINUOUS
 62
    7
 10
540.00018437930567
 20
103.11431207731863
 11
540.00018437930567
 21
-80.165801266618303
  0
LINE
  8
_0-2_body
  6
CONTINUOUS
 62
    7
 10
576.69975305502646
 20
107.10958931156287
 11
572.54358986162117
 21
107.71782091948374
  0
LINE
  8
_0-2_body
  6
CONTINUOUS
 62
    7
 10
572.54358986162117
 20
107.71782091948374
 11
568.37157922898348
 21
108.152419714948
  0
LINE
  8
_0-2_body
  6
CONTINUOUS
 62
    7
 10
568.37157922898348
 20
108.152419714948
 11
564.18854429079317
 21
108.41304118840716
  0
LINE
  8
_0-2_body
  6
CONTINUOUS
 62
    7
 10
564.18854429079317
 20
108.41304118840716
 11
560.00034170937488
 21
108.50002984940971
  0
LINE
  8
_0-2_body
  6
CONTINUOUS
 62
    7
 10
560.00034170937488
 20
108.50002984940971
 11
555.81179461840816
 21
108.41304118840716
  0
LINE
  8
_0-2_body
  6
CONTINUOUS
 62
    7
 10
555.81179461840816
 20
108.41304118840716
 11
551.62875968021785
 21
108.152419714948
  0
LINE
  8
_0-2_body
  6
CONTINUOUS
 62
    7
 10
551.62875968021785
 20
108.152419714948
 11
547.45674904758027
 21
107.71782091948374
  0
LINE
  8
_0-2_body
  6
CONTINUOUS
 62
    7
 10
547.45674904758027
 20
107.71782091948374
 11
543.30058585417487
 21
107.10958931156287
  0
LINE
  8
_0-2_body
  6
CONTINUOUS
 62
    7
 10
572.00133183224273
 20
-82.820247338003298
 11
573.09067102467873
 21
-82.681409989947724
  0
LINE
  8
_0-2_body
  6
CONTINUOUS
 62
    7
 10
573.09067102467873
 20
-82.681409989947724
 11
574.17863217892068
 21
-82.530170298145208
  0
LINE
  8
_0-2_body
  6
CONTINUOUS
 62
    7
 10
574.17863217892068
 20
-82.530170298145208
 11
575.26555980451701
 21
-82.366872772144404
  0
LINE
  8
_0-2_body
  6
CONTINUOUS
 62
    7
 10
575.26555980451701
 20
-82.366872772144404
 11
576.35110939191918
 21
-82.190828392848061
  0
LINE
  8
_0-2_body
  6
CONTINUOUS
 62
    7
 10
564.40110668223315
 20
-83.452422359546574
 11
566.05406349605596
 21
-83.36595046286692
  0
LINE
  8
_0-2_body
  6
CONTINUOUS
 62
    7
 10
566.05406349605596
 20
-83.36595046286692
 11
567.70495325258753
 21
-83.250884273659494
  0
LINE
  8
_0-2_body
  6
CONTINUOUS
 62
    7
 10
567.70495325258753
 20
-83.250884273659494
 11
569.35446497092528
 21
-83.108257320570203
  0
LINE
  8
_0-2_body
  6
CONTINUOUS
 62
    7
 10
569.35446497092528
 20
-83.108257320570203
 11
571.00190963197178
 21
-82.937725094050336
  0
LINE
  8
_0-2_body
  6
CONTINUOUS
 62
    7
 10
549.00118535361787
 20
-82.937725094050336
 11
550.64725197647022
 21
-83.108257320570203
  0
LINE
  8
_0-2_body
  6
CONTINUOUS
 62
    7
 10
550.64725197647022
 20
-83.108257320570203
 11
552.29607467571077
 21
-83.250884273659494
  0
LINE
  8
_0-2_body
  6
CONTINUOUS
 62
    7
 10
552.29607467571077
 20
-83.250884273659494
 11
553.94696443224245
 21
-83.36595046286692
  0
LINE
  8
_0-2_body
  6
CONTINUOUS
 62
    7
 10
553.94696443224245
 20
-83.36595046286692
 11
555.59992124606538
 21
-83.452422359546574
  0
LINE
  8
_0-2_body
  6
CONTINUOUS
 62
    7
 10
543.64991853637912
 20
-82.190828392848061
 11
544.7354681237814
 21
-82.366872772144404
  0
LINE
  8
_0-2_body
  6
CONTINUOUS
 62
    7
 10
544.7354681237814
 20
-82.366872772144404
 11
545.82205123982931
 21
-82.530170298145208
  0
LINE
  8
_0-2_body
  6
CONTINUOUS
 62
    7
 10
545.82205123982931
 20
-82.530170298145208
 11
546.91035690361957
 21
-82.681409989947724
  0
LINE
  8
_0-2_body
  6
CONTINUOUS
 62
    7
 10
546.91035690361957
 20
-82.681409989947724
 11
547.99969609605569
 21
-82.820247338003298
  0
LINE
  8
_0-2_body
  6
CONTINUOUS
 62
    7
 10
563.20014639607507
 20
-85.499842606430605
 11
569.97217059143054
 21
-85.057492346124491
  0
LINE
  8
_0-2_body
  6
CONTINUOUS
 62
    7
 10
569.97217059143054
 20
-85.057492346124491
 11
576.69975305502646
 21
-84.159700462668411
  0
LINE
  8
_0-2_body
  6
CONTINUOUS
 62
    7
 10
543.30058585417487
 20
-84.159700462668411
 11
550.02851282731922
 21
-85.057492346124491
  0
LINE
  8
_0-2_body
  6
CONTINUOUS
 62
    7
 10
550.02851282731922
 20
-85.057492346124491
 11
556.80088153222334
 21
-85.499842606430605
  0
LINE
  8
_0-2_body
  6
CONTINUOUS
 62
    7
 10
562.59380959067107
 20
-84.279245276006606
 11
561.44073613175794
 21
-83.92715651741409
  0
LINE
  8
_0-2_body
  6
CONTINUOUS
 62
    7
 10
561.44073613175794
 20
-83.92715651741409
 11
559.81430655317126
 21
-83.7414658707591
  0
LINE
  8
_0-2_body
  6
CONTINUOUS
 62
    7
 10
559.81430655317126
 20
-83.7414658707591
 11
558.43144522539217
 21
-83.960918453169512
  0
LINE
  8
_0-2_body
  6
CONTINUOUS
 62
    7
 10
558.43144522539217
 20
-83.960918453169512
 11
557.40756284717577
 21
-84.279245276006606
  0
LINE
  8
_0-2_body
  6
CONTINUOUS
 62
    7
 10
556.80088153222334
 20
-82.45058859243602
 11
563.20014639607507
 21
-82.45058859243602
  0
LINE
  8
_0-2_body
  6
CONTINUOUS
 62
    7
 10
576.35110939191918
 20
105.14088949651686
 11
574.00155427097866
 21
105.5048638345335
  0
LINE
  8
_0-2_body
  6
CONTINUOUS
 62
    7
 10
545.99947365731964
 20
105.5048638345335
 11
543.64991853637912
 21
105.14088949651686
  0
LINE
  8
_0-2_body
  6
CONTINUOUS
 62
    7
 10
561.59921052407935
 20
-38.855316793438988
 11
562.90076759840679
 21
-37.944089037590402
  0
LINE
  8
_0-2_body
  6
CONTINUOUS
 62
    7
 10
562.90076759840679
 20
-37.944089037590402
 11
563.72345640028448
 21
-36.649422154233491
  0
LINE
  8
_0-2_body
  6
CONTINUOUS
 62
    7
 10
563.72345640028448
 20
-36.649422154233491
 11
564.00078658684697
 21
-35.141159350791099
  0
LINE
  8
_0-2_body
  6
CONTINUOUS
 62
    7
 10
564.00078658684697
 20
-35.141159350791099
 11
563.66592330568074
 21
-33.588454815588989
  0
LINE
  8
_0-2_body
  6
CONTINUOUS
 62
    7
 10
563.66592330568074
 20
-33.588454815588989
 11
562.75607358802631
 21
-32.286208722164588
  0
LINE
  8
_0-2_body
  6
CONTINUOUS
 62
    7
 10
562.75607358802631
 20
-32.286208722164588
 11
561.46175121421788
 21
-31.463175410738387
  0
LINE
  8
_0-2_body
  6
CONTINUOUS
 62
    7
 10
561.46175121421788
 20
-31.463175410738387
 11
559.95314390122701
 21
-31.185845224175836
  0
LINE
  8
_0-2_body
  6
CONTINUOUS
 62
    7
 10
559.95314390122701
 20
-31.185845224175836
 11
558.39906132783085
 21
-31.520708505341986
  0
LINE
  8
_0-2_body
  6
CONTINUOUS
 62
    7
 10
558.39906132783085
 20
-31.520708505341986
 11
557.09853778214892
 21
-32.432280770739197
  0
LINE
  8
_0-2_body
  6
CONTINUOUS
 62
    7
 10
557.09853778214892
 20
-32.432280770739197
 11
556.27653799936843
 21
-33.727292163644591
  0
LINE
  8
_0-2_body
  6
CONTINUOUS
 62
    7
 10
556.27653799936843
 20
-33.727292163644591
 11
555.99955232235425
 21
-35.235899476635467
  0
LINE
  8
_0-2_body
  6
CONTINUOUS
 62
    7
 10
555.99955232235425
 20
-35.235899476635467
 11
556.33441560352048
 21
-36.788604011837606
  0
LINE
  8
_0-2_body
  6
CONTINUOUS
 62
    7
 10
556.33441560352048
 20
-36.788604011837606
 11
557.17226282553338
 21
-38.017469571426204
  0
LINE
  8
_0-2_body
  6
CONTINUOUS
 62
    7
 10
557.17226282553338
 20
-38.017469571426204
 11
558.39906132783085
 21
-38.855316793438988
  0
LINE
  8
_0-2_body
  6
CONTINUOUS
 62
    7
 10
560.00034170937488
 20
-39.189835565056711
 11
561.59921052407935
 21
-38.855316793438988
  0
LINE
  8
_0-2_body
  6
CONTINUOUS
 62
    7
 10
558.39906132783085
 20
-38.855316793438988
 11
560.00034170937488
 21
-39.189835565056711
  0
LINE
  8
_0-2_body
  6
CONTINUOUS
 62
    7
 10
561.59921052407935
 20
-38.855316793438988
 11
560.99941940009739
 21
-39.771712192515395
  0
LINE
  8
_0-2_body
  6
CONTINUOUS
 62
    7
 10
560.99941940009739
 20
-54.6435003832419
 11
560.99941940009739
 21
-54.788194393622405
  0
LINE
  8
_0-2_body
  6
CONTINUOUS
 62
    7
 10
560.99941940009739
 20
-39.771712192515395
 11
560.99941940009739
 21
-54.6435003832419
  0
LINE
  8
_0-2_body
  6
CONTINUOUS
 62
    7
 10
559.00160852820102
 20
-54.788194393622405
 11
559.00160852820102
 21
-54.6435003832419
  0
LINE
  8
_0-2_body
  6
CONTINUOUS
 62
    7
 10
559.00160852820102
 20
-54.6435003832419
 11
559.00160852820102
 21
-39.771712192515395
  0
LINE
  8
_0-2_body
  6
CONTINUOUS
 62
    7
 10
559.00160852820102
 20
-39.771712192515395
 11
558.39906132783085
 21
-38.855316793438988
  0
LINE
  8
_0-2_body
  6
CONTINUOUS
 62
    7
 10
554.29974220993199
 20
64.638624424177152
 11
554.41549741823633
 21
63.489340570297799
  0
LINE
  8
_0-2_body
  6
CONTINUOUS
 62
    7
 10
554.41549741823633
 20
63.489340570297799
 11
554.74760462301447
 21
62.419121657804936
  0
LINE
  8
_0-2_body
  6
CONTINUOUS
 62
    7
 10
554.74760462301447
 20
62.419121657804936
 11
555.27298168451512
 21
61.450533062126951
  0
LINE
  8
_0-2_body
  6
CONTINUOUS
 62
    7
 10
555.27298168451512
 20
61.450533062126951
 11
555.96923548208406
 21
60.606656923015009
  0
LINE
  8
_0-2_body
  6
CONTINUOUS
 62
    7
 10
555.96923548208406
 20
60.606656923015009
 11
556.8129393664218
 21
59.910403125446024
  0
LINE
  8
_0-2_body
  6
CONTINUOUS
 62
    7
 10
556.8129393664218
 20
59.910403125446024
 11
557.78101119777705
 21
59.384853809171148
  0
LINE
  8
_0-2_body
  6
CONTINUOUS
 62
    7
 10
557.78101119777705
 20
59.384853809171148
 11
558.85140236504412
 21
59.052574349618794
  0
LINE
  8
_0-2_body
  6
CONTINUOUS
 62
    7
 10
558.85140236504412
 20
59.052574349618794
 11
560.00034170937488
 21
58.936819141314402
  0
LINE
  8
_0-2_body
  6
CONTINUOUS
 62
    7
 10
560.00034170937488
 20
58.936819141314402
 11
561.14928105370564
 21
59.052574349618794
  0
LINE
  8
_0-2_body
  6
CONTINUOUS
 62
    7
 10
561.14928105370564
 20
59.052574349618794
 11
562.21932771142428
 21
59.384853809171148
  0
LINE
  8
_0-2_body
  6
CONTINUOUS
 62
    7
 10
562.21932771142428
 20
59.384853809171148
 11
563.18739954277953
 21
59.910403125446024
  0
LINE
  8
_0-2_body
  6
CONTINUOUS
 62
    7
 10
563.18739954277953
 20
59.910403125446024
 11
564.03110342711716
 21
60.606656923015009
  0
LINE
  8
_0-2_body
  6
CONTINUOUS
 62
    7
 10
564.03110342711716
 20
60.606656923015009
 11
564.72701271513768
 21
61.450533062126951
  0
LINE
  8
_0-2_body
  6
CONTINUOUS
 62
    7
 10
564.72701271513768
 20
61.450533062126951
 11
565.25273428618675
 21
62.419121657804936
  0
LINE
  8
_0-2_body
  6
CONTINUOUS
 62
    7
 10
565.25273428618675
 20
62.419121657804936
 11
565.58484149096489
 21
63.489340570297799
  0
LINE
  8
_0-2_body
  6
CONTINUOUS
 62
    7
 10
565.58484149096489
 20
63.489340570297799
 11
565.70059669926923
 21
64.638624424177152
  0
LINE
  8
_0-2_body
  6
CONTINUOUS
 62
    7
 10
565.70059669926923
 20
66.638502353364672
 11
565.70059669926923
 21
64.638624424177152
  0
LINE
  8
_0-2_body
  6
CONTINUOUS
 62
    7
 10
565.70059669926923
 20
66.638502353364672
 11
565.58484149096489
 21
67.787958462018281
  0
LINE
  8
_0-2_body
  6
CONTINUOUS
 62
    7
 10
565.58484149096489
 20
67.787958462018281
 11
565.25273428618675
 21
68.85852188405967
  0
LINE
  8
_0-2_body
  6
CONTINUOUS
 62
    7
 10
565.25273428618675
 20
68.85852188405967
 11
564.72701271513768
 21
69.827282734511925
  0
LINE
  8
_0-2_body
  6
CONTINUOUS
 62
    7
 10
564.72701271513768
 20
69.827282734511925
 11
564.03110342711716
 21
70.671331128398137
  0
LINE
  8
_0-2_body
  6
CONTINUOUS
 62
    7
 10
564.03110342711716
 20
70.671331128398137
 11
563.18739954277953
 21
71.367757180741407
  0
LINE
  8
_0-2_body
  6
CONTINUOUS
 62
    7
 10
563.18739954277953
 20
71.367757180741407
 11
562.21932771142428
 21
71.893478751790511
  0
LINE
  8
_0-2_body
  6
CONTINUOUS
 62
    7
 10
562.21932771142428
 20
71.893478751790511
 11
561.14928105370564
 21
72.22593046611712
  0
LINE
  8
_0-2_body
  6
CONTINUOUS
 62
    7
 10
561.14928105370564
 20
72.22593046611712
 11
560.00034170937488
 21
72.341685674421527
  0
LINE
  8
_0-2_body
  6
CONTINUOUS
 62
    7
 10
560.00034170937488
 20
72.341685674421527
 11
558.85140236504412
 21
72.22593046611712
  0
LINE
  8
_0-2_body
  6
CONTINUOUS
 62
    7
 10
558.85140236504412
 20
72.22593046611712
 11
557.78101119777705
 21
71.893478751790511
  0
LINE
  8
_0-2_body
  6
CONTINUOUS
 62
    7
 10
557.78101119777705
 20
71.893478751790511
 11
556.8129393664218
 21
71.367757180741407
  0
LINE
  8
_0-2_body
  6
CONTINUOUS
 62
    7
 10
556.8129393664218
 20
71.367757180741407
 11
555.96923548208406
 21
70.671331128398137
  0
LINE
  8
_0-2_body
  6
CONTINUOUS
 62
    7
 10
555.96923548208406
 20
70.671331128398137
 11
555.27298168451512
 21
69.827282734511925
  0
LINE
  8
_0-2_body
  6
CONTINUOUS
 62
    7
 10
555.27298168451512
 20
69.827282734511925
 11
554.74760462301447
 21
68.85852188405967
  0
LINE
  8
_0-2_body
  6
CONTINUOUS
 62
    7
 10
554.74760462301447
 20
68.85852188405967
 11
554.41549741823633
 21
67.787958462018281
  0
LINE
  8
_0-2_body
  6
CONTINUOUS
 62
    7
 10
554.41549741823633
 20
67.787958462018281
 11
554.29974220993199
 21
66.638502353364672
  0
LINE
  8
_0-2_body
  6
CONTINUOUS
 62
    7
 10
554.29974220993199
 20
64.638624424177152
 11
554.29974220993199
 21
66.638502353364672
  0
LINE
  8
_0-2_body
  6
CONTINUOUS
 62
    7
 10
542.99982901831254
 20
-77.899617456420913
 11
542.99982901831254
 21
102.14951308667442
  0
LINE
  8
_0-2_body
  6
CONTINUOUS
 62
    7
 10
577.00050989088879
 20
102.14951308667442
 11
577.00050989088879
 21
-77.899617456420913
  0
LINE
  8
_0-2_body
  6
CONTINUOUS
 62
    7
 10
543.50005688277076
 20
102.64819065816434
 11
576.50028202643057
 21
102.64819065816434
  0
LINE
  8
_0-2_body
  6
CONTINUOUS
 62
    7
 10
563.20014639607507
 20
66.638502353364672
 11
563.20014639607507
 21
64.638624424177152
  0
LINE
  8
_0-2_body
  6
CONTINUOUS
 62
    7
 10
556.80088153222334
 20
64.638624424177152
 11
557.05237350264656
 21
63.392188877613748
  0
LINE
  8
_0-2_body
  6
CONTINUOUS
 62
    7
 10
557.05237350264656
 20
63.392188877613748
 11
557.73829201375986
 21
62.374679926045218
  0
LINE
  8
_0-2_body
  6
CONTINUOUS
 62
    7
 10
557.73829201375986
 20
62.374679926045218
 11
558.75528420100568
 21
61.688761414931975
  0
LINE
  8
_0-2_body
  6
CONTINUOUS
 62
    7
 10
558.75528420100568
 20
61.688761414931975
 11
560.00034170937488
 21
61.437269444508743
  0
LINE
  8
_0-2_body
  6
CONTINUOUS
 62
    7
 10
560.00034170937488
 20
61.437269444508743
 11
561.24643274638981
 21
61.688761414931975
  0
LINE
  8
_0-2_body
  6
CONTINUOUS
 62
    7
 10
561.24643274638981
 20
61.688761414931975
 11
562.26342493363563
 21
62.374679926045218
  0
LINE
  8
_0-2_body
  6
CONTINUOUS
 62
    7
 10
562.26342493363563
 20
62.374679926045218
 11
562.94899893520028
 21
63.392188877613748
  0
LINE
  8
_0-2_body
  6
CONTINUOUS
 62
    7
 10
562.94899893520028
 20
63.392188877613748
 11
563.20014639607507
 21
64.638624424177152
  0
LINE
  8
_0-2_body
  6
CONTINUOUS
 62
    7
 10
556.80088153222334
 20
64.638624424177152
 11
556.80088153222334
 21
66.638502353364672
  0
LINE
  8
_0-2_body
  6
CONTINUOUS
 62
    7
 10
563.20014639607507
 20
66.638502353364672
 11
562.94899893520028
 21
67.88459339037955
  0
LINE
  8
_0-2_body
  6
CONTINUOUS
 62
    7
 10
562.94899893520028
 20
67.88459339037955
 11
562.26342493363563
 21
68.90227459672235
  0
LINE
  8
_0-2_body
  6
CONTINUOUS
 62
    7
 10
562.26342493363563
 20
68.90227459672235
 11
561.24643274638981
 21
69.588365362609835
  0
LINE
  8
_0-2_body
  6
CONTINUOUS
 62
    7
 10
561.24643274638981
 20
69.588365362609835
 11
560.00034170937488
 21
69.840029587807351
  0
LINE
  8
_0-2_body
  6
CONTINUOUS
 62
    7
 10
560.00034170937488
 20
69.840029587807351
 11
558.75528420100568
 21
69.588365362609835
  0
LINE
  8
_0-2_body
  6
CONTINUOUS
 62
    7
 10
558.75528420100568
 20
69.588365362609835
 11
557.73829201375986
 21
68.90227459672235
  0
LINE
  8
_0-2_body
  6
CONTINUOUS
 62
    7
 10
557.73829201375986
 20
68.90227459672235
 11
557.05237350264656
 21
67.88459339037955
  0
LINE
  8
_0-2_body
  6
CONTINUOUS
 62
    7
 10
557.05237350264656
 20
67.88459339037955
 11
556.80088153222334
 21
66.638502353364672
  0
LINE
  8
_0-2_body
  6
CONTINUOUS
 62
    7
 10
559.00160852820102
 20
-61.195382977089963
 11
560.99941940009739
 21
-61.195382977089963
  0
LINE
  8
_0-2_body
  6
CONTINUOUS
 62
    7
 10
560.99941940009739
 20
-67.596025879135709
 11
562.24585494666076
 21
-67.344533908712492
  0
LINE
  8
_0-2_body
  6
CONTINUOUS
 62
    7
 10
562.24585494666076
 20
-67.344533908712492
 11
563.26353615300366
 21
-66.658959907147789
  0
LINE
  8
_0-2_body
  6
CONTINUOUS
 62
    7
 10
563.26353615300366
 20
-66.658959907147789
 11
563.94979917366527
 21
-65.641623210353487
  0
LINE
  8
_0-2_body
  6
CONTINUOUS
 62
    7
 10
563.94979917366527
 20
-65.641623210353487
 11
564.20163565363714
 21
-64.395876682887092
  0
LINE
  8
_0-2_body
  6
CONTINUOUS
 62
    7
 10
564.20163565363714
 20
-64.395876682887092
 11
563.94979917366527
 21
-63.150130155420811
  0
LINE
  8
_0-2_body
  6
CONTINUOUS
 62
    7
 10
563.94979917366527
 20
-63.150130155420811
 11
563.26353615300366
 21
-62.132793458626509
  0
LINE
  8
_0-2_body
  6
CONTINUOUS
 62
    7
 10
563.26353615300366
 20
-62.132793458626509
 11
562.24585494666076
 21
-61.446874947513294
  0
LINE
  8
_0-2_body
  6
CONTINUOUS
 62
    7
 10
562.24585494666076
 20
-61.446874947513294
 11
560.99941940009739
 21
-61.195382977089963
  0
LINE
  8
_0-2_body
  6
CONTINUOUS
 62
    7
 10
560.99941940009739
 20
-67.596025879135709
 11
559.00160852820102
 21
-67.596025879135709
  0
LINE
  8
_0-2_body
  6
CONTINUOUS
 62
    7
 10
559.00160852820102
 20
-61.195382977089963
 11
557.75517298163754
 21
-61.446874947513294
  0
LINE
  8
_0-2_body
  6
CONTINUOUS
 62
    7
 10
557.75517298163754
 20
-61.446874947513294
 11
556.73714726574633
 21
-62.132793458626509
  0
LINE
  8
_0-2_body
  6
CONTINUOUS
 62
    7
 10
556.73714726574633
 20
-62.132793458626509
 11
556.05088424508449
 21
-63.150130155420811
  0
LINE
  8
_0-2_body
  6
CONTINUOUS
 62
    7
 10
556.05088424508449
 20
-63.150130155420811
 11
555.79939227466127
 21
-64.395876682887092
  0
LINE
  8
_0-2_body
  6
CONTINUOUS
 62
    7
 10
555.79939227466127
 20
-64.395876682887092
 11
556.05088424508449
 21
-65.641623210353487
  0
LINE
  8
_0-2_body
  6
CONTINUOUS
 62
    7
 10
556.05088424508449
 20
-65.641623210353487
 11
556.73714726574633
 21
-66.658959907147789
  0
LINE
  8
_0-2_body
  6
CONTINUOUS
 62
    7
 10
556.73714726574633
 20
-66.658959907147789
 11
557.75517298163754
 21
-67.344533908712492
  0
LINE
  8
_0-2_body
  6
CONTINUOUS
 62
    7
 10
557.75517298163754
 20
-67.344533908712492
 11
559.00160852820102
 21
-67.596025879135709
  0
LINE
  8
_0-2_body
  6
CONTINUOUS
 62
    7
 10
555.05318459255614
 20
-78.400534339976303
 11
543.50005688277076
 21
-78.400534339976303
  0
LINE
  8
_0-2_body
  6
CONTINUOUS
 62
    7
 10
576.50028202643057
 20
-78.400534339976303
 11
564.94749882619362
 21
-78.400534339976303
  0
LINE
  8
_0-2_body
  6
CONTINUOUS
 62
    7
 10
562.20072419580401
 20
66.638502353364672
 11
561.55614683051363
 21
68.195685512697608
  0
LINE
  8
_0-2_body
  6
CONTINUOUS
 62
    7
 10
561.55614683051363
 20
68.195685512697608
 11
560.00034170937488
 21
68.840607387536366
  0
LINE
  8
_0-2_body
  6
CONTINUOUS
 62
    7
 10
560.00034170937488
 20
68.840607387536366
 11
558.44419207868759
 21
68.195685512697608
  0
LINE
  8
_0-2_body
  6
CONTINUOUS
 62
    7
 10
558.44419207868759
 20
68.195685512697608
 11
557.79961471339732
 21
66.638502353364672
  0
LINE
  8
_0-2_body
  6
CONTINUOUS
 62
    7
 10
557.79961471339732
 20
64.638624424177152
 11
557.79961471339732
 21
66.638502353364672
  0
LINE
  8
_0-2_body
  6
CONTINUOUS
 62
    7
 10
557.79961471339732
 20
64.638624424177152
 11
558.44419207868759
 21
63.08247479348978
  0
LINE
  8
_0-2_body
  6
CONTINUOUS
 62
    7
 10
558.44419207868759
 20
63.08247479348978
 11
560.00034170937488
 21
62.437897428199548
  0
LINE
  8
_0-2_body
  6
CONTINUOUS
 62
    7
 10
560.00034170937488
 20
62.437897428199548
 11
561.55614683051363
 21
63.08247479348978
  0
LINE
  8
_0-2_body
  6
CONTINUOUS
 62
    7
 10
561.55614683051363
 20
63.08247479348978
 11
562.20072419580401
 21
64.638624424177152
  0
LINE
  8
_0-2_body
  6
CONTINUOUS
 62
    7
 10
562.20072419580401
 20
66.638502353364672
 11
562.20072419580401
 21
64.638624424177152
  0
LINE
  8
_0-2_body
  6
CONTINUOUS
 62
    7
 10
565.00055329666668
 20
-75.19900710553361
 11
565.00055329666668
 21
-67.196394802846811
  0
LINE
  8
_0-2_body
  6
CONTINUOUS
 62
    7
 10
565.00055329666668
 20
-67.196394802846811
 11
575.00028745215263
 21
-67.196394802846811
  0
LINE
  8
_0-2_body
  6
CONTINUOUS
 62
    7
 10
575.00028745215263
 20
-67.196394802846811
 11
575.00028745215263
 21
-75.19900710553361
  0
LINE
  8
_0-2_body
  6
CONTINUOUS
 62
    7
 10
575.00028745215263
 20
-75.19900710553361
 11
565.00055329666668
 21
-75.19900710553361
  0
LINE
  8
_0-2_body
  6
CONTINUOUS
 62
    7
 10
555.00047463163173
 20
-67.196394802846811
 11
555.00047463163173
 21
-75.19900710553361
  0
LINE
  8
_0-2_body
  6
CONTINUOUS
 62
    7
 10
545.00005145704858
 20
-67.196394802846811
 11
555.00047463163173
 21
-67.196394802846811
  0
LINE
  8
_0-2_body
  6
CONTINUOUS
 62
    7
 10
545.00005145704858
 20
-75.19900710553361
 11
545.00005145704858
 21
-67.196394802846811
  0
LINE
  8
_0-2_body
  6
CONTINUOUS
 62
    7
 10
555.00047463163173
 20
-75.19900710553361
 11
545.00005145704858
 21
-75.19900710553361
  0
LINE
  8
_0-2_body
  6
CONTINUOUS
 62
    7
 10
545.00005145704858
 20
92.845343709660199
 11
545.00005145704858
 21
100.84933405054113
  0
LINE
  8
_0-2_body
  6
CONTINUOUS
 62
    7
 10
545.00005145704858
 20
100.84933405054113
 11
555.00047463163173
 21
100.84933405054113
  0
LINE
  8
_0-2_body
  6
CONTINUOUS
 62
    7
 10
555.00047463163173
 20
100.84933405054113
 11
555.00047463163173
 21
92.845343709660199
  0
LINE
  8
_0-2_body
  6
CONTINUOUS
 62
    7
 10
555.00047463163173
 20
92.845343709660199
 11
545.00005145704858
 21
92.845343709660199
  0
LINE
  8
_0-2_body
  6
CONTINUOUS
 62
    7
 10
565.00055329666668
 20
92.845343709660199
 11
565.00055329666668
 21
100.84933405054113
  0
LINE
  8
_0-2_body
  6
CONTINUOUS
 62
    7
 10
565.00055329666668
 20
100.84933405054113
 11
575.00028745215263
 21
100.84933405054113
  0
LINE
  8
_0-2_body
  6
CONTINUOUS
 62
    7
 10
575.00028745215263
 20
100.84933405054113
 11
575.00028745215263
 21
92.845343709660199
  0
LINE
  8
_0-2_body
  6
CONTINUOUS
 62
    7
 10
575.00028745215263
 20
92.845343709660199
 11
565.00055329666668
 21
92.845343709660199
  0
LINE
  8
_0-2_body
  6
CONTINUOUS
 62
    7
 10
560.99941940009739
 20
-54.788194393622405
 11
559.00160852820102
 21
-54.788194393622405
  0
LINE
  8
_0-2_body
  6
CONTINUOUS
 62
    7
 10
555.99989683190279
 20
-54.6435003832419
 11
559.00160852820102
 21
-54.6435003832419
  0
LINE
  8
_0-2_body
  6
CONTINUOUS
 62
    7
 10
560.99941940009739
 20
-54.6435003832419
 11
564.00147560594405
 21
-54.6435003832419
  0
LINE
  8
_0-2_body
  6
CONTINUOUS
 62
    7
 10
565.00055329666668
 20
-77.119303329011814
 11
565.00055329666668
 21
-77.399045082414091
  0
LINE
  8
_0-2_body
  6
CONTINUOUS
 62
    7
 10
555.00047463163173
 20
-77.399045082414091
 11
555.00047463163173
 21
-77.119303329011814
  0
LINE
  8
_0-2_body
  6
CONTINUOUS
 62
    7
 10
555.00047463163173
 20
-77.119303329011814
 11
557.49954689663218
 21
-73.548117349001899
  0
LINE
  8
_0-2_body
  6
CONTINUOUS
 62
    7
 10
557.49954689663218
 20
-73.548117349001899
 11
562.50148103166634
 21
-73.548117349001899
  0
LINE
  8
_0-2_body
  6
CONTINUOUS
 62
    7
 10
562.50148103166634
 20
-73.548117349001899
 11
565.00055329666668
 21
-77.119303329011814
  0
LINE
  8
_0-2_body
  6
CONTINUOUS
 62
    7
 10
570.74903962335441
 20
-61.395198515234512
 11
570.61192482304148
 21
-60.034730308109374
  0
LINE
  8
_0-2_body
  6
CONTINUOUS
 62
    7
 10
570.61192482304148
 20
-60.034730308109374
 11
570.21883942817453
 21
-58.767279679085988
  0
LINE
  8
_0-2_body
  6
CONTINUOUS
 62
    7
 10
570.21883942817453
 20
-58.767279679085988
 11
569.59665518353836
 21
-57.620407392046303
  0
LINE
  8
_0-2_body
  6
CONTINUOUS
 62
    7
 10
569.59665518353836
 20
-57.620407392046303
 11
568.77293285301516
 21
-56.621329701323759
  0
LINE
  8
_0-2_body
  6
CONTINUOUS
 62
    7
 10
568.77293285301516
 20
-56.621329701323759
 11
567.77454418138973
 21
-55.796918351703596
  0
LINE
  8
_0-2_body
  6
CONTINUOUS
 62
    7
 10
567.77454418138973
 20
-55.796918351703596
 11
566.62836091344718
 21
-55.174045087970399
  0
LINE
  8
_0-2_body
  6
CONTINUOUS
 62
    7
 10
566.62836091344718
 20
-55.174045087970399
 11
565.36159930352062
 21
-54.780615183554914
  0
LINE
  8
_0-2_body
  6
CONTINUOUS
 62
    7
 10
565.36159930352062
 20
-54.780615183554914
 11
564.00147560594405
 21
-54.6435003832419
  0
LINE
  8
_0-2_body
  6
CONTINUOUS
 62
    7
 10
570.74903962335441
 20
-61.395198515234512
 11
570.74903962335441
 21
-65.396332411803741
  0
LINE
  8
_0-2_body
  6
CONTINUOUS
 62
    7
 10
570.74903962335441
 20
-65.396332411803741
 11
565.7512396029025
 21
-65.396332411803741
  0
LINE
  8
_0-2_body
  6
CONTINUOUS
 62
    7
 10
565.7512396029025
 20
-65.396332411803741
 11
565.7512396029025
 21
-64.395876682887092
  0
LINE
  8
_0-2_body
  6
CONTINUOUS
 62
    7
 10
565.7512396029025
 20
-64.395876682887092
 11
565.37813576184988
 21
-62.546549426405107
  0
LINE
  8
_0-2_body
  6
CONTINUOUS
 62
    7
 10
565.37813576184988
 20
-62.546549426405107
 11
564.35976553641012
 21
-61.036564075220014
  0
LINE
  8
_0-2_body
  6
CONTINUOUS
 62
    7
 10
564.35976553641012
 20
-61.036564075220014
 11
562.84943567567655
 21
-60.018538359328716
  0
LINE
  8
_0-2_body
  6
CONTINUOUS
 62
    7
 10
562.84943567567655
 20
-60.018538359328716
 11
560.99941940009739
 21
-59.645090008727607
  0
LINE
  8
_0-2_body
  6
CONTINUOUS
 62
    7
 10
560.99941940009739
 20
-59.645090008727607
 11
559.00160852820102
 21
-59.645090008727607
  0
LINE
  8
_0-2_body
  6
CONTINUOUS
 62
    7
 10
559.00160852820102
 20
-59.645090008727607
 11
557.15193676217041
 21
-60.018538359328716
  0
LINE
  8
_0-2_body
  6
CONTINUOUS
 62
    7
 10
557.15193676217041
 20
-60.018538359328716
 11
555.64229592053391
 21
-61.036564075220014
  0
LINE
  8
_0-2_body
  6
CONTINUOUS
 62
    7
 10
555.64229592053391
 20
-61.036564075220014
 11
554.62495922373955
 21
-62.546549426405107
  0
LINE
  8
_0-2_body
  6
CONTINUOUS
 62
    7
 10
554.62495922373955
 20
-62.546549426405107
 11
554.25185538268693
 21
-64.395876682887092
  0
LINE
  8
_0-2_body
  6
CONTINUOUS
 62
    7
 10
554.25185538268693
 20
-64.395876682887092
 11
554.25185538268693
 21
-65.396332411803741
  0
LINE
  8
_0-2_body
  6
CONTINUOUS
 62
    7
 10
554.25185538268693
 20
-65.396332411803741
 11
549.24923222855568
 21
-65.396332411803741
  0
LINE
  8
_0-2_body
  6
CONTINUOUS
 62
    7
 10
549.24923222855568
 20
-65.396332411803741
 11
549.24923222855568
 21
-61.395198515234512
  0
LINE
  8
_0-2_body
  6
CONTINUOUS
 62
    7
 10
555.99989683190279
 20
-54.6435003832419
 11
554.63942862477779
 21
-54.780615183554914
  0
LINE
  8
_0-2_body
  6
CONTINUOUS
 62
    7
 10
554.63942862477779
 20
-54.780615183554914
 11
553.37232250530269
 21
-55.174045087970399
  0
LINE
  8
_0-2_body
  6
CONTINUOUS
 62
    7
 10
553.37232250530269
 20
-55.174045087970399
 11
552.22545021826318
 21
-55.796918351703596
  0
LINE
  8
_0-2_body
  6
CONTINUOUS
 62
    7
 10
552.22545021826318
 20
-55.796918351703596
 11
551.22637252754066
 21
-56.621329701323759
  0
LINE
  8
_0-2_body
  6
CONTINUOUS
 62
    7
 10
551.22637252754066
 20
-56.621329701323759
 11
550.40196117792038
 21
-57.620407392046303
  0
LINE
  8
_0-2_body
  6
CONTINUOUS
 62
    7
 10
550.40196117792038
 20
-57.620407392046303
 11
549.77977693328421
 21
-58.767279679085988
  0
LINE
  8
_0-2_body
  6
CONTINUOUS
 62
    7
 10
549.77977693328421
 20
-58.767279679085988
 11
549.38634702886873
 21
-60.034730308109374
  0
LINE
  8
_0-2_body
  6
CONTINUOUS
 62
    7
 10
549.38634702886873
 20
-60.034730308109374
 11
549.24923222855568
 21
-61.395198515234512
  0
LINE
  8
_0-2_body
  6
CONTINUOUS
 62
    7
 10
560.99941940009739
 20
-66.596603678864682
 11
559.00160852820102
 21
-66.596603678864682
  0
LINE
  8
_0-2_body
  6
CONTINUOUS
 62
    7
 10
559.00160852820102
 20
-62.19480517736099
 11
558.14515779056796
 21
-62.367748970720612
  0
LINE
  8
_0-2_body
  6
CONTINUOUS
 62
    7
 10
558.14515779056796
 20
-62.367748970720612
 11
557.44545889751362
 21
-62.839382542651293
  0
LINE
  8
_0-2_body
  6
CONTINUOUS
 62
    7
 10
557.44545889751362
 20
-62.839382542651293
 11
556.97382532558288
 21
-63.539081435705498
  0
LINE
  8
_0-2_body
  6
CONTINUOUS
 62
    7
 10
556.97382532558288
 20
-63.539081435705498
 11
556.80088153222334
 21
-64.395876682887092
  0
LINE
  8
_0-2_body
  6
CONTINUOUS
 62
    7
 10
556.80088153222334
 20
-64.395876682887092
 11
556.97382532558288
 21
-65.252327420520317
  0
LINE
  8
_0-2_body
  6
CONTINUOUS
 62
    7
 10
556.97382532558288
 20
-65.252327420520317
 11
557.44545889751362
 21
-65.951681804026038
  0
LINE
  8
_0-2_body
  6
CONTINUOUS
 62
    7
 10
557.44545889751362
 20
-65.951681804026038
 11
558.14515779056796
 21
-66.423659885505202
  0
LINE
  8
_0-2_body
  6
CONTINUOUS
 62
    7
 10
558.14515779056796
 20
-66.423659885505202
 11
559.00160852820102
 21
-66.596603678864682
  0
LINE
  8
_0-2_body
  6
CONTINUOUS
 62
    7
 10
559.00160852820102
 20
-62.19480517736099
 11
560.99941940009739
 21
-62.19480517736099
  0
LINE
  8
_0-2_body
  6
CONTINUOUS
 62
    7
 10
560.99941940009739
 20
-66.596603678864682
 11
561.85690366637607
 21
-66.423659885505202
  0
LINE
  8
_0-2_body
  6
CONTINUOUS
 62
    7
 10
561.85690366637607
 20
-66.423659885505202
 11
562.55625804988188
 21
-65.951681804026038
  0
LINE
  8
_0-2_body
  6
CONTINUOUS
 62
    7
 10
562.55625804988188
 20
-65.951681804026038
 11
563.02754711226407
 21
-65.252327420520317
  0
LINE
  8
_0-2_body
  6
CONTINUOUS
 62
    7
 10
563.02754711226407
 20
-65.252327420520317
 11
563.20014639607507
 21
-64.395876682887092
  0
LINE
  8
_0-2_body
  6
CONTINUOUS
 62
    7
 10
563.20014639607507
 20
-64.395876682887092
 11
563.02754711226407
 21
-63.539081435705498
  0
LINE
  8
_0-2_body
  6
CONTINUOUS
 62
    7
 10
563.02754711226407
 20
-63.539081435705498
 11
562.55625804988188
 21
-62.839382542651293
  0
LINE
  8
_0-2_body
  6
CONTINUOUS
 62
    7
 10
562.55625804988188
 20
-62.839382542651293
 11
561.85690366637607
 21
-62.367748970720612
  0
LINE
  8
_0-2_body
  6
CONTINUOUS
 62
    7
 10
561.85690366637607
 20
-62.367748970720612
 11
560.99941940009739
 21
-62.19480517736099
  0
LINE
  8
_0-2_body
  6
CONTINUOUS
 62
    7
 10
555.05318459255614
 20
-78.400534339976303
 11
555.00047463163173
 21
-77.399045082414091
  0
LINE
  8
_0-2_body
  6
CONTINUOUS
 62
    7
 10
565.00055329666668
 20
-77.399045082414091
 11
564.94749882619362
 21
-78.400534339976303
  0
LINE
  8
_0-2_body
  6
CONTINUOUS
 62
    1
 10
551.75002704129861
 20
65.500070550263885
 11
553.25002161557632
 21
65.500070550263885
  0
LINE
  8
_0-2_body
  6
CONTINUOUS
 62
    1
 10
553.75024948003465
 20
65.500070550263885
 11
554.25013283494445
 21
65.500070550263885
  0
LINE
  8
_0-2_body
  6
CONTINUOUS
 62
    1
 10
554.75001618985425
 20
65.500070550263885
 11
556.25001076413207
 21
65.500070550263885
  0
LINE
  8
_0-2_body
  6
CONTINUOUS
 62
    1
 10
556.75023862859018
 20
65.500070550263885
 11
557.25012198349987
 21
65.500070550263885
  0
LINE
  8
_0-2_body
  6
CONTINUOUS
 62
    1
 10
557.75000533840966
 20
65.500070550263885
 11
559.24999991268749
 21
65.500070550263885
  0
LINE
  8
_0-2_body
  6
CONTINUOUS
 62
    1
 10
559.75022777714582
 20
65.500070550263885
 11
560.25011113205562
 21
65.500070550263885
  0
LINE
  8
_0-2_body
  6
CONTINUOUS
 62
    1
 10
560.74999448696531
 20
65.500070550263885
 11
562.24998906124313
 21
65.500070550263885
  0
LINE
  8
_0-2_body
  6
CONTINUOUS
 62
    1
 10
562.75021692570135
 20
65.500070550263885
 11
563.25010028061115
 21
65.500070550263885
  0
LINE
  8
_0-2_body
  6
CONTINUOUS
 62
    1
 10
563.74998363552083
 20
65.500070550263885
 11
565.24997820979866
 21
65.500070550263885
  0
LINE
  8
_0-2_body
  6
CONTINUOUS
 62
    1
 10
566.74997278407648
 20
65.500070550263885
 11
568.24996735835418
 21
65.500070550263885
  0
LINE
  8
_0-2_body
  6
CONTINUOUS
 62
    1
 10
565.75020607425699
 20
65.500070550263885
 11
566.25008942916668
 21
65.500070550263885
  0
LINE
  8
_0-2_body
  6
CONTINUOUS
 62
    1
 10
559.99999719982634
 20
57.25044490128461
 11
559.99999719982634
 21
58.750439475562388
  0
LINE
  8
_0-2_body
  6
CONTINUOUS
 62
    1
 10
559.99999719982634
 20
59.250667340020669
 11
559.99999719982634
 21
59.750550694930411
  0
LINE
  8
_0-2_body
  6
CONTINUOUS
 62
    1
 10
559.99999719982634
 20
60.250434049840166
 11
559.99999719982634
 21
61.750428624117944
  0
LINE
  8
_0-2_body
  6
CONTINUOUS
 62
    1
 10
559.99999719982634
 20
62.250656488576226
 11
559.99999719982634
 21
62.750539843485967
  0
LINE
  8
_0-2_body
  6
CONTINUOUS
 62
    1
 10
559.99999719982634
 20
63.250423198395723
 11
559.99999719982634
 21
64.750417772673487
  0
LINE
  8
_0-2_body
  6
CONTINUOUS
 62
    1
 10
559.99999719982634
 20
65.250645637131782
 11
559.99999719982634
 21
65.750528992041509
  0
LINE
  8
_0-2_body
  6
CONTINUOUS
 62
    1
 10
559.99999719982634
 20
66.250412346951293
 11
559.99999719982634
 21
67.750406921229057
  0
LINE
  8
_0-2_body
  6
CONTINUOUS
 62
    1
 10
559.99999719982634
 20
68.250634785687339
 11
559.99999719982634
 21
68.750518140597094
  0
LINE
  8
_0-2_body
  6
CONTINUOUS
 62
    1
 10
559.99999719982634
 20
69.25040149550685
 11
559.99999719982634
 21
70.750396069784614
  0
LINE
  8
_0-2_body
  6
CONTINUOUS
 62
    1
 10
559.99999719982634
 20
72.250390644062392
 11
559.99999719982634
 21
73.750385218340185
  0
LINE
  8
_0-2_body
  6
CONTINUOUS
 62
    1
 10
559.99999719982634
 20
71.250623934242896
 11
559.99999719982634
 21
71.750507289152651
  0
LINE
  8
_0-2_body
  6
CONTINUOUS
 62
    1
 10
551.75002704129861
 20
-64.500263076090192
 11
553.25002161557632
 21
-64.500263076090192
  0
LINE
  8
_0-2_body
  6
CONTINUOUS
 62
    1
 10
553.75024948003465
 20
-64.500263076090192
 11
554.25013283494445
 21
-64.500263076090192
  0
LINE
  8
_0-2_body
  6
CONTINUOUS
 62
    1
 10
554.75001618985425
 20
-64.500263076090192
 11
556.25001076413207
 21
-64.500263076090192
  0
LINE
  8
_0-2_body
  6
CONTINUOUS
 62
    1
 10
556.75023862859018
 20
-64.500263076090192
 11
557.25012198349987
 21
-64.500263076090192
  0
LINE
  8
_0-2_body
  6
CONTINUOUS
 62
    1
 10
557.75000533840966
 20
-64.500263076090192
 11
559.24999991268749
 21
-64.500263076090192
  0
LINE
  8
_0-2_body
  6
CONTINUOUS
 62
    1
 10
559.75022777714582
 20
-64.500263076090192
 11
560.25011113205562
 21
-64.500263076090192
  0
LINE
  8
_0-2_body
  6
CONTINUOUS
 62
    1
 10
560.74999448696531
 20
-64.500263076090192
 11
562.24998906124313
 21
-64.500263076090192
  0
LINE
  8
_0-2_body
  6
CONTINUOUS
 62
    1
 10
562.75021692570135
 20
-64.500263076090192
 11
563.25010028061115
 21
-64.500263076090192
  0
LINE
  8
_0-2_body
  6
CONTINUOUS
 62
    1
 10
563.74998363552083
 20
-64.500263076090192
 11
565.24997820979866
 21
-64.500263076090192
  0
LINE
  8
_0-2_body
  6
CONTINUOUS
 62
    1
 10
566.74997278407648
 20
-64.500263076090192
 11
568.24996735835418
 21
-64.500263076090192
  0
LINE
  8
_0-2_body
  6
CONTINUOUS
 62
    1
 10
565.75020607425699
 20
-64.500263076090192
 11
566.25008942916668
 21
-64.500263076090192
  0
LINE
  8
_0-2_body
  6
CONTINUOUS
 62
    1
 10
559.99999719982634
 20
-72.749888725069496
 11
559.99999719982634
 21
-71.249894150791675
  0
LINE
  8
_0-2_body
  6
CONTINUOUS
 62
    1
 10
559.99999719982634
 20
-70.749666286333394
 11
559.99999719982634
 21
-70.249782931423681
  0
LINE
  8
_0-2_body
  6
CONTINUOUS
 62
    1
 10
559.99999719982634
 20
-69.74989957651394
 11
559.99999719982634
 21
-68.249905002236119
  0
LINE
  8
_0-2_body
  6
CONTINUOUS
 62
    1
 10
559.99999719982634
 20
-67.749677137777923
 11
559.99999719982634
 21
-67.249793782868096
  0
LINE
  8
_0-2_body
  6
CONTINUOUS
 62
    1
 10
559.99999719982634
 20
-66.749910427958412
 11
559.99999719982634
 21
-65.249915853680619
  0
LINE
  8
_0-2_body
  6
CONTINUOUS
 62
    1
 10
559.99999719982634
 20
-64.749687989222309
 11
559.99999719982634
 21
-64.249804634312625
  0
LINE
  8
_0-2_body
  6
CONTINUOUS
 62
    1
 10
559.99999719982634
 20
-63.749921279402798
 11
559.99999719982634
 21
-62.249926705125006
  0
LINE
  8
_0-2_body
  6
CONTINUOUS
 62
    1
 10
559.99999719982634
 20
-61.749698840666809
 11
559.99999719982634
 21
-61.249815485757011
  0
LINE
  8
_0-2_body
  6
CONTINUOUS
 62
    1
 10
559.99999719982634
 20
-60.749932130847185
 11
559.99999719982634
 21
-59.249937556569506
  0
LINE
  8
_0-2_body
  6
CONTINUOUS
 62
    1
 10
559.99999719982634
 20
-57.749942982291714
 11
559.99999719982634
 21
-56.249948408013864
  0
LINE
  8
_0-2_body
  6
CONTINUOUS
 62
    1
 10
559.99999719982634
 20
-58.749709692111168
 11
559.99999719982634
 21
-58.249826337201512
  0
LINE
  8
_0-2_body
  6
CONTINUOUS
 62
    1
 10
351.75000403357291
 20
-64.500263076090192
 11
353.24999860785067
 21
-64.500263076090192
  0
LINE
  8
_0-2_body
  6
CONTINUOUS
 62
    1
 10
353.75022647230901
 20
-64.500263076090192
 11
354.25010982721869
 21
-64.500263076090192
  0
LINE
  8
_0-2_body
  6
CONTINUOUS
 62
    1
 10
354.74999318212849
 20
-64.500263076090192
 11
356.24998775640631
 21
-64.500263076090192
  0
LINE
  8
_0-2_body
  6
CONTINUOUS
 62
    1
 10
356.75021562086448
 20
-64.500263076090192
 11
357.25009897577428
 21
-64.500263076090192
  0
LINE
  8
_0-2_body
  6
CONTINUOUS
 62
    1
 10
357.74998233068402
 20
-64.500263076090192
 11
359.24997690496184
 21
-64.500263076090192
  0
LINE
  8
_0-2_body
  6
CONTINUOUS
 62
    1
 10
359.75020476942007
 20
-64.500263076090192
 11
360.25008812432981
 21
-64.500263076090192
  0
LINE
  8
_0-2_body
  6
CONTINUOUS
 62
    1
 10
360.7499714792396
 20
-64.500263076090192
 11
362.24996605351737
 21
-64.500263076090192
  0
LINE
  8
_0-2_body
  6
CONTINUOUS
 62
    1
 10
362.75019391797571
 20
-64.500263076090192
 11
363.25007727288539
 21
-64.500263076090192
  0
LINE
  8
_0-2_body
  6
CONTINUOUS
 62
    1
 10
363.74996062779519
 20
-64.500263076090192
 11
365.2499552020729
 21
-64.500263076090192
  0
LINE
  8
_0-2_body
  6
CONTINUOUS
 62
    1
 10
366.74994977635072
 20
-64.500263076090192
 11
368.24994435062854
 21
-64.500263076090192
  0
LINE
  8
_0-2_body
  6
CONTINUOUS
 62
    1
 10
365.75018306653124
 20
-64.500263076090192
 11
366.25006642144098
 21
-64.500263076090192
  0
LINE
  8
_0-2_body
  6
CONTINUOUS
 62
    1
 10
359.99997419210069
 20
-72.749888725069496
 11
359.99997419210069
 21
-71.249894150791675
  0
LINE
  8
_0-2_body
  6
CONTINUOUS
 62
    1
 10
359.99997419210069
 20
-70.749666286333394
 11
359.99997419210069
 21
-70.249782931423681
  0
LINE
  8
_0-2_body
  6
CONTINUOUS
 62
    1
 10
359.99997419210069
 20
-69.74989957651394
 11
359.99997419210069
 21
-68.249905002236119
  0
LINE
  8
_0-2_body
  6
CONTINUOUS
 62
    1
 10
359.99997419210069
 20
-67.749677137777923
 11
359.99997419210069
 21
-67.249793782868096
  0
LINE
  8
_0-2_body
  6
CONTINUOUS
 62
    1
 10
359.99997419210069
 20
-66.749910427958412
 11
359.99997419210069
 21
-65.249915853680619
  0
LINE
  8
_0-2_body
  6
CONTINUOUS
 62
    1
 10
359.99997419210069
 20
-64.749687989222309
 11
359.99997419210069
 21
-64.249804634312625
  0
LINE
  8
_0-2_body
  6
CONTINUOUS
 62
    1
 10
359.99997419210069
 20
-63.749921279402798
 11
359.99997419210069
 21
-62.249926705125006
  0
LINE
  8
_0-2_body
  6
CONTINUOUS
 62
    1
 10
359.99997419210069
 20
-61.749698840666809
 11
359.99997419210069
 21
-61.249815485757011
  0
LINE
  8
_0-2_body
  6
CONTINUOUS
 62
    1
 10
359.99997419210069
 20
-60.749932130847185
 11
359.99997419210069
 21
-59.249937556569506
  0
LINE
  8
_0-2_body
  6
CONTINUOUS
 62
    1
 10
359.99997419210069
 20
-57.749942982291714
 11
359.99997419210069
 21
-56.249948408013864
  0
LINE
  8
_0-2_body
  6
CONTINUOUS
 62
    1
 10
359.99997419210069
 20
-58.749709692111168
 11
359.99997419210069
 21
-58.249826337201512
  0
LINE
  8
_0-2_body
  6
CONTINUOUS
 62
    1
 10
351.75000403357291
 20
65.500070550263885
 11
353.24999860785067
 21
65.500070550263885
  0
LINE
  8
_0-2_body
  6
CONTINUOUS
 62
    1
 10
353.75022647230901
 20
65.500070550263885
 11
354.25010982721869
 21
65.500070550263885
  0
LINE
  8
_0-2_body
  6
CONTINUOUS
 62
    1
 10
354.74999318212849
 20
65.500070550263885
 11
356.24998775640631
 21
65.500070550263885
  0
LINE
  8
_0-2_body
  6
CONTINUOUS
 62
    1
 10
356.75021562086448
 20
65.500070550263885
 11
357.25009897577428
 21
65.500070550263885
  0
LINE
  8
_0-2_body
  6
CONTINUOUS
 62
    1
 10
357.74998233068402
 20
65.500070550263885
 11
359.24997690496184
 21
65.500070550263885
  0
LINE
  8
_0-2_body
  6
CONTINUOUS
 62
    1
 10
359.75020476942007
 20
65.500070550263885
 11
360.25008812432981
 21
65.500070550263885
  0
LINE
  8
_0-2_body
  6
CONTINUOUS
 62
    1
 10
360.7499714792396
 20
65.500070550263885
 11
362.24996605351737
 21
65.500070550263885
  0
LINE
  8
_0-2_body
  6
CONTINUOUS
 62
    1
 10
362.75019391797571
 20
65.500070550263885
 11
363.25007727288539
 21
65.500070550263885
  0
LINE
  8
_0-2_body
  6
CONTINUOUS
 62
    1
 10
363.74996062779519
 20
65.500070550263885
 11
365.2499552020729
 21
65.500070550263885
  0
LINE
  8
_0-2_body
  6
CONTINUOUS
 62
    1
 10
366.74994977635072
 20
65.500070550263885
 11
368.24994435062854
 21
65.500070550263885
  0
LINE
  8
_0-2_body
  6
CONTINUOUS
 62
    1
 10
365.75018306653124
 20
65.500070550263885
 11
366.25006642144098
 21
65.500070550263885
  0
LINE
  8
_0-2_body
  6
CONTINUOUS
 62
    1
 10
359.99997419210069
 20
57.25044490128461
 11
359.99997419210069
 21
58.750439475562388
  0
LINE
  8
_0-2_body
  6
CONTINUOUS
 62
    1
 10
359.99997419210069
 20
59.250667340020669
 11
359.99997419210069
 21
59.750550694930411
  0
LINE
  8
_0-2_body
  6
CONTINUOUS
 62
    1
 10
359.99997419210069
 20
60.250434049840166
 11
359.99997419210069
 21
61.750428624117944
  0
LINE
  8
_0-2_body
  6
CONTINUOUS
 62
    1
 10
359.99997419210069
 20
62.250656488576226
 11
359.99997419210069
 21
62.750539843485967
  0
LINE
  8
_0-2_body
  6
CONTINUOUS
 62
    1
 10
359.99997419210069
 20
63.250423198395723
 11
359.99997419210069
 21
64.750417772673487
  0
LINE
  8
_0-2_body
  6
CONTINUOUS
 62
    1
 10
359.99997419210069
 20
65.250645637131782
 11
359.99997419210069
 21
65.750528992041509
  0
LINE
  8
_0-2_body
  6
CONTINUOUS
 62
    1
 10
359.99997419210069
 20
66.250412346951293
 11
359.99997419210069
 21
67.750406921229057
  0
LINE
  8
_0-2_body
  6
CONTINUOUS
 62
    1
 10
359.99997419210069
 20
68.250634785687339
 11
359.99997419210069
 21
68.750518140597094
  0
LINE
  8
_0-2_body
  6
CONTINUOUS
 62
    1
 10
359.99997419210069
 20
69.25040149550685
 11
359.99997419210069
 21
70.750396069784614
  0
LINE
  8
_0-2_body
  6
CONTINUOUS
 62
    1
 10
359.99997419210069
 20
72.250390644062392
 11
359.99997419210069
 21
73.750385218340185
  0
LINE
  8
_0-2_body
  6
CONTINUOUS
 62
    1
 10
359.99997419210069
 20
71.250623934242896
 11
359.99997419210069
 21
71.750507289152651
  0
LINE
  8
_0-2_body
  6
CONTINUOUS
 62
    1
 10
229.99998507529514
 20
123.4999755921875
 11
269.9999552258854
 21
123.4999755921875
  0
LINE
  8
_0-2_body
  6
CONTINUOUS
 62
    1
 10
300.00001896621529
 20
123.4999755921875
 11
316.60003930711741
 21
123.4999755921875
  0
LINE
  8
_0-2_body
  6
CONTINUOUS
 62
    1
 10
509.99994838420139
 20
123.4999755921875
 11
520.00002704923611
 21
123.4999755921875
  0
LINE
  8
_0-2_body
  6
CONTINUOUS
 62
    1
 10
440.00008674805548
 20
123.4999755921875
 11
480.00005689864582
 21
123.4999755921875
  0
LINE
  8
_0-3_unit222
  6
CONTINUOUS
 62
    1
 10
300.00001896621529
 20
107.49991863004168
 11
300.00001896621529
 21
123.4999755921875
  0
LINE
  8
_0-3_unit222
  6
CONTINUOUS
 62
    1
 10
316.60003930711741
 20
105.50004070085416
 11
316.60003930711741
 21
123.4999755921875
  0
INSERT
  2
-018-block_19
  8
_0-3_unit222
 10
210
 20
148.5
 41
1000000
 42
1000000
 50
0
  0
LINE
  8
_0-3_unit222
  6
CONTINUOUS
 62
    1
 10
269.9999552258854
 20
107.49991863004168
 11
269.9999552258854
 21
123.4999755921875
  0
LINE
  8
_0-3_unit222
  6
CONTINUOUS
 62
    1
 10
229.99998507529514
 20
107.49991863004168
 11
229.99998507529514
 21
123.4999755921875
  0
INSERT
  2
-019-block_21
  8
_0-3_unit222
 10
210
 20
148.5
 41
1000000
 42
1000000
 50
0
  0
LINE
  8
_0-3_unit222
  6
CONTINUOUS
 62
    1
 10
286.99995115262504
 20
108.50002984940971
 11
264.9999158933681
 21
108.50002984940971
  0
LINE
  8
_0-3_unit222
  6
CONTINUOUS
 62
    1
 10
286.99995115262504
 20
-85.499842606430605
 11
264.9999158933681
 21
-85.499842606430605
  0
LINE
  8
_0-3_unit222
  6
CONTINUOUS
 62
    1
 10
382.00000945135764
 20
-64.499918566541709
 11
402.99993349124657
 21
-64.499918566541709
  0
LINE
  8
_0-3_unit222
  6
CONTINUOUS
 62
    1
 10
375.00009218965283
 20
108.50002984940971
 11
403.00010574602084
 21
108.50002984940971
  0
LINE
  8
_0-3_unit222
  6
CONTINUOUS
 62
    1
 10
382.00000945135764
 20
65.500070550263885
 11
403.00010574602084
 21
65.500070550263885
  0
LINE
  8
_0-3_unit222
  6
CONTINUOUS
 62
    1
 10
402.99993349124657
 20
108.50002984940971
 11
402.99993349124657
 21
65.500070550263885
  0
INSERT
  2
-022-block_23
  8
_0-3_unit222
 10
210
 20
148.5
 41
1000000
 42
1000000
 50
0
  0
INSERT
  2
-024-block_25
  8
_0-3_unit222
 10
210
 20
148.5
 41
1000000
 42
1000000
 50
0
  0
LINE
  8
_0-3_unit222
  6
CONTINUOUS
 62
    1
 10
402.99993349124657
 20
-64.499918566541709
 11
402.99993349124657
 21
65.500070550263885
  0
LINE
  8
_0-3_unit222
  6
CONTINUOUS
 62
    1
 10
509.99994838420139
 20
107.49991863004168
 11
509.99994838420139
 21
123.4999755921875
  0
LINE
  8
_0-3_unit222
  6
CONTINUOUS
 62
    1
 10
520.00002704923611
 20
105.50004070085416
 11
520.00002704923611
 21
123.4999755921875
  0
INSERT
  2
-026-block_27
  8
_0-3_unit222
 10
210
 20
148.5
 41
1000000
 42
1000000
 50
0
  0
LINE
  8
_0-3_unit222
  6
CONTINUOUS
 62
    1
 10
480.00005689864582
 20
107.49991863004168
 11
480.00005689864582
 21
123.4999755921875
  0
LINE
  8
_0-3_unit222
  6
CONTINUOUS
 62
    1
 10
440.00008674805548
 20
107.49991863004168
 11
440.00008674805548
 21
123.4999755921875
  0
INSERT
  2
-027-block_29
  8
_0-3_unit222
 10
210
 20
148.5
 41
1000000
 42
1000000
 50
0
  0
LINE
  8
_0-3_unit222
  6
CONTINUOUS
 62
    1
 10
496.99988057061108
 20
108.50002984940971
 11
474.99984531135419
 21
108.50002984940971
  0
LINE
  8
_0-3_unit222
  6
CONTINUOUS
 62
    1
 10
496.99988057061108
 20
-85.499842606430605
 11
474.99984531135419
 21
-85.499842606430605
  0
INSERT
  2
-028-block_30
  8
_0-3_unit222
 10
210
 20
148.5
 41
1000000
 42
1000000
 50
0
  0
LINE
  8
_0-3_unit222
  6
CONTINUOUS
 62
    1
 10
582.00003245908329
 20
-64.499918566541709
 11
602.99995649897232
 21
-64.499918566541709
  0
LINE
  8
_0-3_unit222
  6
CONTINUOUS
 62
    1
 10
574.99994294260432
 20
108.50002984940971
 11
602.99995649897232
 21
108.50002984940971
  0
LINE
  8
_0-3_unit222
  6
CONTINUOUS
 62
    1
 10
582.00003245908329
 20
65.500070550263885
 11
602.99995649897232
 21
65.500070550263885
  0
LINE
  8
_0-3_unit222
  6
CONTINUOUS
 62
    1
 10
602.99995649897232
 20
108.50002984940971
 11
602.99995649897232
 21
65.500070550263885
  0
INSERT
  2
-030-block_31
  8
_0-3_unit222
 10
210
 20
148.5
 41
1000000
 42
1000000
 50
0
  0
INSERT
  2
-032-block_33
  8
_0-3_unit222
 10
210
 20
148.5
 41
1000000
 42
1000000
 50
0
  0
LINE
  8
_0-3_unit222
  6
CONTINUOUS
 62
    1
 10
602.99995649897232
 20
-64.499918566541709
 11
602.99995649897232
 21
65.500070550263885
  0
INSERT
  2
-033-block_35
  8
_0-3_unit222
 10
210
 20
148.5
 41
1000000
 42
1000000
 50
0
  0
INSERT
  2
-034-block_36
  8
_0-3_unit222
 10
210
 20
148.5
 41
1000000
 42
1000000
 50
0
  0
INSERT
  2
-035-block_37
  8
_0-3_unit222
 10
210
 20
148.5
 41
1000000
 42
1000000
 50
0
  0
INSERT
  2
-036-block_38
  8
_0-3_unit222
 10
210
 20
148.5
 41
1000000
 42
1000000
 50
0
  0
INSERT
  2
-037-block_39
  8
_0-3_unit222
 10
210
 20
148.5
 41
1000000
 42
1000000
 50
0
  0
INSERT
  2
-038-block_40
  8
_0-3_unit222
 10
210
 20
148.5
 41
1000000
 42
1000000
 50
0
  0
LINE
  8
_0-3_unit222
  6
CONTINUOUS
 62
    1
 10
286.99995115262504
 20
108.50002984940971
 11
286.99995115262504
 21
-85.499842606430605
  0
LINE
  8
_0-3_unit222
  6
CONTINUOUS
 62
    1
 10
496.99988057061108
 20
108.50002984940971
 11
496.99988057061108
 21
-85.499842606430605
  0
TEXT
  8
_0-0_0
 62
    7
 10
237.74522292993632
 20
73.146496815286625
 40
12
 41
1
 50
0
  1
自動
  0
TEXT
  8
_0-0_0
 62
    7
 10
447.72611464968151
 20
73.146496815286625
 40
12
 41
1
 50
0
  1
自動
  0
TEXT
  8
_0-0_0
 62
    7
 10
242.47452229299364
 20
-69.363057324840753
 40
7
 41
1
 50
0
  1
PUSH
  0
TEXT
  8
_0-0_0
 62
    7
 10
452.45541401273886
 20
-69.363057324840753
 40
7
 41
1
 50
0
  1
PUSH
  0
TEXT
  8
_0-0_0
 62
    7
 10
249.97452229299364
 20
50.130573248407643
 40
15
 41
1
 50
0
  1
押して下さい
  7
TATEGAKI
  0
TEXT
  8
_0-0_0
 62
    7
 10
459.95541401273886
 20
50.445859872611464
 40
15
 41
1
 50
0
  1
押して下さい
  7
TATEGAKI
  0
TEXT
  8
_0-0_0
 62
    7
 10
247.51910828025478
 20
125.1687898089172
 40
6
 41
1
 50
0
  1
40
  0
TEXT
  8
_0-0_0
 62
    7
 10
302.37898089171972
 20
124.85350318471338
 40
6
 41
1
 50
0
  1
16.6
  0
TEXT
  8
_0-0_0
 62
    7
 10
456.86942675159236
 20
124.85350318471338
 40
6
 41
1
 50
0
  1
40
  0
TEXT
  8
_0-0_0
 62
    7
 10
511.72929936305729
 20
124.53821656050955
 40
6
 41
1
 50
0
  1
10
  0
TEXT
  8
_0-0_0
 62
    7
 10
285.35350318471336
 20
7.2515923566878939
 40
6
 41
1
 50
90
  1
194
  0
TEXT
  8
_0-0_0
 62
    7
 10
495.33439490445858
 20
8.5127388535031798
 40
6
 41
1
 50
90
  1
194
  0
TEXT
  8
_0-0_0
 62
    7
 10
401.37898089171972
 20
83.235668789808912
 40
6
 41
1
 50
90
  1
43
  0
TEXT
  8
_0-0_0
 62
    7
 10
601.27070063694259
 20
83.235668789808912
 40
6
 41
1
 50
90
  1
43
  0
TEXT
  8
_0-0_0
 62
    7
 10
400.74840764331213
 20
-26.484076433121004
 40
6
 41
1
 50
90
  1
Mounting pitch 130
  0
TEXT
  8
_0-0_0
 62
    7
 10
600.95541401273886
 20
-26.799363057324854
 40
6
 41
1
 50
90
  1
Mounting pitch 130
  0
TEXT
  8
_0-0_0
 62
    7
 10
214.72929936305732
 20
-145.97770700636943
 40
6
 41
1
 50
0
  1
MODEL OW-503T / OW-503TM / OW-503S
  0
TEXT
  8
_0-0_0
 62
    7
 10
230.1783439490446
 20
-128.63694267515922
 40
3
 41
1
 50
0
  1
OW-503T / OW-503TM
  0
TEXT
  8
_0-0_0
 62
    7
 10
439.843949044586
 20
-128.32165605095543
 40
3
 41
1
 50
0
  1
OW-503S
  0
TEXT
  8
_0-0_0
 62
    7
 10
609.15286624203827
 20
-128.63694267515922
 40
3
 41
1
 50
0
  1
unit : mm
  0
TEXT
  8
_0-0_0
 62
    7
 10
548.89176397735309
 20
-146.06625973106861
 40
6
 41
1
 50
0
  1
OPTEX CO., LTD.
  0
TEXT
  8
_0-0_0
 62
    7
 10
603.12106334041039
 20
-146.38154635527241
 40
6
 41
1
 50
0
  1
2020.09
  0
ENDSEC
  0
EOF
